  0
SECTION
  2
HEADER
  9
$ACADVER
  1
AC1015
  9
$ACADMAINTVER
 70
     6
  9
$DWGCODEPAGE
  3
DOS932
  9
$INSBASE
 10
0.0
 20
0.0
 30
0.0
  9
$EXTMIN
 10
-790.05731
 20
0.0
 30
0.0
  9
$EXTMAX
 10
1219.94269
 20
297.0
 30
5.0
  9
$LIMMIN
 10
-790.05731
 20
0.0
  9
$LIMMAX
 10
1219.94269
 20
297.0
  9
$ORTHOMODE
 70
     0
  9
$REGENMODE
 70
     1
  9
$FILLMODE
 70
     1
  9
$QTEXTMODE
 70
     0
  9
$MIRRTEXT
 70
     1
  9
$LTSCALE
 40
10.0
  9
$ATTMODE
 70
     1
  9
$TEXTSIZE
 40
0.2
  9
$TRACEWID
 40
0.05
  9
$TEXTSTYLE
  7
Standard
  9
$CLAYER
  8
0
  9
$CELTYPE
  6
Continuous
  9
$CECOLOR
 62
   256
  9
$CELTSCALE
 40
1.0
  9
$DISPSILH
 70
     0
  9
$DIMSCALE
 40
1.0
  9
$DIMASZ
 40
1.8
  9
$DIMEXO
 40
1.8
  9
$DIMDLI
 40
0.38
  9
$DIMRND
 40
0.0
  9
$DIMDLE
 40
0.0
  9
$DIMEXE
 40
1.8
  9
$DIMTP
 40
0.0
  9
$DIMTM
 40
0.0
  9
$DIMTXT
 40
6.0
  9
$DIMCEN
 40
0.09
  9
$DIMTSZ
 40
0.0
  9
$DIMTOL
 70
     0
  9
$DIMLIM
 70
     0
  9
$DIMTIH
 70
     0
  9
$DIMTOH
 70
     0
  9
$DIMSE1
 70
     0
  9
$DIMSE2
 70
     0
  9
$DIMTAD
 70
     1
  9
$DIMZIN
 70
     0
  9
$DIMBLK
  1

  9
$DIMASO
 70
     1
  9
$DIMSHO
 70
     1
  9
$DIMPOST
  1

  9
$DIMAPOST
  1

  9
$DIMALT
 70
     0
  9
$DIMALTD
 70
     2
  9
$DIMALTF
 40
25.4
  9
$DIMLFAC
 40
1.0
  9
$DIMTOFL
 70
     0
  9
$DIMTVP
 40
0.0
  9
$DIMTIX
 70
     0
  9
$DIMSOXD
 70
     0
  9
$DIMSAH
 70
     0
  9
$DIMBLK1
  1

  9
$DIMBLK2
  1

  9
$DIMSTYLE
  2
Standard
  9
$DIMCLRD
 70
     7
  9
$DIMCLRE
 70
     7
  9
$DIMCLRT
 70
     7
  9
$DIMTFAC
 40
0.7
  9
$DIMGAP
 40
1.2
  9
$DIMJUST
 70
     0
  9
$DIMSD1
 70
     0
  9
$DIMSD2
 70
     0
  9
$DIMTOLJ
 70
     1
  9
$DIMTZIN
 70
     0
  9
$DIMALTZ
 70
     0
  9
$DIMALTTZ
 70
     0
  9
$DIMUPT
 70
     0
  9
$DIMDEC
 70
     7
  9
$DIMTDEC
 70
     4
  9
$DIMALTU
 70
     2
  9
$DIMALTTD
 70
     2
  9
$DIMTXSTY
  7
Standard
  9
$DIMAUNIT
 70
     0
  9
$DIMADEC
 70
     0
  9
$DIMALTRND
 40
0.0
  9
$DIMAZIN
 70
     0
  9
$DIMDSEP
 70
     0
  9
$DIMATFIT
 70
     3
  9
$DIMFRAC
 70
     0
  9
$DIMLDRBLK
  1

  9
$DIMLUNIT
 70
     2
  9
$DIMLWD
 70
     0
  9
$DIMLWE
 70
     0
  9
$DIMTMOVE
 70
     0
  9
$LUNITS
 70
     2
  9
$LUPREC
 70
     4
  9
$SKETCHINC
 40
0.1
  9
$FILLETRAD
 40
0.0
  9
$AUNITS
 70
     0
  9
$AUPREC
 70
     0
  9
$MENU
  1
acad
  9
$ELEVATION
 40
0.0
  9
$PELEVATION
 40
0.0
  9
$THICKNESS
 40
0.0
  9
$LIMCHECK
 70
     0
  9
$CHAMFERA
 40
0.0
  9
$CHAMFERB
 40
0.0
  9
$CHAMFERC
 40
0.0
  9
$CHAMFERD
 40
0.0
  9
$SKPOLY
 70
     0
  9
$TDCREATE
 40
2460210.767210648
  9
$TDUCREATE
 40
0.000000000
  9
$TDUPDATE
 40
2460210.391979167
  9
$TDUUPDATE
 40
0.000000000
  9
$TDINDWG
 40
0.0000000000
  9
$TDUSRTIMER
 40
0.0000000000
  9
$USRTIMER
 70
     1
  9
$ANGBASE
 50
0.0
  9
$ANGDIR
 70
     0
  9
$PDMODE
 70
     0
  9
$PDSIZE
 40
0.0
  9
$PLINEWID
 40
0.0
  9
$SPLFRAME
 70
     0
  9
$SPLINETYPE
 70
     6
  9
$SPLINESEGS
 70
     8
  9
$HANDSEED
  5
4E8
  9
$SURFTAB1
 70
     6
  9
$SURFTAB2
 70
     6
  9
$SURFTYPE
 70
     6
  9
$SURFU
 70
     6
  9
$SURFV
 70
     6
  9
$UCSBASE
  2

  9
$UCSNAME
  2

  9
$UCSORG
 10
0.0
 20
0.0
 30
0.0
  9
$UCSXDIR
 10
1.0
 20
0.0
 30
0.0
  9
$UCSYDIR
 10
0.0
 20
1.0
 30
0.0
  9
$UCSORTHOREF
  2

  9
$UCSORTHOVIEW
 70
     0
  9
$UCSORGTOP
 10
0.0
 20
0.0
 30
0.0
  9
$UCSORGBOTTOM
 10
0.0
 20
0.0
 30
0.0
  9
$UCSORGLEFT
 10
0.0
 20
0.0
 30
0.0
  9
$UCSORGRIGHT
 10
0.0
 20
0.0
 30
0.0
  9
$UCSORGFRONT
 10
0.0
 20
0.0
 30
0.0
  9
$UCSORGBACK
 10
0.0
 20
0.0
 30
0.0
  9
$PUCSBASE
  2

  9
$PUCSNAME
  2

  9
$PUCSORG
 10
0.0
 20
0.0
 30
0.0
  9
$PUCSXDIR
 10
1.0
 20
0.0
 30
0.0
  9
$PUCSYDIR
 10
0.0
 20
1.0
 30
0.0
  9
$PUCSORTHOREF
  2

  9
$PUCSORTHOVIEW
 70
     0
  9
$PUCSORGTOP
 10
0.0
 20
0.0
 30
0.0
  9
$PUCSORGBOTTOM
 10
0.0
 20
0.0
 30
0.0
  9
$PUCSORGLEFT
 10
0.0
 20
0.0
 30
0.0
  9
$PUCSORGRIGHT
 10
0.0
 20
0.0
 30
0.0
  9
$PUCSORGFRONT
 10
0.0
 20
0.0
 30
0.0
  9
$PUCSORGBACK
 10
0.0
 20
0.0
 30
0.0
  9
$USERI1
 70
     0
  9
$USERI2
 70
     0
  9
$USERI3
 70
     0
  9
$USERI4
 70
     0
  9
$USERI5
 70
     0
  9
$USERR1
 40
0.0
  9
$USERR2
 40
0.0
  9
$USERR3
 40
0.0
  9
$USERR4
 40
0.0
  9
$USERR5
 40
0.0
  9
$WORLDVIEW
 70
     1
  9
$SHADEDGE
 70
     3
  9
$SHADEDIF
 70
    70
  9
$TILEMODE
 70
     1
  9
$MAXACTVP
 70
    16
  9
$PINSBASE
 10
0.0
 20
0.0
 30
0.0
  9
$PLIMCHECK
 70
     0
  9
$PEXTMIN
 10
1.000000E+20
 20
1.000000E+20
 30
1.000000E+20
  9
$PEXTMAX
 10
-1.000000E+20
 20
-1.000000E+20
 30
-1.000000E+20
  9
$PLIMMIN
 10
0.0
 20
0.0
  9
$PLIMMAX
 10
12.0
 20
9.0
  9
$UNITMODE
 70
     0
  9
$VISRETAIN
 70
     0
  9
$PLINEGEN
 70
     1
  9
$PSLTSCALE
 70
     0
  9
$TREEDEPTH
 70
  3020
  9
$CMLSTYLE
  2
Standard
  9
$CMLJUST
 70
     0
  9
$CMLSCALE
 40
1.0
  9
$PROXYGRAPHICS
 70
     0
  9
$MEASUREMENT
 70
     0
  9
$CELWEIGHT
370
     0
  9
$ENDCAPS
280
     0
  9
$JOINSTYLE
280
     0
  9
$LWDISPLAY
290
     0
  9
$INSUNITS
 70
     0
  9
$HYPERLINKBASE
  1

  9
$STYLESHEET
  1

  9
$XEDIT
290
     1
  9
$CEPSNTYPE
380
     0
  9
$PSTYLEMODE
290
     1
  9
$FINGERPRINTGUID
  2

  9
$VERSIONGUID
  2

  9
$EXTNAMES
290
     1
  9
$PSVPSCALE
 40
0.0
  0
ENDSEC
  0
SECTION
  2
CLASSES
  0
CLASS
  1
LWPOLYLINE
  2
AcDbPolyline
  3
AutoCAD 2000
 90
        0
280
     0
281
     1
  0
CLASS
  1
IMAGE
  2
AcDbRasterImage
  3
ISM
 90
      127
280
     0
281
     1
  0
CLASS
  1
OLE2FRAME
  2
AcDbOle2Frame
  3
AutoCAD 2000
 90
        0
280
     0
281
     1
  0
CLASS
  1
HATCH
  2
AcDbHatch
  3
AutoCAD 2000
 90
        0
280
     0
281
     1
  0
CLASS
  1
DICTIONARYVAR
  2
AcDbDictionaryVar
  3
AutoCAD 2000
 90
        0
280
     0
281
     0
  0
CLASS
  1
RASTERVARIABLES
  2
AcDbRasterVariables
  3
ISM
 90
        0
280
     0
281
     0
  0
CLASS
  1
IMAGEDEF
  2
AcDbRasterImageDef
  3
ISM
 90
        0
280
     0
281
     0
  0
CLASS
  1
IMAGEDEF_REACTOR
  2
AcDbRasterImageDefReactor
  3
ISM
 90
        1
280
     0
281
     0
  0
CLASS
  1
IDBUFFER
  2
AcDbIdBuffer
  3
AutoCAD 2000
 90
        0
280
     0
281
     0
  0
CLASS
  1
SPATIAL_FILTER
  2
AcDbSpatialFilter
  3
AutoCAD 2000
 90
        0
280
     0
281
     0
  0
CLASS
  1
XRECORD
  2
AcDbXrecord
  3
AutoCAD 2000
 90
        0
280
     0
281
     0
  0
CLASS
  1
SORTENTSTABLE
  2
AcDbSortentsTable
  3
AutoCAD 2000
 90
        0
280
     0
281
     0
  0
CLASS
  1
LAYER_INDEX
  2
AcDbLayerIndex
  3
AutoCAD 2000
 90
        0
280
     0
281
     0
  0
CLASS
  1
SPATIAL_INDEX
  2
AcDbSpatialIndex
  3
AutoCAD 2000
 90
        0
280
     0
281
     0
  0
CLASS
  1
OBJECT_PTR
  2
CAseDLPNTableRecord
  3
"ASE-LPNTableRecord"
 90
        1
280
     0
281
     0
  0
CLASS
  1
LAYOUT
  2
AcDbLayout
  3
AutoCAD 2000
 90
        0
280
     0
281
     0
  0
CLASS
  1
PLOTSETTINGS
  2
AcDbPlotSettings
  3
AutoCAD 2000
 90
        0
280
     0
281
     0
  0
CLASS
  1
ACDBDICTIONARYWDFLT
  2
AcDbDictionaryWithDefault
  3
AutoCAD 2000
 90
        0
280
     0
281
     0
  0
CLASS
  1
ACDBPLACEHOLDER
  2
AcDbPlaceHolder
  3
AutoCAD 2000
 90
        0
280
     0
281
     0
  0
CLASS
  1
VBA_PROJECT
  2
AcDbVbaProject
  3
acadvba
 90
        0
280
     0
281
     0
  0
CLASS
  1
WIPEOUT
  2
AcDbWipeout
  3
WipeOut|AutoCAD Express Tool|expresstools@autodesk.com
 90
      127
280
     0
281
     1
  0
CLASS
  1
WIPEOUTVARIABLES
  2
AcDbWipeoutVariables
  3
WipeOut|AutoCAD Express Tool|expresstools@autodesk.com
 90
        0
280
     0
281
     0
  0
CLASS
  1
RTEXT
  2
RText
  3
RText|AutoCAD Express Tool|expresstools@autodesk.com
 90
        0
280
     0
281
     1
  0
CLASS
  1
ARCALIGNEDTEXT
  2
AcDbArcAlignedText
  3
ATEXT|AutoCAD Express Tool|expresstools@autodesk.com
 90
        0
280
     0
281
     1
  0
ENDSEC
  0
SECTION
  2
TABLES
  0
TABLE
  2
VPORT
  5
7
100
AcDbSymbolTable
 70
     1
  0
VPORT
  5
15
100
AcDbSymbolTableRecord
100
AcDbViewportTableRecord
  2
*ACTIVE
 70
     0
 10
0.0
 20
0.0
 11
1.0
 21
1.0
 12
6.591288
 22
4.579184
 13
0.0
 23
0.0
 14
1.0
 24
1.0
 15
0.0
 25
0.0
 16
0.0
 26
0.0
 36
1.0
 17
0.0
 27
0.0
 37
0.0
 40
9.158369
 41
0.688564
 42
50.0
 43
0.0
 44
0.0
 50
0.0
 51
0.0
 71
     0
 72
   100
 73
     1
 74
     1
 75
     0
 76
     0
 77
     0
 78
     0
281
     0
 65
     0
110
0.0
120
0.0
130
0.0
111
1.0
121
0.0
131
0.0
112
0.0
122
1.0
132
0.0
345
0
346
0
 79
     0
146
0.0
  0
ENDTAB
  0
TABLE
  2
LTYPE
  5
4
100
AcDbSymbolTable
 70
     5
  0
LTYPE
  5
11
100
AcDbSymbolTableRecord
100
AcDbLinetypeTableRecord
  2
ByBlock
 70
    64
  3

 72
    65
 73
     0
 40
0.0
  0
LTYPE
  5
12
100
AcDbSymbolTableRecord
100
AcDbLinetypeTableRecord
  2
ByLayer
 70
    64
  3

 72
    65
 73
     0
 40
0.0
  0
LTYPE
  5
13
100
AcDbSymbolTableRecord
100
AcDbLinetypeTableRecord
  2
Continuous
 70
    64
  3
Solid line
 72
    65
 73
     0
 40
0.0
  0
LTYPE
  5
114
100
AcDbSymbolTableRecord
100
AcDbLinetypeTableRecord
  2
DOT
 70
    64
  3
..............................................
 72
    65
 73
     2
 40
0.5
 49
0.25
 74
     0
 49
-0.25
 74
     0
  0
LTYPE
  5
293
100
AcDbSymbolTableRecord
100
AcDbLinetypeTableRecord
  2
CENTER
 70
    64
  3
____ _ ____ _ ____ _ ____ _ ____ _ ____ _ ____
 72
    65
 73
     4
 40
2.0
 49
1.25
 74
     0
 49
-0.25
 74
     0
 49
0.25
 74
     0
 49
-0.25
 74
     0
  0
ENDTAB
  0
TABLE
  2
LAYER
  5
2
100
AcDbSymbolTable
 70
     4
  0
LAYER
  5
14
100
AcDbSymbolTableRecord
100
AcDbLayerTableRecord
  2
0
 70
     0
 62
     7
  6
Continuous
290
     1
370
    -3
390
1D
  0
LAYER
  5
2B
100
AcDbSymbolTableRecord
100
AcDbLayerTableRecord
  2
256
 70
     0
 62
     7
  6
Continuous
290
     1
370
    -3
390
1D
  0
LAYER
  5
BC
100
AcDbSymbolTableRecord
100
AcDbLayerTableRecord
  2
1
 70
     0
 62
     7
  6
Continuous
290
     1
370
    -3
390
1D
  0
LAYER
  5
297
100
AcDbSymbolTableRecord
100
AcDbLayerTableRecord
  2
5
 70
     0
 62
    -7
  6
Continuous
290
     1
370
    -3
390
1D
  0
ENDTAB
  0
TABLE
  2
STYLE
  5
3
100
AcDbSymbolTable
 70
     1
  0
STYLE
  5
17
100
AcDbSymbolTableRecord
100
AcDbTextStyleTableRecord
  2
Standard
 70
     0
 40
0.0
 41
1.0
 50
0.0
 71
     0
 42
0.0
  3
ＭＳ Ｐゴシック
  4

1001
ACAD
1000
ＭＳ Ｐゴシック
1071
        0
  0
ENDTAB
  0
TABLE
  2
VIEW
  5
5
100
AcDbSymbolTable
 70
     0
  0
ENDTAB
  0
TABLE
  2
UCS
  5
6
100
AcDbSymbolTable
 70
     0
  0
ENDTAB
  0
TABLE
  2
APPID
  5
8
100
AcDbSymbolTable
 70
     2
  0
APPID
  5
16
100
AcDbSymbolTableRecord
100
AcDbRegAppTableRecord
  2
ACAD
 70
     0
  0
APPID
  5
26
100
AcDbSymbolTableRecord
100
AcDbRegAppTableRecord
  2
TOPsolid_Draft
 70
     0
  0
ENDTAB
  0
TABLE
  2
DIMSTYLE
  5
9
100
AcDbSymbolTable
 70
     1
100
AcDbDimStyleTable
 71
     0
  0
DIMSTYLE
105
18
100
AcDbSymbolTableRecord
100
AcDbDimStyleTableRecord
  2
Standard
 70
     0
  3

  4

 40
1.0
 41
1.8
 42
1.8
 43
0.38
 44
1.8
 45
0.0
 46
0.0
 47
0.0
 48
0.0
 71
     0
 72
     0
 73
     0
 74
     0
 75
     0
 76
     0
 77
     1
 78
     0
 79
     0
140
6.0
141
0.09
142
0.0
143
25.4
144
1.0
145
0.0
146
0.7
147
1.2
148
0.0
170
     0
171
     2
172
     0
173
     0
174
     0
175
     0
176
     7
177
     7
178
     7
179
     0
271
     7
272
     4
273
     2
274
     2
275
     0
276
     0
277
     2
278
    46
279
     0
280
     0
281
     0
282
     0
283
     1
284
     0
285
     0
286
     0
288
     0
289
     3
340
17
341
0
342
0
343
0
344
0
371
    -2
372
    -2
  0
ENDTAB
  0
TABLE
  2
BLOCK_RECORD
  5
1
100
AcDbSymbolTable
 70
    19
  0
BLOCK_RECORD
  5
A
100
AcDbSymbolTableRecord
100
AcDbBlockTableRecord
  2
*MODEL_SPACE
340
20
  0
BLOCK_RECORD
  5
B
100
AcDbSymbolTableRecord
100
AcDbBlockTableRecord
  2
*PAPER_SPACE
340
21
  0
BLOCK_RECORD
  5
B7
100
AcDbSymbolTableRecord
100
AcDbBlockTableRecord
  2
AID287
340
0
102
{BLKREFS
331
BB
102
}
  0
BLOCK_RECORD
  5
C0
100
AcDbSymbolTableRecord
100
AcDbBlockTableRecord
  2
AID297
340
0
102
{BLKREFS
331
C4
102
}
  0
BLOCK_RECORD
  5
C5
100
AcDbSymbolTableRecord
100
AcDbBlockTableRecord
  2
AID301
340
0
102
{BLKREFS
331
C9
102
}
  0
BLOCK_RECORD
  5
CA
100
AcDbSymbolTableRecord
100
AcDbBlockTableRecord
  2
AID305
340
0
102
{BLKREFS
331
CE
102
}
  0
BLOCK_RECORD
  5
29B
100
AcDbSymbolTableRecord
100
AcDbBlockTableRecord
  2
AID1267
340
0
102
{BLKREFS
331
2AD
102
}
  0
BLOCK_RECORD
  5
2B2
100
AcDbSymbolTableRecord
100
AcDbBlockTableRecord
  2
AID1292
340
0
102
{BLKREFS
331
2C4
102
}
  0
BLOCK_RECORD
  5
2C5
100
AcDbSymbolTableRecord
100
AcDbBlockTableRecord
  2
AID1301
340
0
102
{BLKREFS
331
2D7
102
}
  0
BLOCK_RECORD
  5
2D8
100
AcDbSymbolTableRecord
100
AcDbBlockTableRecord
  2
AID1310
340
0
102
{BLKREFS
331
2EB
102
}
  0
BLOCK_RECORD
  5
2F4
100
AcDbSymbolTableRecord
100
AcDbBlockTableRecord
  2
AID1352
340
0
102
{BLKREFS
331
308
102
}
  0
BLOCK_RECORD
  5
309
100
AcDbSymbolTableRecord
100
AcDbBlockTableRecord
  2
AID1363
340
0
102
{BLKREFS
331
31A
102
}
  0
BLOCK_RECORD
  5
31B
100
AcDbSymbolTableRecord
100
AcDbBlockTableRecord
  2
AID1371
340
0
102
{BLKREFS
331
32C
102
}
  0
BLOCK_RECORD
  5
32D
100
AcDbSymbolTableRecord
100
AcDbBlockTableRecord
  2
AID1379
340
0
102
{BLKREFS
331
33E
102
}
  0
BLOCK_RECORD
  5
33F
100
AcDbSymbolTableRecord
100
AcDbBlockTableRecord
  2
AID1387
340
0
102
{BLKREFS
331
34F
102
}
  0
BLOCK_RECORD
  5
350
100
AcDbSymbolTableRecord
100
AcDbBlockTableRecord
  2
AID1394
340
0
102
{BLKREFS
331
35B
102
}
  0
BLOCK_RECORD
  5
35D
100
AcDbSymbolTableRecord
100
AcDbBlockTableRecord
  2
AID1402
340
0
102
{BLKREFS
331
36E
102
}
  0
BLOCK_RECORD
  5
36F
100
AcDbSymbolTableRecord
100
AcDbBlockTableRecord
  2
AID1410
340
0
102
{BLKREFS
331
373
102
}
  0
BLOCK_RECORD
  5
374
100
AcDbSymbolTableRecord
100
AcDbBlockTableRecord
  2
AID1414
340
0
102
{BLKREFS
331
378
102
}
  0
BLOCK_RECORD
  5
379
100
AcDbSymbolTableRecord
100
AcDbBlockTableRecord
  2
AID1418
340
0
102
{BLKREFS
331
37D
102
}
  0
BLOCK_RECORD
  5
4D0
100
AcDbSymbolTableRecord
100
AcDbBlockTableRecord
  2
AID1714
340
0
102
{BLKREFS
331
4E2
102
}
  0
ENDTAB
  0
ENDSEC
  0
SECTION
  2
BLOCKS
  0
BLOCK
  5
D
100
AcDbEntity
  8
0
390
0
100
AcDbBlockBegin
  2
*MODEL_SPACE
 70
     0
 10
0.0
 20
0.0
 30
0.0
  3
*MODEL_SPACE
  1

  0
ENDBLK
  5
E
100
AcDbEntity
  8
0
390
0
100
AcDbBlockEnd
  0
BLOCK
  5
F
100
AcDbEntity
 67
     1
  8
0
390
0
100
AcDbBlockBegin
  2
*PAPER_SPACE
 70
     0
 10
0.0
 20
0.0
 30
0.0
  3
*PAPER_SPACE
  1

  0
ENDBLK
  5
10
100
AcDbEntity
 67
     1
  8
0
390
0
100
AcDbBlockEnd
  0
BLOCK
  5
B8
100
AcDbEntity
  8
0
390
0
100
AcDbBlockBegin
  2
AID287
 70
     0
 10
0.0
 20
0.0
 30
0.0
  3
DNote#note referencing elements
  1

  0
MTEXT
  5
B9
100
AcDbEntity
  8
256
390
0
 62
     7
100
AcDbMText
 10
406.171318
 20
6.951938
 30
0.0
 40
3.0
 41
7.472727
 71
     7
 72
     1
  1
A3
210
0.0
220
0.0
230
1.0
 73
     1
 44
1.0
  0
ENDBLK
  5
BA
100
AcDbEntity
  8
0
390
0
100
AcDbBlockEnd
  0
BLOCK
  5
C1
100
AcDbEntity
  8
0
390
0
100
AcDbBlockBegin
  2
AID297
 70
     0
 10
0.0
 20
0.0
 30
0.0
  3
DNote#note referencing elements
  1

  0
MTEXT
  5
C2
100
AcDbEntity
  8
1
390
0
 62
     7
100
AcDbMText
 10
275.879442
 20
21.958687
 30
0.0
 40
3.0
 41
12.743182
 71
     7
 72
     1
  1
佐々
210
0.0
220
0.0
230
1.0
 73
     1
 44
1.0
  0
ENDBLK
  5
C3
100
AcDbEntity
  8
0
390
0
100
AcDbBlockEnd
  0
BLOCK
  5
C6
100
AcDbEntity
  8
0
390
0
100
AcDbBlockBegin
  2
AID301
 70
     0
 10
0.0
 20
0.0
 30
0.0
  3
DNote#note referencing elements
  1

  0
MTEXT
  5
C7
100
AcDbEntity
  8
1
390
0
 62
     7
100
AcDbMText
 10
277.555277
 20
11.805376
 30
0.0
 40
3.0
 41
6.190909
 71
     7
 72
     1
  1
木
210
0.0
220
0.0
230
1.0
 73
     1
 44
1.0
  0
ENDBLK
  5
C8
100
AcDbEntity
  8
0
390
0
100
AcDbBlockEnd
  0
BLOCK
  5
CB
100
AcDbEntity
  8
0
390
0
100
AcDbBlockBegin
  2
AID305
 70
     0
 10
0.0
 20
0.0
 30
0.0
  3
DNote#note referencing elements
  1

  0
MTEXT
  5
CC
100
AcDbEntity
  8
1
390
0
 62
     7
100
AcDbMText
 10
273.36618
 20
17.11506
 30
0.0
 40
3.0
 41
22.690909
 71
     7
 72
     1
  1
18.09.05
210
0.0
220
0.0
230
1.0
 73
     1
 44
1.0
  0
ENDBLK
  5
CD
100
AcDbEntity
  8
0
390
0
100
AcDbBlockEnd
  0
BLOCK
  5
29C
100
AcDbEntity
  8
0
390
0
100
AcDbBlockBegin
  2
AID1267
 70
     0
 10
0.0
 20
0.0
 30
0.0
  3
DIMENS
  1

  0
MTEXT
  5
29D
100
AcDbEntity
  8
1
390
0
 62
     2
100
AcDbMText
 10
187.374534
 20
141.783936
 30
0.0
 40
6.0
 41
9.490909
 71
     7
 72
     1
  1
Φ
210
0.0
220
0.0
230
1.0
 11
0.0
 21
1.0
 31
0.0
 73
     1
 44
1.0
  0
MTEXT
  5
29E
100
AcDbEntity
  8
1
390
0
 62
     2
100
AcDbMText
 10
187.374534
 20
147.72939
 30
0.0
 40
6.0
 41
15.6
 71
     7
 72
     1
  1
4.5
210
0.0
220
0.0
230
1.0
 11
0.0
 21
1.0
 31
0.0
 73
     1
 44
1.0
  0
LINE
  5
29F
100
AcDbEntity
  8
1
390
0
  6
Continuous
 62
    11
100
AcDbLine
 10
188.547261
 20
156.374845
 30
0.0
 11
188.547261
 21
123.074845
 31
0.0
  0
LINE
  5
2A0
100
AcDbEntity
  8
1
390
0
  6
Continuous
 62
    11
100
AcDbLine
 10
160.284159
 20
136.574845
 30
0.0
 11
190.347261
 21
136.574845
 31
0.0
  0
LINE
  5
2A1
100
AcDbEntity
  8
1
390
0
  6
Continuous
 62
    11
100
AcDbLine
 10
160.284159
 20
132.074845
 30
0.0
 11
190.347261
 21
132.074845
 31
0.0
  0
POLYLINE
  5
2A2
100
AcDbEntity
  8
1
390
0
  6
Continuous
 62
    11
100
AcDb2dPolyline
 66
     1
 10
0.0
 20
0.0
 30
0.0
 40
1.0
 41
1.0
  0
VERTEX
  5
2A3
100
AcDbEntity
  8
1
390
0
 62
    11
100
AcDbVertex
100
AcDb2dVertex
 10
187.647261
 20
141.074845
 30
0.0
  0
VERTEX
  5
2A4
100
AcDbEntity
  8
1
390
0
 62
    11
100
AcDbVertex
100
AcDb2dVertex
 10
188.547261
 20
136.574845
 30
0.0
  0
VERTEX
  5
2A5
100
AcDbEntity
  8
1
390
0
 62
    11
100
AcDbVertex
100
AcDb2dVertex
 10
189.447261
 20
141.074845
 30
0.0
  0
SEQEND
  5
2A6
100
AcDbEntity
  8
0
390
0
  0
POLYLINE
  5
2A7
100
AcDbEntity
  8
1
390
0
  6
Continuous
 62
    11
100
AcDb2dPolyline
 66
     1
 10
0.0
 20
0.0
 30
0.0
 40
1.0
 41
1.0
  0
VERTEX
  5
2A8
100
AcDbEntity
  8
1
390
0
 62
    11
100
AcDbVertex
100
AcDb2dVertex
 10
189.447261
 20
127.574845
 30
0.0
  0
VERTEX
  5
2A9
100
AcDbEntity
  8
1
390
0
 62
    11
100
AcDbVertex
100
AcDb2dVertex
 10
188.547261
 20
132.074845
 30
0.0
  0
VERTEX
  5
2AA
100
AcDbEntity
  8
1
390
0
 62
    11
100
AcDbVertex
100
AcDb2dVertex
 10
187.647261
 20
127.574845
 30
0.0
  0
SEQEND
  5
2AB
100
AcDbEntity
  8
0
390
0
  0
ENDBLK
  5
2AC
100
AcDbEntity
  8
0
390
0
100
AcDbBlockEnd
  0
BLOCK
  5
2B3
100
AcDbEntity
  8
0
390
0
100
AcDbBlockBegin
  2
AID1292
 70
     0
 10
0.0
 20
0.0
 30
0.0
  3
DIMENS
  1

  0
MTEXT
  5
2B4
100
AcDbEntity
  8
1
390
0
 62
     2
100
AcDbMText
 10
176.299806
 20
141.433936
 30
0.0
 40
6.0
 41
9.490909
 71
     7
 72
     1
  1
Φ
210
0.0
220
0.0
230
0.9999999999999999
 11
0.0
 21
1.0
 31
0.0
 73
     1
 44
1.0
  0
MTEXT
  5
2B5
100
AcDbEntity
  8
1
390
0
 62
     2
100
AcDbMText
 10
176.299806
 20
147.37939
 30
0.0
 40
6.0
 41
15.436364
 71
     7
 72
     1
  1
3.8
210
0.0
220
0.0
230
0.9999999999999999
 11
0.0
 21
1.0
 31
0.0
 73
     1
 44
1.0
  0
LINE
  5
2B6
100
AcDbEntity
  8
1
390
0
  6
Continuous
 62
    11
100
AcDbLine
 10
177.472533
 20
156.052117
 30
0.0
 11
177.472533
 21
123.424845
 31
0.0
  0
LINE
  5
2B7
100
AcDbEntity
  8
1
390
0
  6
Continuous
 62
    11
100
AcDbLine
 10
171.584159
 20
136.224845
 30
0.0
 11
179.272533
 21
136.224845
 31
0.0
  0
LINE
  5
2B8
100
AcDbEntity
  8
1
390
0
  6
Continuous
 62
    11
100
AcDbLine
 10
171.584159
 20
132.424845
 30
0.0
 11
179.272533
 21
132.424845
 31
0.0
  0
POLYLINE
  5
2B9
100
AcDbEntity
  8
1
390
0
  6
Continuous
 62
    11
100
AcDb2dPolyline
 66
     1
 10
0.0
 20
0.0
 30
0.0
 40
1.0
 41
1.0
  0
VERTEX
  5
2BA
100
AcDbEntity
  8
1
390
0
 62
    11
100
AcDbVertex
100
AcDb2dVertex
 10
176.572533
 20
140.724845
 30
0.0
  0
VERTEX
  5
2BB
100
AcDbEntity
  8
1
390
0
 62
    11
100
AcDbVertex
100
AcDb2dVertex
 10
177.472533
 20
136.224845
 30
0.0
  0
VERTEX
  5
2BC
100
AcDbEntity
  8
1
390
0
 62
    11
100
AcDbVertex
100
AcDb2dVertex
 10
178.372533
 20
140.724845
 30
0.0
  0
SEQEND
  5
2BD
100
AcDbEntity
  8
0
390
0
  0
POLYLINE
  5
2BE
100
AcDbEntity
  8
1
390
0
  6
Continuous
 62
    11
100
AcDb2dPolyline
 66
     1
 10
0.0
 20
0.0
 30
0.0
 40
1.0
 41
1.0
  0
VERTEX
  5
2BF
100
AcDbEntity
  8
1
390
0
 62
    11
100
AcDbVertex
100
AcDb2dVertex
 10
178.372533
 20
127.924845
 30
0.0
  0
VERTEX
  5
2C0
100
AcDbEntity
  8
1
390
0
 62
    11
100
AcDbVertex
100
AcDb2dVertex
 10
177.472533
 20
132.424845
 30
0.0
  0
VERTEX
  5
2C1
100
AcDbEntity
  8
1
390
0
 62
    11
100
AcDbVertex
100
AcDb2dVertex
 10
176.572533
 20
127.924845
 30
0.0
  0
SEQEND
  5
2C2
100
AcDbEntity
  8
0
390
0
  0
ENDBLK
  5
2C3
100
AcDbEntity
  8
0
390
0
100
AcDbBlockEnd
  0
BLOCK
  5
2C6
100
AcDbEntity
  8
0
390
0
100
AcDbBlockBegin
  2
AID1301
 70
     0
 10
0.0
 20
0.0
 30
0.0
  3
DIMENS
  1

  0
MTEXT
  5
2C7
100
AcDbEntity
  8
1
390
0
 62
     2
100
AcDbMText
 10
155.99325
 20
157.506918
 30
0.0
 40
6.0
 41
9.490909
 71
     7
 72
     1
  1
Φ
210
0.0
220
0.0
230
1.0
 73
     1
 44
1.0
  0
MTEXT
  5
2C8
100
AcDbEntity
  8
1
390
0
 62
     2
100
AcDbMText
 10
161.938705
 20
157.506918
 30
0.0
 40
6.0
 41
6.054545
 71
     7
 72
     1
  1
4
210
0.0
220
0.0
230
1.0
 73
     1
 44
1.0
  0
LINE
  5
2C9
100
AcDbEntity
  8
1
390
0
  6
Continuous
 62
    11
100
AcDbLine
 10
165.811432
 20
156.361464
 30
0.0
 11
137.784159
 21
156.361464
 31
0.0
  0
LINE
  5
2CA
100
AcDbEntity
  8
1
390
0
  6
Continuous
 62
    11
100
AcDbLine
 10
150.784159
 20
140.625671
 30
0.0
 11
150.784159
 21
158.161464
 31
0.0
  0
LINE
  5
2CB
100
AcDbEntity
  8
1
390
0
  6
Continuous
 62
    11
100
AcDbLine
 10
146.784159
 20
140.625671
 30
0.0
 11
146.784159
 21
158.161464
 31
0.0
  0
POLYLINE
  5
2CC
100
AcDbEntity
  8
1
390
0
  6
Continuous
 62
    11
100
AcDb2dPolyline
 66
     1
 10
0.0
 20
0.0
 30
0.0
 40
1.0
 41
1.0
  0
VERTEX
  5
2CD
100
AcDbEntity
  8
1
390
0
 62
    11
100
AcDbVertex
100
AcDb2dVertex
 10
155.284159
 20
157.261464
 30
0.0
  0
VERTEX
  5
2CE
100
AcDbEntity
  8
1
390
0
 62
    11
100
AcDbVertex
100
AcDb2dVertex
 10
150.784159
 20
156.361464
 30
0.0
  0
VERTEX
  5
2CF
100
AcDbEntity
  8
1
390
0
 62
    11
100
AcDbVertex
100
AcDb2dVertex
 10
155.284159
 20
155.461464
 30
0.0
  0
SEQEND
  5
2D0
100
AcDbEntity
  8
0
390
0
  0
POLYLINE
  5
2D1
100
AcDbEntity
  8
1
390
0
  6
Continuous
 62
    11
100
AcDb2dPolyline
 66
     1
 10
0.0
 20
0.0
 30
0.0
 40
1.0
 41
1.0
  0
VERTEX
  5
2D2
100
AcDbEntity
  8
1
390
0
 62
    11
100
AcDbVertex
100
AcDb2dVertex
 10
142.284159
 20
155.461464
 30
0.0
  0
VERTEX
  5
2D3
100
AcDbEntity
  8
1
390
0
 62
    11
100
AcDbVertex
100
AcDb2dVertex
 10
146.784159
 20
156.361464
 30
0.0
  0
VERTEX
  5
2D4
100
AcDbEntity
  8
1
390
0
 62
    11
100
AcDbVertex
100
AcDb2dVertex
 10
142.284159
 20
157.261464
 30
0.0
  0
SEQEND
  5
2D5
100
AcDbEntity
  8
0
390
0
  0
ENDBLK
  5
2D6
100
AcDbEntity
  8
0
390
0
100
AcDbBlockEnd
  0
BLOCK
  5
2D9
100
AcDbEntity
  8
0
390
0
100
AcDbBlockBegin
  2
AID1310
 70
     0
 10
0.0
 20
0.0
 30
0.0
  3
DIMENS
  1

  0
MTEXT
  5
2DA
100
AcDbEntity
  8
1
390
0
 62
     2
100
AcDbMText
 10
124.409464
 20
144.997572
 30
0.0
 40
6.0
 41
5.672727
 71
     7
 72
     1
  1
8
210
0.0
220
0.0
230
1.0
 11
0.0
 21
1.0
 31
0.0
 73
     1
 44
1.0
  0
MTEXT
  5
2DB
100
AcDbEntity
  8
1
390
0
 62
     2
100
AcDbMText
 10
125.609464
 20
151.161208
 30
0.0
 40
4.2
 41
20.770909
 71
     7
 72
     1
  1
-0.03
210
0.0
220
0.0
230
1.0
 11
0.0
 21
1.0
 31
0.0
 73
     1
 44
1.0
  0
MTEXT
  5
2DC
100
AcDbEntity
  8
1
390
0
 62
     2
100
AcDbMText
 10
120.722192
 20
151.161208
 30
0.0
 40
4.2
 41
4.2
 71
     7
 72
     1
  1
  0
210
0.0
220
0.0
230
1.0
 11
0.0
 21
1.0
 31
0.0
 73
     1
 44
1.0
  0
LINE
  5
2DD
100
AcDbEntity
  8
1
390
0
  6
Continuous
 62
    11
100
AcDbLine
 10
126.790373
 20
122.024845
 30
0.0
 11
126.790373
 21
162.280299
 31
0.0
  0
LINE
  5
2DE
100
AcDbEntity
  8
1
390
0
  6
Continuous
 62
    11
100
AcDbLine
 10
142.484159
 20
131.024845
 30
0.0
 11
124.990373
 21
131.024845
 31
0.0
  0
LINE
  5
2DF
100
AcDbEntity
  8
1
390
0
  6
Continuous
 62
    11
100
AcDbLine
 10
145.684159
 20
139.024845
 30
0.0
 11
124.990373
 21
139.024845
 31
0.0
  0
POLYLINE
  5
2E0
100
AcDbEntity
  8
1
390
0
  6
Continuous
 62
    11
100
AcDb2dPolyline
 66
     1
 10
0.0
 20
0.0
 30
0.0
 40
1.0
 41
1.0
  0
VERTEX
  5
2E1
100
AcDbEntity
  8
1
390
0
 62
    11
100
AcDbVertex
100
AcDb2dVertex
 10
127.690373
 20
126.524845
 30
0.0
  0
VERTEX
  5
2E2
100
AcDbEntity
  8
1
390
0
 62
    11
100
AcDbVertex
100
AcDb2dVertex
 10
126.790373
 20
131.024845
 30
0.0
  0
VERTEX
  5
2E3
100
AcDbEntity
  8
1
390
0
 62
    11
100
AcDbVertex
100
AcDb2dVertex
 10
125.890373
 20
126.524845
 30
0.0
  0
SEQEND
  5
2E4
100
AcDbEntity
  8
0
390
0
  0
POLYLINE
  5
2E5
100
AcDbEntity
  8
1
390
0
  6
Continuous
 62
    11
100
AcDb2dPolyline
 66
     1
 10
0.0
 20
0.0
 30
0.0
 40
1.0
 41
1.0
  0
VERTEX
  5
2E6
100
AcDbEntity
  8
1
390
0
 62
    11
100
AcDbVertex
100
AcDb2dVertex
 10
125.890373
 20
143.524845
 30
0.0
  0
VERTEX
  5
2E7
100
AcDbEntity
  8
1
390
0
 62
    11
100
AcDbVertex
100
AcDb2dVertex
 10
126.790373
 20
139.024845
 30
0.0
  0
VERTEX
  5
2E8
100
AcDbEntity
  8
1
390
0
 62
    11
100
AcDbVertex
100
AcDb2dVertex
 10
127.690373
 20
143.524845
 30
0.0
  0
SEQEND
  5
2E9
100
AcDbEntity
  8
0
390
0
  0
ENDBLK
  5
2EA
100
AcDbEntity
  8
0
390
0
100
AcDbBlockEnd
  0
BLOCK
  5
2F5
100
AcDbEntity
  8
0
390
0
100
AcDbBlockBegin
  2
AID1352
 70
     0
 10
0.0
 20
0.0
 30
0.0
  3
DIMENS
  1

  0
MTEXT
  5
2F6
100
AcDbEntity
  8
1
390
0
 62
     2
100
AcDbMText
 10
158.99325
 20
115.056627
 30
0.0
 40
6.0
 41
9.490909
 71
     7
 72
     1
  1
Φ
210
0.0
220
0.0
230
1.0
 73
     1
 44
1.0
  0
MTEXT
  5
2F7
100
AcDbEntity
  8
1
390
0
 62
     2
100
AcDbMText
 10
164.938705
 20
115.056627
 30
0.0
 40
6.0
 41
12.0
 71
     7
 72
     1
  1
10
210
0.0
220
0.0
230
1.0
 73
     1
 44
1.0
  0
MTEXT
  5
2F8
100
AcDbEntity
  8
1
390
0
 62
     2
100
AcDbMText
 10
174.675068
 20
113.856627
 30
0.0
 40
4.2
 41
20.770909
 71
     7
 72
     1
  1
-0.05
210
0.0
220
0.0
230
1.0
 73
     1
 44
1.0
  0
MTEXT
  5
2F9
100
AcDbEntity
  8
1
390
0
 62
     2
100
AcDbMText
 10
174.675068
 20
118.743899
 30
0.0
 40
4.2
 41
4.2
 71
     7
 72
     1
  1
  0
210
0.0
220
0.0
230
1.0
 73
     1
 44
1.0
  0
LINE
  5
2FA
100
AcDbEntity
  8
1
390
0
  6
Continuous
 62
    11
100
AcDbLine
 10
134.784159
 20
112.675717
 30
0.0
 11
185.794159
 21
112.675717
 31
0.0
  0
LINE
  5
2FB
100
AcDbEntity
  8
1
390
0
  6
Continuous
 62
    11
100
AcDbLine
 10
143.784159
 20
129.724845
 30
0.0
 11
143.784159
 21
110.875717
 31
0.0
  0
LINE
  5
2FC
100
AcDbEntity
  8
1
390
0
  6
Continuous
 62
    11
100
AcDbLine
 10
153.784159
 20
129.774845
 30
0.0
 11
153.784159
 21
110.875717
 31
0.0
  0
POLYLINE
  5
2FD
100
AcDbEntity
  8
1
390
0
  6
Continuous
 62
    11
100
AcDb2dPolyline
 66
     1
 10
0.0
 20
0.0
 30
0.0
 40
1.0
 41
1.0
  0
VERTEX
  5
2FE
100
AcDbEntity
  8
1
390
0
 62
    11
100
AcDbVertex
100
AcDb2dVertex
 10
139.284159
 20
111.775717
 30
0.0
  0
VERTEX
  5
2FF
100
AcDbEntity
  8
1
390
0
 62
    11
100
AcDbVertex
100
AcDb2dVertex
 10
143.784159
 20
112.675717
 30
0.0
  0
VERTEX
  5
300
100
AcDbEntity
  8
1
390
0
 62
    11
100
AcDbVertex
100
AcDb2dVertex
 10
139.284159
 20
113.575717
 30
0.0
  0
SEQEND
  5
301
100
AcDbEntity
  8
0
390
0
  0
POLYLINE
  5
302
100
AcDbEntity
  8
1
390
0
  6
Continuous
 62
    11
100
AcDb2dPolyline
 66
     1
 10
0.0
 20
0.0
 30
0.0
 40
1.0
 41
1.0
  0
VERTEX
  5
303
100
AcDbEntity
  8
1
390
0
 62
    11
100
AcDbVertex
100
AcDb2dVertex
 10
158.284159
 20
113.575717
 30
0.0
  0
VERTEX
  5
304
100
AcDbEntity
  8
1
390
0
 62
    11
100
AcDbVertex
100
AcDb2dVertex
 10
153.784159
 20
112.675717
 30
0.0
  0
VERTEX
  5
305
100
AcDbEntity
  8
1
390
0
 62
    11
100
AcDbVertex
100
AcDb2dVertex
 10
158.284159
 20
111.775717
 30
0.0
  0
SEQEND
  5
306
100
AcDbEntity
  8
0
390
0
  0
ENDBLK
  5
307
100
AcDbEntity
  8
0
390
0
100
AcDbBlockEnd
  0
BLOCK
  5
30A
100
AcDbEntity
  8
0
390
0
100
AcDbBlockBegin
  2
AID1363
 70
     0
 10
0.0
 20
0.0
 30
0.0
  3
DIMENS
  1

  0
MTEXT
  5
30B
100
AcDbEntity
  8
1
390
0
 62
     2
100
AcDbMText
 10
173.591718
 20
216.733074
 30
0.0
 40
6.0
 41
12.0
 71
     7
 72
     1
  1
10
210
0.0
220
0.0
230
1.0
 73
     1
 44
1.0
  0
LINE
  5
30C
100
AcDbEntity
  8
1
390
0
  6
Continuous
 62
    11
100
AcDbLine
 10
139.784159
 20
215.58762
 30
0.0
 11
180.928082
 21
215.58762
 31
0.0
  0
LINE
  5
30D
100
AcDbEntity
  8
1
390
0
  6
Continuous
 62
    11
100
AcDbLine
 10
148.784159
 20
206.077956
 30
0.0
 11
148.784159
 21
217.38762
 31
0.0
  0
LINE
  5
30E
100
AcDbEntity
  8
1
390
0
  6
Continuous
 62
    11
100
AcDbLine
 10
158.784159
 20
202.027956
 30
0.0
 11
158.784159
 21
217.38762
 31
0.0
  0
POLYLINE
  5
30F
100
AcDbEntity
  8
1
390
0
  6
Continuous
 62
    11
100
AcDb2dPolyline
 66
     1
 10
0.0
 20
0.0
 30
0.0
 40
1.0
 41
1.0
  0
VERTEX
  5
310
100
AcDbEntity
  8
1
390
0
 62
    11
100
AcDbVertex
100
AcDb2dVertex
 10
144.284159
 20
214.68762
 30
0.0
  0
VERTEX
  5
311
100
AcDbEntity
  8
1
390
0
 62
    11
100
AcDbVertex
100
AcDb2dVertex
 10
148.784159
 20
215.58762
 30
0.0
  0
VERTEX
  5
312
100
AcDbEntity
  8
1
390
0
 62
    11
100
AcDbVertex
100
AcDb2dVertex
 10
144.284159
 20
216.48762
 30
0.0
  0
SEQEND
  5
313
100
AcDbEntity
  8
0
390
0
  0
POLYLINE
  5
314
100
AcDbEntity
  8
1
390
0
  6
Continuous
 62
    11
100
AcDb2dPolyline
 66
     1
 10
0.0
 20
0.0
 30
0.0
 40
1.0
 41
1.0
  0
VERTEX
  5
315
100
AcDbEntity
  8
1
390
0
 62
    11
100
AcDbVertex
100
AcDb2dVertex
 10
163.284159
 20
216.48762
 30
0.0
  0
VERTEX
  5
316
100
AcDbEntity
  8
1
390
0
 62
    11
100
AcDbVertex
100
AcDb2dVertex
 10
158.784159
 20
215.58762
 30
0.0
  0
VERTEX
  5
317
100
AcDbEntity
  8
1
390
0
 62
    11
100
AcDbVertex
100
AcDb2dVertex
 10
163.284159
 20
214.68762
 30
0.0
  0
SEQEND
  5
318
100
AcDbEntity
  8
0
390
0
  0
ENDBLK
  5
319
100
AcDbEntity
  8
0
390
0
100
AcDbBlockEnd
  0
BLOCK
  5
31C
100
AcDbEntity
  8
0
390
0
100
AcDbBlockBegin
  2
AID1371
 70
     0
 10
0.0
 20
0.0
 30
0.0
  3
DIMENS
  1

  0
MTEXT
  5
31D
100
AcDbEntity
  8
1
390
0
 62
     2
100
AcDbMText
 10
156.270523
 20
227.335292
 30
0.0
 40
6.0
 41
10.636364
 71
     7
 72
     1
  1
21
210
0.0
220
0.0
230
1.0
 73
     1
 44
1.0
  0
LINE
  5
31E
100
AcDbEntity
  8
1
390
0
  6
Continuous
 62
    11
100
AcDbLine
 10
148.784159
 20
226.21711
 30
0.0
 11
169.784159
 21
226.21711
 31
0.0
  0
LINE
  5
31F
100
AcDbEntity
  8
1
390
0
  6
Continuous
 62
    11
100
AcDbLine
 10
148.784159
 20
206.077956
 30
0.0
 11
148.784159
 21
228.01711
 31
0.0
  0
LINE
  5
320
100
AcDbEntity
  8
1
390
0
  6
Continuous
 62
    11
100
AcDbLine
 10
169.784159
 20
201.977956
 30
0.0
 11
169.784159
 21
228.01711
 31
0.0
  0
POLYLINE
  5
321
100
AcDbEntity
  8
1
390
0
  6
Continuous
 62
    11
100
AcDb2dPolyline
 66
     1
 10
0.0
 20
0.0
 30
0.0
 40
1.0
 41
1.0
  0
VERTEX
  5
322
100
AcDbEntity
  8
1
390
0
 62
    11
100
AcDbVertex
100
AcDb2dVertex
 10
153.284159
 20
225.31711
 30
0.0
  0
VERTEX
  5
323
100
AcDbEntity
  8
1
390
0
 62
    11
100
AcDbVertex
100
AcDb2dVertex
 10
148.784159
 20
226.21711
 30
0.0
  0
VERTEX
  5
324
100
AcDbEntity
  8
1
390
0
 62
    11
100
AcDbVertex
100
AcDb2dVertex
 10
153.284159
 20
227.11711
 30
0.0
  0
SEQEND
  5
325
100
AcDbEntity
  8
0
390
0
  0
POLYLINE
  5
326
100
AcDbEntity
  8
1
390
0
  6
Continuous
 62
    11
100
AcDb2dPolyline
 66
     1
 10
0.0
 20
0.0
 30
0.0
 40
1.0
 41
1.0
  0
VERTEX
  5
327
100
AcDbEntity
  8
1
390
0
 62
    11
100
AcDbVertex
100
AcDb2dVertex
 10
165.284159
 20
227.11711
 30
0.0
  0
VERTEX
  5
328
100
AcDbEntity
  8
1
390
0
 62
    11
100
AcDbVertex
100
AcDb2dVertex
 10
169.784159
 20
226.21711
 30
0.0
  0
VERTEX
  5
329
100
AcDbEntity
  8
1
390
0
 62
    11
100
AcDbVertex
100
AcDb2dVertex
 10
165.284159
 20
225.31711
 30
0.0
  0
SEQEND
  5
32A
100
AcDbEntity
  8
0
390
0
  0
ENDBLK
  5
32B
100
AcDbEntity
  8
0
390
0
100
AcDbBlockEnd
  0
BLOCK
  5
32E
100
AcDbEntity
  8
0
390
0
100
AcDbBlockBegin
  2
AID1379
 70
     0
 10
0.0
 20
0.0
 30
0.0
  3
DIMENS
  1

  0
MTEXT
  5
32F
100
AcDbEntity
  8
1
390
0
 62
     2
100
AcDbMText
 10
255.075341
 20
217.650727
 30
0.0
 40
6.0
 41
12.545455
 71
     7
 72
     1
  1
55
210
0.0
220
0.0
230
1.0
 73
     1
 44
1.0
  0
LINE
  5
330
100
AcDbEntity
  8
1
390
0
  6
Continuous
 62
    11
100
AcDbLine
 10
286.101222
 20
216.478
 30
0.0
 11
231.031278
 21
216.478
 31
0.0
  0
LINE
  5
331
100
AcDbEntity
  8
1
390
0
  6
Continuous
 62
    11
100
AcDbLine
 10
286.101222
 20
202.302956
 30
0.0
 11
286.101222
 21
218.278
 31
0.0
  0
LINE
  5
332
100
AcDbEntity
  8
1
390
0
  6
Continuous
 62
    11
100
AcDbLine
 10
231.031278
 20
202.077956
 30
0.0
 11
231.031278
 21
218.278
 31
0.0
  0
POLYLINE
  5
333
100
AcDbEntity
  8
1
390
0
  6
Continuous
 62
    11
100
AcDb2dPolyline
 66
     1
 10
0.0
 20
0.0
 30
0.0
 40
1.0
 41
1.0
  0
VERTEX
  5
334
100
AcDbEntity
  8
1
390
0
 62
    11
100
AcDbVertex
100
AcDb2dVertex
 10
281.601222
 20
217.378
 30
0.0
  0
VERTEX
  5
335
100
AcDbEntity
  8
1
390
0
 62
    11
100
AcDbVertex
100
AcDb2dVertex
 10
286.101222
 20
216.478
 30
0.0
  0
VERTEX
  5
336
100
AcDbEntity
  8
1
390
0
 62
    11
100
AcDbVertex
100
AcDb2dVertex
 10
281.601222
 20
215.578
 30
0.0
  0
SEQEND
  5
337
100
AcDbEntity
  8
0
390
0
  0
POLYLINE
  5
338
100
AcDbEntity
  8
1
390
0
  6
Continuous
 62
    11
100
AcDb2dPolyline
 66
     1
 10
0.0
 20
0.0
 30
0.0
 40
1.0
 41
1.0
  0
VERTEX
  5
339
100
AcDbEntity
  8
1
390
0
 62
    11
100
AcDbVertex
100
AcDb2dVertex
 10
235.531278
 20
215.578
 30
0.0
  0
VERTEX
  5
33A
100
AcDbEntity
  8
1
390
0
 62
    11
100
AcDbVertex
100
AcDb2dVertex
 10
231.031278
 20
216.478
 30
0.0
  0
VERTEX
  5
33B
100
AcDbEntity
  8
1
390
0
 62
    11
100
AcDbVertex
100
AcDb2dVertex
 10
235.531278
 20
217.378
 30
0.0
  0
SEQEND
  5
33C
100
AcDbEntity
  8
0
390
0
  0
ENDBLK
  5
33D
100
AcDbEntity
  8
0
390
0
100
AcDbBlockEnd
  0
BLOCK
  5
340
100
AcDbEntity
  8
0
390
0
100
AcDbBlockBegin
  2
AID1387
 70
     0
 10
0.0
 20
0.0
 30
0.0
  3
DIMENS
  1

  0
MTEXT
  5
341
100
AcDbEntity
  8
1
390
0
 62
     2
100
AcDbMText
 10
210.210541
 20
140.783936
 30
0.0
 40
6.0
 41
9.490909
 71
     7
 72
     1
  1
Φ
210
0.0
220
0.0
230
1.0
 11
0.0
 21
1.0
 31
0.0
 73
     1
 44
1.0
  0
MTEXT
  5
342
100
AcDbEntity
  8
1
390
0
 62
     2
100
AcDbMText
 10
210.210541
 20
146.72939
 30
0.0
 40
6.0
 41
15.381818
 71
     7
 72
     1
  1
2.5
210
0.0
220
0.0
230
1.0
 11
0.0
 21
1.0
 31
0.0
 73
     1
 44
1.0
  0
LINE
  5
343
100
AcDbEntity
  8
1
390
0
  6
Continuous
 62
    11
100
AcDbLine
 10
211.383268
 20
124.074845
 30
0.0
 11
211.383268
 21
155.374845
 31
0.0
  0
POLYLINE
  5
344
100
AcDbEntity
  8
1
390
0
  6
Continuous
 62
    11
100
AcDb2dPolyline
 66
     1
 10
0.0
 20
0.0
 30
0.0
 40
1.0
 41
1.0
  0
VERTEX
  5
345
100
AcDbEntity
  8
1
390
0
 62
    11
100
AcDbVertex
100
AcDb2dVertex
 10
212.283268
 20
128.574845
 30
0.0
  0
VERTEX
  5
346
100
AcDbEntity
  8
1
390
0
 62
    11
100
AcDbVertex
100
AcDb2dVertex
 10
211.383268
 20
133.074845
 30
0.0
  0
VERTEX
  5
347
100
AcDbEntity
  8
1
390
0
 62
    11
100
AcDbVertex
100
AcDb2dVertex
 10
210.483268
 20
128.574845
 30
0.0
  0
SEQEND
  5
348
100
AcDbEntity
  8
0
390
0
  0
POLYLINE
  5
349
100
AcDbEntity
  8
1
390
0
  6
Continuous
 62
    11
100
AcDb2dPolyline
 66
     1
 10
0.0
 20
0.0
 30
0.0
 40
1.0
 41
1.0
  0
VERTEX
  5
34A
100
AcDbEntity
  8
1
390
0
 62
    11
100
AcDbVertex
100
AcDb2dVertex
 10
210.483268
 20
140.074845
 30
0.0
  0
VERTEX
  5
34B
100
AcDbEntity
  8
1
390
0
 62
    11
100
AcDbVertex
100
AcDb2dVertex
 10
211.383268
 20
135.574845
 30
0.0
  0
VERTEX
  5
34C
100
AcDbEntity
  8
1
390
0
 62
    11
100
AcDbVertex
100
AcDb2dVertex
 10
212.283268
 20
140.074845
 30
0.0
  0
SEQEND
  5
34D
100
AcDbEntity
  8
0
390
0
  0
ENDBLK
  5
34E
100
AcDbEntity
  8
0
390
0
100
AcDbBlockEnd
  0
BLOCK
  5
351
100
AcDbEntity
  8
0
390
0
100
AcDbBlockBegin
  2
AID1394
 70
     0
 10
0.0
 20
0.0
 30
0.0
  3
DIMENS
  1

  0
MTEXT
  5
352
100
AcDbEntity
  8
1
390
0
 62
     2
100
AcDbMText
 10
126.737767
 20
115.746388
 30
0.0
 40
6.0
 41
12.872727
 71
     7
 72
     1
  1
C
210
0.0
220
0.0
230
1.0
 11
0.707107
 21
0.707107
 31
0.0
 73
     1
 44
1.0
  0
MTEXT
  5
353
100
AcDbEntity
  8
1
390
0
 62
     2
100
AcDbMText
 10
130.344011
 20
119.352632
 30
0.0
 40
6.0
 41
22.254545
 71
     7
 72
     1
  1
0.5
210
0.0
220
0.0
230
1.0
 11
0.707107
 21
0.707107
 31
0.0
 73
     1
 44
1.0
  0
LINE
  5
354
100
AcDbEntity
  8
1
390
0
  6
Continuous
 62
    11
100
AcDbLine
 10
143.979435
 20
131.329569
 30
0.0
 11
127.412732
 21
114.762866
 31
0.0
  0
POLYLINE
  5
355
100
AcDbEntity
  8
1
390
0
  6
Continuous
 62
    11
100
AcDb2dPolyline
 66
     1
 10
0.0
 20
0.0
 30
0.0
 40
1.0
 41
1.0
  0
VERTEX
  5
356
100
AcDbEntity
  8
1
390
0
 62
    11
100
AcDbVertex
100
AcDb2dVertex
 10
140.161058
 20
128.783985
 30
0.0
  0
VERTEX
  5
357
100
AcDbEntity
  8
1
390
0
 62
    11
100
AcDbVertex
100
AcDb2dVertex
 10
143.979435
 20
131.329569
 30
0.0
  0
VERTEX
  5
358
100
AcDbEntity
  8
1
390
0
 62
    11
100
AcDbVertex
100
AcDb2dVertex
 10
141.43385
 20
127.511192
 30
0.0
  0
SEQEND
  5
359
100
AcDbEntity
  8
0
390
0
  0
ENDBLK
  5
35A
100
AcDbEntity
  8
0
390
0
100
AcDbBlockEnd
  0
BLOCK
  5
35E
100
AcDbEntity
  8
0
390
0
100
AcDbBlockBegin
  2
AID1402
 70
     0
 10
0.0
 20
0.0
 30
0.0
  3
DIMENS
  1

  0
MTEXT
  5
35F
100
AcDbEntity
  8
1
390
0
 62
     2
100
AcDbMText
 10
212.906327
 20
172.471962
 30
0.0
 40
6.0
 41
26.727273
 71
     7
 72
     1
  1
2000
210
0.0
220
0.0
230
1.0
 73
     1
 44
1.0
  0
LINE
  5
360
100
AcDbEntity
  8
1
390
0
  6
Continuous
 62
    11
100
AcDbLine
 10
286.101222
 20
171.326508
 30
0.0
 11
153.784159
 21
171.326508
 31
0.0
  0
LINE
  5
361
100
AcDbEntity
  8
1
390
0
  6
Continuous
 62
    11
100
AcDbLine
 10
286.101222
 20
194.252956
 30
0.0
 11
286.101222
 21
169.526508
 31
0.0
  0
LINE
  5
362
100
AcDbEntity
  8
1
390
0
  6
Continuous
 62
    11
100
AcDbLine
 10
153.784159
 20
196.477956
 30
0.0
 11
153.784159
 21
169.526508
 31
0.0
  0
POLYLINE
  5
363
100
AcDbEntity
  8
1
390
0
  6
Continuous
 62
    11
100
AcDb2dPolyline
 66
     1
 10
0.0
 20
0.0
 30
0.0
 40
1.0
 41
1.0
  0
VERTEX
  5
364
100
AcDbEntity
  8
1
390
0
 62
    11
100
AcDbVertex
100
AcDb2dVertex
 10
281.601222
 20
172.226508
 30
0.0
  0
VERTEX
  5
365
100
AcDbEntity
  8
1
390
0
 62
    11
100
AcDbVertex
100
AcDb2dVertex
 10
286.101222
 20
171.326508
 30
0.0
  0
VERTEX
  5
366
100
AcDbEntity
  8
1
390
0
 62
    11
100
AcDbVertex
100
AcDb2dVertex
 10
281.601222
 20
170.426508
 30
0.0
  0
SEQEND
  5
367
100
AcDbEntity
  8
0
390
0
  0
POLYLINE
  5
368
100
AcDbEntity
  8
1
390
0
  6
Continuous
 62
    11
100
AcDb2dPolyline
 66
     1
 10
0.0
 20
0.0
 30
0.0
 40
1.0
 41
1.0
  0
VERTEX
  5
369
100
AcDbEntity
  8
1
390
0
 62
    11
100
AcDbVertex
100
AcDb2dVertex
 10
158.284159
 20
170.426508
 30
0.0
  0
VERTEX
  5
36A
100
AcDbEntity
  8
1
390
0
 62
    11
100
AcDbVertex
100
AcDb2dVertex
 10
153.784159
 20
171.326508
 30
0.0
  0
VERTEX
  5
36B
100
AcDbEntity
  8
1
390
0
 62
    11
100
AcDbVertex
100
AcDb2dVertex
 10
158.284159
 20
172.226508
 30
0.0
  0
SEQEND
  5
36C
100
AcDbEntity
  8
0
390
0
  0
ENDBLK
  5
36D
100
AcDbEntity
  8
0
390
0
100
AcDbBlockEnd
  0
BLOCK
  5
370
100
AcDbEntity
  8
0
390
0
100
AcDbBlockBegin
  2
AID1410
 70
     0
 10
0.0
 20
0.0
 30
0.0
  3
DNote#note referencing elements
  1

  0
MTEXT
  5
371
100
AcDbEntity
  8
1
390
0
 62
     7
100
AcDbMText
 10
360.953049
 20
39.537632
 30
0.0
 40
4.0
 41
76.909091
 71
     7
 72
     1
  1
ボタン形圧力センサ
210
0.0
220
0.0
230
1.0
 73
     1
 44
1.0
  0
ENDBLK
  5
372
100
AcDbEntity
  8
0
390
0
100
AcDbBlockEnd
  0
BLOCK
  5
375
100
AcDbEntity
  8
0
390
0
100
AcDbBlockBegin
  2
AID1414
 70
     0
 10
0.0
 20
0.0
 30
0.0
  3
DNote#note referencing elements
  1

  0
MTEXT
  5
376
100
AcDbEntity
  8
1
390
0
 62
     7
100
AcDbMText
 10
362.626098
 20
29.174196
 30
0.0
 40
4.0
 41
66.945455
 71
     7
 72
     1
  1
SSB04KN10X08H
210
0.0
220
0.0
230
1.0
 73
     1
 44
1.0
  0
ENDBLK
  5
377
100
AcDbEntity
  8
0
390
0
100
AcDbBlockEnd
  0
BLOCK
  5
37A
100
AcDbEntity
  8
0
390
0
100
AcDbBlockBegin
  2
AID1418
 70
     0
 10
0.0
 20
0.0
 30
0.0
  3
DNote#note referencing elements
  1

  0
MTEXT
  5
37B
100
AcDbEntity
  8
1
390
0
 62
     7
100
AcDbMText
 10
323.68777
 20
31.706169
 30
0.0
 40
5.0
 41
14.045455
 71
     7
 72
     1
  1
1：1
210
0.0
220
0.0
230
1.0
 73
     1
 44
1.0
  0
ENDBLK
  5
37C
100
AcDbEntity
  8
0
390
0
100
AcDbBlockEnd
  0
BLOCK
  5
4D1
100
AcDbEntity
  8
0
390
0
100
AcDbBlockBegin
  2
AID1714
 70
     0
 10
0.0
 20
0.0
 30
0.0
  3
DIMENS
  1

  0
MTEXT
  5
4D2
100
AcDbEntity
  8
1
390
0
 62
     2
100
AcDbMText
 10
297.917051
 20
206.687047
 30
0.0
 40
6.0
 41
9.490909
 71
     7
 72
     1
  1
Φ
210
0.0
220
0.0
230
1.0
 11
0.0
 21
1.0
 31
0.0
 73
     1
 44
1.0
  0
MTEXT
  5
4D3
100
AcDbEntity
  8
1
390
0
 62
     2
100
AcDbMText
 10
297.917051
 20
212.632502
 30
0.0
 40
6.0
 41
15.6
 71
     7
 72
     1
  1
6.4
210
0.0
220
0.0
230
1.0
 11
0.0
 21
1.0
 31
0.0
 73
     1
 44
1.0
  0
LINE
  5
4D4
100
AcDbEntity
  8
1
390
0
  6
Continuous
 62
    11
100
AcDbLine
 10
299.089778
 20
221.41432
 30
0.0
 11
299.089778
 21
186.077956
 31
0.0
  0
LINE
  5
4D5
100
AcDbEntity
  8
1
390
0
  6
Continuous
 62
    11
100
AcDbLine
 10
266.331278
 20
201.477956
 30
0.0
 11
300.889778
 21
201.477956
 31
0.0
  0
LINE
  5
4D6
100
AcDbEntity
  8
1
390
0
  6
Continuous
 62
    11
100
AcDbLine
 10
266.331278
 20
195.077956
 30
0.0
 11
300.889778
 21
195.077956
 31
0.0
  0
POLYLINE
  5
4D7
100
AcDbEntity
  8
1
390
0
  6
Continuous
 62
    11
100
AcDb2dPolyline
 66
     1
 10
0.0
 20
0.0
 30
0.0
 40
1.0
 41
1.0
  0
VERTEX
  5
4D8
100
AcDbEntity
  8
1
390
0
 62
    11
100
AcDbVertex
100
AcDb2dVertex
 10
298.189778
 20
205.977956
 30
0.0
  0
VERTEX
  5
4D9
100
AcDbEntity
  8
1
390
0
 62
    11
100
AcDbVertex
100
AcDb2dVertex
 10
299.089778
 20
201.477956
 30
0.0
  0
VERTEX
  5
4DA
100
AcDbEntity
  8
1
390
0
 62
    11
100
AcDbVertex
100
AcDb2dVertex
 10
299.989778
 20
205.977956
 30
0.0
  0
SEQEND
  5
4DB
100
AcDbEntity
  8
0
390
0
  0
POLYLINE
  5
4DC
100
AcDbEntity
  8
1
390
0
  6
Continuous
 62
    11
100
AcDb2dPolyline
 66
     1
 10
0.0
 20
0.0
 30
0.0
 40
1.0
 41
1.0
  0
VERTEX
  5
4DD
100
AcDbEntity
  8
1
390
0
 62
    11
100
AcDbVertex
100
AcDb2dVertex
 10
299.989778
 20
190.577956
 30
0.0
  0
VERTEX
  5
4DE
100
AcDbEntity
  8
1
390
0
 62
    11
100
AcDbVertex
100
AcDb2dVertex
 10
299.089778
 20
195.077956
 30
0.0
  0
VERTEX
  5
4DF
100
AcDbEntity
  8
1
390
0
 62
    11
100
AcDbVertex
100
AcDb2dVertex
 10
298.189778
 20
190.577956
 30
0.0
  0
SEQEND
  5
4E0
100
AcDbEntity
  8
0
390
0
  0
ENDBLK
  5
4E1
100
AcDbEntity
  8
0
390
0
100
AcDbBlockEnd
  0
ENDSEC
  0
SECTION
  2
ENTITIES
  0
LINE
  5
2C
100
AcDbEntity
  8
256
390
0
  6
Continuous
 62
     8
100
AcDbLine
 10
222.0
 20
34.5
 30
0.0
 11
271.0
 21
34.5
 31
0.0
  0
LINE
  5
2D
100
AcDbEntity
  8
256
390
0
  6
Continuous
 62
     8
100
AcDbLine
 10
390.25
 20
277.0
 30
0.0
 11
390.25
 21
287.0
 31
0.0
  0
LINE
  5
2E
100
AcDbEntity
  8
256
390
0
  6
Continuous
 62
     8
100
AcDbLine
 10
229.511017
 20
262.368011
 30
0.0
 11
234.511017
 21
262.368011
 31
0.0
  0
LINE
  5
2F
100
AcDbEntity
  8
256
390
0
  6
Continuous
 62
     8
100
AcDbLine
 10
222.0
 20
38.0
 30
0.0
 11
271.0
 21
38.0
 31
0.0
  0
LINE
  5
30
100
AcDbEntity
  8
256
390
0
  6
Continuous
 62
     8
100
AcDbLine
 10
237.0
 20
287.0
 30
0.0
 11
237.0
 21
257.0
 31
0.0
  0
LINE
  5
31
100
AcDbEntity
  8
256
390
0
  6
Continuous
 62
     8
100
AcDbLine
 10
303.8
 20
48.0
 30
0.0
 11
303.8
 21
10.0
 31
0.0
  0
LINE
  5
32
100
AcDbEntity
  8
256
390
0
  6
Continuous
 62
     8
100
AcDbLine
 10
385.25
 20
277.0
 30
0.0
 11
385.25
 21
287.0
 31
0.0
  0
LINE
  5
33
100
AcDbEntity
  8
256
390
0
  6
Continuous
 62
     8
100
AcDbLine
 10
287.4
 20
31.0
 30
0.0
 11
287.4
 21
10.0
 31
0.0
  0
LINE
  5
34
100
AcDbEntity
  8
256
390
0
  6
Continuous
 62
     8
100
AcDbLine
 10
253.750031
 20
44.0
 30
0.0
 11
253.750031
 21
10.0
 31
0.0
  0
LINE
  5
35
100
AcDbEntity
  8
256
390
0
  6
Continuous
 62
     8
100
AcDbLine
 10
410.0
 20
10.0
 30
0.0
 11
410.0
 21
287.0
 31
0.0
  0
LINE
  5
36
100
AcDbEntity
  8
256
390
0
  6
Continuous
 62
     8
100
AcDbLine
 10
335.25
 20
15.666667
 30
0.0
 11
335.25
 21
48.0
 31
0.0
  0
LINE
  5
37
100
AcDbEntity
  8
256
390
0
  6
Continuous
 62
     8
100
AcDbLine
 10
410.0
 20
287.0
 30
0.0
 11
10.0
 21
287.0
 31
0.0
  0
LINE
  5
38
100
AcDbEntity
  8
256
390
0
  6
Continuous
 62
     8
100
AcDbLine
 10
362.0
 20
287.0
 30
0.0
 11
362.0
 21
257.0
 31
0.0
  0
LINE
  5
39
100
AcDbEntity
  8
256
390
0
  6
Continuous
 62
     8
100
AcDbLine
 10
410.0
 20
267.0
 30
0.0
 11
227.0
 21
267.0
 31
0.0
  0
LINE
  5
3A
100
AcDbEntity
  8
256
390
0
  6
Continuous
 62
     8
100
AcDbLine
 10
410.0
 20
277.0
 30
0.0
 11
227.0
 21
277.0
 31
0.0
  0
LINE
  5
3B
100
AcDbEntity
  8
256
390
0
  6
Continuous
 62
     8
100
AcDbLine
 10
271.0
 20
41.0
 30
0.0
 11
335.25
 21
41.0
 31
0.0
  0
LINE
  5
3C
100
AcDbEntity
  8
256
390
0
  6
Continuous
 62
     8
100
AcDbLine
 10
222.0
 20
44.0
 30
0.0
 11
271.0
 21
44.0
 31
0.0
  0
LINE
  5
3D
100
AcDbEntity
  8
256
390
0
  6
Continuous
 62
     8
100
AcDbLine
 10
232.011017
 20
261.664886
 30
0.0
 11
229.511017
 21
257.368011
 31
0.0
  0
LINE
  5
3E
100
AcDbEntity
  8
256
390
0
  6
Continuous
 62
     8
100
AcDbLine
 10
248.000031
 20
38.0
 30
0.0
 11
222.0
 21
44.0
 31
0.0
  0
LINE
  5
3F
100
AcDbEntity
  8
256
390
0
  6
Continuous
 62
     8
100
AcDbLine
 10
357.0
 20
262.0
 30
0.0
 11
227.0
 21
262.0
 31
0.0
  0
LINE
  5
40
100
AcDbEntity
  8
256
390
0
  6
Continuous
 62
     8
100
AcDbLine
 10
222.0
 20
31.0
 30
0.0
 11
320.25
 21
31.0
 31
0.0
  0
LINE
  5
41
100
AcDbEntity
  8
256
390
0
  6
Continuous
 62
     8
100
AcDbLine
 10
234.511017
 20
267.368011
 30
0.0
 11
232.011017
 21
271.664886
 31
0.0
  0
LINE
  5
42
100
AcDbEntity
  8
256
390
0
  6
Continuous
 62
     8
100
AcDbLine
 10
385.25
 20
282.0
 30
0.0
 11
362.0
 21
282.0
 31
0.0
  0
LINE
  5
43
100
AcDbEntity
  8
256
390
0
  6
Continuous
 62
     8
100
AcDbLine
 10
10.0
 20
10.0
 30
0.0
 11
410.0
 21
10.0
 31
0.0
  0
LINE
  5
44
100
AcDbEntity
  8
256
390
0
  6
Continuous
 62
     8
100
AcDbLine
 10
222.0
 20
48.0
 30
0.0
 11
410.0
 21
48.0
 31
0.0
  0
LINE
  5
45
100
AcDbEntity
  8
256
390
0
  6
Continuous
 62
     8
100
AcDbLine
 10
227.000031
 20
10.0
 30
0.0
 11
410.0
 21
10.0
 31
0.0
  0
LINE
  5
46
100
AcDbEntity
  8
256
390
0
  6
Continuous
 62
     8
100
AcDbLine
 10
342.0
 20
287.0
 30
0.0
 11
342.0
 21
257.0
 31
0.0
  0
LINE
  5
47
100
AcDbEntity
  8
256
390
0
  6
Continuous
 62
     8
100
AcDbLine
 10
222.0
 20
13.5
 30
0.0
 11
271.000031
 21
13.5
 31
0.0
  0
LINE
  5
48
100
AcDbEntity
  8
256
390
0
  6
Continuous
 62
     8
100
AcDbLine
 10
222.0
 20
20.5
 30
0.0
 11
271.0
 21
20.5
 31
0.0
  0
LINE
  5
49
100
AcDbEntity
  8
256
390
0
  6
Continuous
 62
     8
100
AcDbLine
 10
222.0
 20
27.5
 30
0.0
 11
271.0
 21
27.5
 31
0.0
  0
LINE
  5
4A
100
AcDbEntity
  8
256
390
0
  6
Continuous
 62
     8
100
AcDbLine
 10
248.000031
 20
44.0
 30
0.0
 11
248.000031
 21
10.0
 31
0.0
  0
LINE
  5
4B
100
AcDbEntity
  8
256
390
0
  6
Continuous
 62
     8
100
AcDbLine
 10
222.0
 20
48.0
 30
0.0
 11
222.0
 21
10.0
 31
0.0
  0
LINE
  5
4C
100
AcDbEntity
  8
256
390
0
  6
Continuous
 62
     8
100
AcDbLine
 10
232.011017
 20
276.664886
 30
0.0
 11
229.511017
 21
272.368011
 31
0.0
  0
LINE
  5
4D
100
AcDbEntity
  8
256
390
0
  6
Continuous
 62
     8
100
AcDbLine
 10
357.0
 20
282.0
 30
0.0
 11
227.0
 21
282.0
 31
0.0
  0
LINE
  5
4E
100
AcDbEntity
  8
256
390
0
  6
Continuous
 62
     8
100
AcDbLine
 10
229.511017
 20
267.368011
 30
0.0
 11
234.511017
 21
267.368011
 31
0.0
  0
LINE
  5
4F
100
AcDbEntity
  8
256
390
0
  6
Continuous
 62
     8
100
AcDbLine
 10
222.0
 20
24.0
 30
0.0
 11
271.0
 21
24.0
 31
0.0
  0
LINE
  5
50
100
AcDbEntity
  8
256
390
0
  6
Continuous
 62
     8
100
AcDbLine
 10
232.011017
 20
281.664886
 30
0.0
 11
229.511017
 21
277.368011
 31
0.0
  0
LINE
  5
51
100
AcDbEntity
  8
256
390
0
  6
Continuous
 62
     8
100
AcDbLine
 10
265.250031
 20
44.0
 30
0.0
 11
265.250031
 21
10.0
 31
0.0
  0
LINE
  5
52
100
AcDbEntity
  8
256
390
0
  6
Continuous
 62
     8
100
AcDbLine
 10
229.511017
 20
277.368011
 30
0.0
 11
234.511017
 21
277.368011
 31
0.0
  0
LINE
  5
53
100
AcDbEntity
  8
256
390
0
  6
Continuous
 62
     8
100
AcDbLine
 10
320.25
 20
10.0
 30
0.0
 11
320.25
 21
48.0
 31
0.0
  0
LINE
  5
54
100
AcDbEntity
  8
256
390
0
  6
Continuous
 62
     8
100
AcDbLine
 10
232.011017
 20
271.664886
 30
0.0
 11
229.511017
 21
267.368011
 31
0.0
  0
LINE
  5
55
100
AcDbEntity
  8
256
390
0
  6
Continuous
 62
     8
100
AcDbLine
 10
234.511017
 20
277.368011
 30
0.0
 11
232.011017
 21
281.664886
 31
0.0
  0
LINE
  5
56
100
AcDbEntity
  8
256
390
0
  6
Continuous
 62
     8
100
AcDbLine
 10
222.0
 20
17.0
 30
0.0
 11
271.0
 21
17.0
 31
0.0
  0
LINE
  5
57
100
AcDbEntity
  8
256
390
0
  6
Continuous
 62
     8
100
AcDbLine
 10
271.0
 20
48.0
 30
0.0
 11
271.0
 21
10.0
 31
0.0
  0
LINE
  5
58
100
AcDbEntity
  8
256
390
0
  6
Continuous
 62
     8
100
AcDbLine
 10
357.0
 20
287.0
 30
0.0
 11
357.0
 21
257.0
 31
0.0
  0
LINE
  5
59
100
AcDbEntity
  8
256
390
0
  6
Continuous
 62
     8
100
AcDbLine
 10
335.25
 20
35.0
 30
0.0
 11
410.0
 21
35.0
 31
0.0
  0
LINE
  5
5A
100
AcDbEntity
  8
256
390
0
  6
Continuous
 62
     8
100
AcDbLine
 10
227.0
 20
287.0
 30
0.0
 11
227.0
 21
257.0
 31
0.0
  0
LINE
  5
5B
100
AcDbEntity
  8
256
390
0
  6
Continuous
 62
     8
100
AcDbLine
 10
327.0
 20
287.0
 30
0.0
 11
327.0
 21
257.0
 31
0.0
  0
LINE
  5
5C
100
AcDbEntity
  8
256
390
0
  6
Continuous
 62
     8
100
AcDbLine
 10
229.511017
 20
272.368011
 30
0.0
 11
234.511017
 21
272.368011
 31
0.0
  0
LINE
  5
5D
100
AcDbEntity
  8
256
390
0
  6
Continuous
 62
     8
100
AcDbLine
 10
259.500031
 20
44.0
 30
0.0
 11
259.500031
 21
10.0
 31
0.0
  0
LINE
  5
5E
100
AcDbEntity
  8
256
390
0
  6
Continuous
 62
     8
100
AcDbLine
 10
320.25
 20
15.666667
 30
0.0
 11
410.0
 21
15.666667
 31
0.0
  0
LINE
  5
5F
100
AcDbEntity
  8
256
390
0
  6
Continuous
 62
     8
100
AcDbLine
 10
229.511017
 20
257.368011
 30
0.0
 11
234.511017
 21
257.368011
 31
0.0
  0
LINE
  5
60
100
AcDbEntity
  8
256
390
0
  6
Continuous
 62
     8
100
AcDbLine
 10
232.011017
 20
266.664886
 30
0.0
 11
229.511017
 21
262.368011
 31
0.0
  0
LINE
  5
61
100
AcDbEntity
  8
256
390
0
  6
Continuous
 62
     8
100
AcDbLine
 10
410.0
 20
257.0
 30
0.0
 11
227.0
 21
257.0
 31
0.0
  0
LINE
  5
62
100
AcDbEntity
  8
256
390
0
  6
Continuous
 62
     8
100
AcDbLine
 10
234.511017
 20
257.368011
 30
0.0
 11
232.011017
 21
261.664886
 31
0.0
  0
LINE
  5
63
100
AcDbEntity
  8
256
390
0
  6
Continuous
 62
     8
100
AcDbLine
 10
271.0
 20
26.5
 30
0.0
 11
410.0
 21
26.5
 31
0.0
  0
LINE
  5
64
100
AcDbEntity
  8
256
390
0
  6
Continuous
 62
     8
100
AcDbLine
 10
10.0
 20
10.0
 30
0.0
 11
10.0
 21
287.0
 31
0.0
  0
LINE
  5
65
100
AcDbEntity
  8
256
390
0
  6
Continuous
 62
     8
100
AcDbLine
 10
234.511017
 20
262.368011
 30
0.0
 11
232.011017
 21
266.664886
 31
0.0
  0
LINE
  5
66
100
AcDbEntity
  8
256
390
0
  6
Continuous
 62
     8
100
AcDbLine
 10
350.25
 20
15.666667
 30
0.0
 11
350.25
 21
48.0
 31
0.0
  0
LINE
  5
67
100
AcDbEntity
  8
256
390
0
  6
Continuous
 62
     8
100
AcDbLine
 10
307.164695
 20
32.573373
 30
0.0
 11
314.235801
 21
39.644442
 31
0.0
  0
LINE
  5
68
100
AcDbEntity
  8
256
390
0
  6
Continuous
 62
     8
100
AcDbLine
 10
357.0
 20
272.0
 30
0.0
 11
227.0
 21
272.0
 31
0.0
  0
LINE
  5
69
100
AcDbEntity
  8
256
390
0
  6
Continuous
 62
     8
100
AcDbLine
 10
234.511017
 20
272.368011
 30
0.0
 11
232.011017
 21
276.664886
 31
0.0
  0
MTEXT
  5
6A
100
AcDbEntity
  8
256
390
0
 62
     8
100
AcDbMText
 10
262.375031
 20
28.244792
 30
0.0
 40
1.75
 41
4.55
 71
     8
 72
     1
  1
0.5  
210
0.0
220
0.0
230
1.0
 73
     1
 44
1.0
  0
MTEXT
  5
6B
100
AcDbEntity
  8
256
390
0
 62
     8
100
AcDbMText
 10
250.875031
 20
21.244792
 30
0.0
 40
1.75
 41
4.55
 71
     8
 72
     1
  1
0.2  
210
0.0
220
0.0
230
1.0
 73
     1
 44
1.0
  0
MTEXT
  5
6C
100
AcDbEntity
  8
256
390
0
 62
     8
100
AcDbMText
 10
250.875031
 20
28.244792
 30
0.0
 40
1.75
 41
3.993182
 71
     8
 72
     1
  1
0.1  
210
0.0
220
0.0
230
1.0
 73
     1
 44
1.0
  0
MTEXT
  5
6D
100
AcDbEntity
  8
256
390
0
 62
     8
100
AcDbMText
 10
250.875031
 20
17.744792
 30
0.0
 40
1.75
 41
4.55
 71
     8
 72
     1
  1
0.3  
210
0.0
220
0.0
230
1.0
 73
     1
 44
1.0
  0
MTEXT
  5
6E
100
AcDbEntity
  8
256
390
0
 62
     8
100
AcDbMText
 10
287.02719
 20
42.856306
 30
0.0
 40
3.386667
 41
24.56873
 71
     8
 72
     1
  1
材    質  
210
0.0
220
0.0
230
1.0
 73
     1
 44
1.0
  0
MTEXT
  5
6F
100
AcDbEntity
  8
256
390
0
 62
     8
100
AcDbMText
 10
256.625031
 20
35.244792
 30
0.0
 40
1.75
 41
3.993182
 71
     8
 72
     1
  1
0.1  
210
0.0
220
0.0
230
1.0
 73
     1
 44
1.0
  0
MTEXT
  5
70
100
AcDbEntity
  8
256
390
0
 62
     8
100
AcDbMText
 10
268.125015
 20
14.244792
 30
0.0
 40
1.75
 41
1.590909
 71
     8
 72
     1
  1
6  
210
0.0
220
0.0
230
1.0
 73
     1
 44
1.0
  0
MTEXT
  5
71
100
AcDbEntity
  8
256
390
0
 62
     8
100
AcDbMText
 10
268.125015
 20
21.244792
 30
0.0
 40
1.75
 41
4.486364
 71
     8
 72
     1
  1
2.5  
210
0.0
220
0.0
230
1.0
 73
     1
 44
1.0
  0
MTEXT
  5
72
100
AcDbEntity
  8
256
390
0
 62
     8
100
AcDbMText
 10
312.52208
 20
42.980576
 30
0.0
 40
3.386667
 41
17.518305
 71
     8
 72
     1
  1
個 数  
210
0.0
220
0.0
230
1.0
 73
     1
 44
1.0
  0
MTEXT
  5
73
100
AcDbEntity
  8
256
390
0
 62
     8
100
AcDbMText
 10
360.130196
 20
257.742347
 30
0.0
 40
2.822222
 41
5.926666
 71
     8
 72
     1
  1
理  
210
0.0
220
0.0
230
1.0
 73
     1
 44
1.0
  0
MTEXT
  5
74
100
AcDbEntity
  8
256
390
0
 62
     8
100
AcDbMText
 10
257.063488
 20
41.133356
 30
0.0
 40
1.7952
 41
7.6704
 71
     8
 72
     1
  1
中級  
210
0.0
220
0.0
230
1.0
 73
     1
 44
1.0
  0
MTEXT
  5
75
100
AcDbEntity
  8
256
390
0
 62
     8
100
AcDbMText
 10
268.763424
 20
39.076539
 30
0.0
 40
2.0
 41
7.581818
 71
     8
 72
     1
  1
v %%p  
210
0.0
220
0.0
230
1.0
 73
     1
 44
1.0
  0
MTEXT
  5
76
100
AcDbEntity
  8
256
390
0
 62
     8
100
AcDbMText
 10
246.361108
 20
10.744792
 30
0.0
 40
1.75
 41
35.111364
 71
     9
 72
     1
  1
2000を超え4000以下  
210
0.0
220
0.0
230
1.0
 73
     1
 44
1.0
  0
MTEXT
  5
77
100
AcDbEntity
  8
256
390
0
 62
     8
100
AcDbMText
 10
315.229673
 20
32.880846
 30
0.0
 40
3.386667
 41
10.375516
 71
     8
 72
     1
  1
1台  
210
0.0
220
0.0
230
1.0
 73
     1
 44
1.0
  0
MTEXT
  5
78
100
AcDbEntity
  8
256
390
0
 62
     8
100
AcDbMText
 10
246.383663
 20
21.244792
 30
0.0
 40
1.75
 41
32.056818
 71
     9
 72
     1
  1
 120を超え 400以下  
210
0.0
220
0.0
230
1.0
 73
     1
 44
1.0
  0
MTEXT
  5
79
100
AcDbEntity
  8
256
390
0
 62
     8
100
AcDbMText
 10
388.380196
 20
278.047566
 30
0.0
 40
3.386667
 41
6.958061
 71
     8
 72
     1
  1
取  
210
0.0
220
0.0
230
1.0
 73
     1
 44
1.0
  0
MTEXT
  5
7A
100
AcDbEntity
  8
256
390
0
 62
     8
100
AcDbMText
 10
388.380196
 20
282.575181
 30
0.0
 40
3.386667
 41
6.68097
 71
     8
 72
     1
  1
面  
210
0.0
220
0.0
230
1.0
 73
     1
 44
1.0
  0
MTEXT
  5
7B
100
AcDbEntity
  8
256
390
0
 62
     8
100
AcDbMText
 10
230.223858
 20
38.623908
 30
0.0
 40
1.5
 41
24.272727
 71
     8
 72
     1
  1
寸法の区分(mm)  
210
0.0
220
0.0
230
1.0
 73
     1
 44
1.0
  0
MTEXT
  5
7C
100
AcDbEntity
  8
256
390
0
 62
     8
100
AcDbMText
 10
343.211504
 20
19.692223
 30
0.0
 40
3.386667
 41
16.902547
 71
     8
 72
     1
  1
図 番  
210
0.0
220
0.0
230
1.0
 73
     1
 44
1.0
  0
MTEXT
  5
7D
100
AcDbEntity
  8
256
390
0
 62
     8
100
AcDbMText
 10
262.375031
 20
31.744792
 30
0.0
 40
1.75
 41
4.55
 71
     8
 72
     1
  1
0.3  
210
0.0
220
0.0
230
1.0
 73
     1
 44
1.0
  0
MTEXT
  5
7E
100
AcDbEntity
  8
256
390
0
 62
     8
100
AcDbMText
 10
360.130196
 20
268.089407
 30
0.0
 40
3.386667
 41
7.112001
 71
     8
 72
     1
  1
理  
210
0.0
220
0.0
230
1.0
 73
     1
 44
1.0
  0
MTEXT
  5
7F
100
AcDbEntity
  8
256
390
0
 62
     8
100
AcDbMText
 10
246.369552
 20
14.244792
 30
0.0
 40
1.75
 41
34.888636
 71
     9
 72
     1
  1
1000を超え2000以下  
210
0.0
220
0.0
230
1.0
 73
     1
 44
1.0
  0
MTEXT
  5
80
100
AcDbEntity
  8
256
390
0
 62
     8
100
AcDbMText
 10
268.125015
 20
24.744792
 30
0.0
 40
1.75
 41
4.263636
 71
     8
 72
     1
  1
1.5  
210
0.0
220
0.0
230
1.0
 73
     1
 44
1.0
  0
MTEXT
  5
81
100
AcDbEntity
  8
256
390
0
 62
     8
100
AcDbMText
 10
262.375031
 20
35.244792
 30
0.0
 40
1.75
 41
4.55
 71
     8
 72
     1
  1
0.2  
210
0.0
220
0.0
230
1.0
 73
     1
 44
1.0
  0
MTEXT
  5
82
100
AcDbEntity
  8
256
390
0
 62
     8
100
AcDbMText
 10
351.983257
 20
283.013492
 30
0.0
 40
3.386667
 41
21.551517
 71
     8
 72
     1
  1
年月日     
210
0.0
220
0.0
230
1.0
 73
     1
 44
1.0
  0
MTEXT
  5
83
100
AcDbEntity
  8
256
390
0
 62
     8
100
AcDbMText
 10
250.875031
 20
31.744792
 30
0.0
 40
1.75
 41
6.586364
 71
     8
 72
     1
  1
0.05  
210
0.0
220
0.0
230
1.0
 73
     1
 44
1.0
  0
MTEXT
  5
84
100
AcDbEntity
  8
256
390
0
 62
     8
100
AcDbMText
 10
250.875031
 20
35.244792
 30
0.0
 40
1.75
 41
6.586364
 71
     8
 72
     1
  1
0.05  
210
0.0
220
0.0
230
1.0
 73
     1
 44
1.0
  0
MTEXT
  5
85
100
AcDbEntity
  8
256
390
0
 62
     8
100
AcDbMText
 10
262.375031
 20
10.744792
 30
0.0
 40
1.75
 41
1.765909
 71
     8
 72
     1
  1
4  
210
0.0
220
0.0
230
1.0
 73
     1
 44
1.0
  0
MTEXT
  5
86
100
AcDbEntity
  8
256
390
0
 62
     8
100
AcDbMText
 10
343.259623
 20
40.051182
 30
0.0
 40
3.386667
 41
17.210426
 71
     8
 72
     1
  1
名 称  
210
0.0
220
0.0
230
1.0
 73
     1
 44
1.0
  0
MTEXT
  5
87
100
AcDbEntity
  8
256
390
0
 62
     8
100
AcDbMText
 10
280.042689
 20
27.073014
 30
0.0
 40
3.386667
 41
17.241214
 71
     8
 72
     1
  1
設 計  
210
0.0
220
0.0
230
1.0
 73
     1
 44
1.0
  0
MTEXT
  5
88
100
AcDbEntity
  8
256
390
0
 62
     8
100
AcDbMText
 10
268.125015
 20
17.744792
 30
0.0
 40
1.75
 41
1.765909
 71
     8
 72
     1
  1
4  
210
0.0
220
0.0
230
1.0
 73
     1
 44
1.0
  0
MTEXT
  5
89
100
AcDbEntity
  8
256
390
0
 62
     8
100
AcDbMText
 10
256.625031
 20
28.244792
 30
0.0
 40
1.75
 41
4.55
 71
     8
 72
     1
  1
0.2  
210
0.0
220
0.0
230
1.0
 73
     1
 44
1.0
  0
MTEXT
  5
8A
100
AcDbEntity
  8
256
390
0
 62
     8
100
AcDbMText
 10
246.368174
 20
17.744792
 30
0.0
 40
1.75
 41
33.138636
 71
     9
 72
     1
  1
 400を超え1000以下  
210
0.0
220
0.0
230
1.0
 73
     1
 44
1.0
  0
MTEXT
  5
8B
100
AcDbEntity
  8
256
390
0
 62
     8
100
AcDbMText
 10
250.875031
 20
14.244792
 30
0.0
 40
1.75
 41
4.55
 71
     8
 72
     1
  1
0.5  
210
0.0
220
0.0
230
1.0
 73
     1
 44
1.0
  0
MTEXT
  5
8C
100
AcDbEntity
  8
256
390
0
 62
     8
100
AcDbMText
 10
257.26344
 20
39.076539
 30
0.0
 40
2.0
 41
8.563636
 71
     8
 72
     1
  1
m %%p  
210
0.0
220
0.0
230
1.0
 73
     1
 44
1.0
  0
MTEXT
  5
8D
100
AcDbEntity
  8
256
390
0
 62
     8
100
AcDbMText
 10
246.444454
 20
35.244792
 30
0.0
 40
1.75
 41
29.543182
 71
     9
 72
     1
  1
 0.5を超え   3以下  
210
0.0
220
0.0
230
1.0
 73
     1
 44
1.0
  0
MTEXT
  5
8E
100
AcDbEntity
  8
256
390
0
 62
     8
100
AcDbMText
 10
246.445896
 20
31.744792
 30
0.0
 40
1.75
 41
26.615909
 71
     9
 72
     1
  1
   3を超え   6以下  
210
0.0
220
0.0
230
1.0
 73
     1
 44
1.0
  0
MTEXT
  5
8F
100
AcDbEntity
  8
256
390
0
 62
     8
100
AcDbMText
 10
343.228244
 20
29.512776
 30
0.0
 40
2.54
 41
22.998545
 71
     8
 72
     1
  1
部品番号  
210
0.0
220
0.0
230
1.0
 73
     1
 44
1.0
  0
MTEXT
  5
90
100
AcDbEntity
  8
256
390
0
 62
     8
100
AcDbMText
 10
251.19527
 20
41.133356
 30
0.0
 40
1.7952
 41
8.04576
 71
     8
 72
     1
  1
精級  
210
0.0
220
0.0
230
1.0
 73
     1
 44
1.0
  0
MTEXT
  5
91
100
AcDbEntity
  8
256
390
0
 62
     8
100
AcDbMText
 10
246.399214
 20
24.744792
 30
0.0
 40
1.75
 41
30.243182
 71
     9
 72
     1
  1
  30を超え 120以下  
210
0.0
220
0.0
230
1.0
 73
     1
 44
1.0
  0
MTEXT
  5
92
100
AcDbEntity
  8
256
390
0
 62
     8
100
AcDbMText
 10
262.375031
 20
24.744792
 30
0.0
 40
1.75
 41
4.565909
 71
     8
 72
     1
  1
0.8  
210
0.0
220
0.0
230
1.0
 73
     1
 44
1.0
  0
MTEXT
  5
93
100
AcDbEntity
  8
256
390
0
 62
     8
100
AcDbMText
 10
242.4153
 20
40.925781
 30
0.0
 40
1.5
 41
13.636364
 71
     8
 72
     1
  1
公差等級  
210
0.0
220
0.0
230
1.0
 73
     1
 44
1.0
  0
MTEXT
  5
94
100
AcDbEntity
  8
256
390
0
 62
     8
100
AcDbMText
 10
246.430153
 20
28.244792
 30
0.0
 40
1.75
 41
27.395455
 71
     9
 72
     1
  1
   6を超え  30以下  
210
0.0
220
0.0
230
1.0
 73
     1
 44
1.0
  0
MTEXT
  5
95
100
AcDbEntity
  8
256
390
0
 62
     8
100
AcDbMText
 10
285.330511
 20
282.942152
 30
0.0
 40
3.386667
 41
59.482188
 71
     8
 72
     1
  1
訂    正    内    容  
210
0.0
220
0.0
230
1.0
 73
     1
 44
1.0
  0
MTEXT
  5
96
100
AcDbEntity
  8
256
390
0
 62
     8
100
AcDbMText
 10
256.625031
 20
24.744792
 30
0.0
 40
1.75
 41
4.55
 71
     8
 72
     1
  1
0.3  
210
0.0
220
0.0
230
1.0
 73
     1
 44
1.0
  0
MTEXT
  5
97
100
AcDbEntity
  8
256
390
0
 62
     8
100
AcDbMText
 10
262.375031
 20
17.744792
 30
0.0
 40
1.75
 41
1.622727
 71
     8
 72
     1
  1
2  
210
0.0
220
0.0
230
1.0
 73
     1
 44
1.0
  0
MTEXT
  5
98
100
AcDbEntity
  8
256
390
0
 62
     8
100
AcDbMText
 10
262.375031
 20
14.244792
 30
0.0
 40
1.75
 41
1.622727
 71
     8
 72
     1
  1
3  
210
0.0
220
0.0
230
1.0
 73
     1
 44
1.0
  0
MTEXT
  5
99
100
AcDbEntity
  8
256
390
0
 62
     8
100
AcDbMText
 10
328.687321
 20
19.668163
 30
0.0
 40
3.386667
 41
22.536729
 71
     8
 72
     1
  1
三角法  
210
0.0
220
0.0
230
1.0
 73
     1
 44
1.0
  0
MTEXT
  5
9A
100
AcDbEntity
  8
256
390
0
 62
     8
100
AcDbMText
 10
365.92539
 20
11.0735
 30
0.0
 40
3.386667
 41
99.506434
 71
     8
 72
     1
  1
双 葉 電 子 工 業 株 式 会 社  
210
0.0
220
0.0
230
1.0
 73
     1
 44
1.0
  0
MTEXT
  5
9B
100
AcDbEntity
  8
256
390
0
 62
     8
100
AcDbMText
 10
256.625031
 20
17.744792
 30
0.0
 40
1.75
 41
4.565909
 71
     8
 72
     1
  1
0.8  
210
0.0
220
0.0
230
1.0
 73
     1
 44
1.0
  0
MTEXT
  5
9C
100
AcDbEntity
  8
256
390
0
 62
     8
100
AcDbMText
 10
312.769883
 20
27.273035
 30
0.0
 40
3.386667
 41
17.518305
 71
     8
 72
     1
  1
承 認  
210
0.0
220
0.0
230
1.0
 73
     1
 44
1.0
  0
MTEXT
  5
9D
100
AcDbEntity
  8
256
390
0
 62
     8
100
AcDbMText
 10
268.125015
 20
28.244792
 30
0.0
 40
1.75
 41
0.843182
 71
     8
 72
     1
  1
1  
210
0.0
220
0.0
230
1.0
 73
     1
 44
1.0
  0
MTEXT
  5
9E
100
AcDbEntity
  8
256
390
0
 62
     8
100
AcDbMText
 10
247.07562
 20
45.235875
 30
0.0
 40
1.7
 41
74.846364
 71
     8
 72
     1
  1
削り加工寸法の普通許容差 JIS B 0405-1991  
210
0.0
220
0.0
230
1.0
 73
     1
 44
1.0
  0
MTEXT
  5
9F
100
AcDbEntity
  8
256
390
0
 62
     8
100
AcDbMText
 10
250.875031
 20
24.744792
 30
0.0
 40
1.75
 41
6.586364
 71
     8
 72
     1
  1
0.15  
210
0.0
220
0.0
230
1.0
 73
     1
 44
1.0
  0
MTEXT
  5
A0
100
AcDbEntity
  8
256
390
0
 62
     8
100
AcDbMText
 10
250.875031
 20
9.839584
 30
0.0
 40
2.54
 41
2.632364
 71
     8
 72
     1
  1
-  
210
0.0
220
0.0
230
1.0
 73
     1
 44
1.0
  0
MTEXT
  5
A1
100
AcDbEntity
  8
256
390
0
 62
     8
100
AcDbMText
 10
296.045235
 20
27.214792
 30
0.0
 40
3.386667
 41
17.025699
 71
     8
 72
     1
  1
検 図  
210
0.0
220
0.0
230
1.0
 73
     1
 44
1.0
  0
MTEXT
  5
A2
100
AcDbEntity
  8
256
390
0
 62
     8
100
AcDbMText
 10
268.125015
 20
34.339584
 30
0.0
 40
2.54
 41
2.632364
 71
     8
 72
     1
  1
-  
210
0.0
220
0.0
230
1.0
 73
     1
 44
1.0
  0
MTEXT
  5
A3
100
AcDbEntity
  8
256
390
0
 62
     8
100
AcDbMText
 10
256.625031
 20
31.744792
 30
0.0
 40
1.75
 41
3.993182
 71
     8
 72
     1
  1
0.1  
210
0.0
220
0.0
230
1.0
 73
     1
 44
1.0
  0
MTEXT
  5
A4
100
AcDbEntity
  8
256
390
0
 62
     8
100
AcDbMText
 10
263.01344
 20
39.076539
 30
0.0
 40
2.0
 41
7.527273
 71
     8
 72
     1
  1
c %%p  
210
0.0
220
0.0
230
1.0
 73
     1
 44
1.0
  0
MTEXT
  5
A5
100
AcDbEntity
  8
256
390
0
 62
     8
100
AcDbMText
 10
360.130196
 20
278.047566
 30
0.0
 40
3.386667
 41
6.68097
 71
     8
 72
     1
  1
上  
210
0.0
220
0.0
230
1.0
 73
     1
 44
1.0
  0
MTEXT
  5
A6
100
AcDbEntity
  8
256
390
0
 62
     8
100
AcDbMText
 10
232.748022
 20
282.92144
 30
0.0
 40
3.386667
 41
14.870547
 71
     8
 72
     1
  1
記号  
210
0.0
220
0.0
230
1.0
 73
     1
 44
1.0
  0
MTEXT
  5
A7
100
AcDbEntity
  8
256
390
0
 62
     8
100
AcDbMText
 10
256.625031
 20
21.244792
 30
0.0
 40
1.75
 41
4.55
 71
     8
 72
     1
  1
0.5  
210
0.0
220
0.0
230
1.0
 73
     1
 44
1.0
  0
MTEXT
  5
A8
100
AcDbEntity
  8
256
390
0
 62
     8
100
AcDbMText
 10
256.625031
 20
10.744792
 30
0.0
 40
1.75
 41
1.622727
 71
     8
 72
     1
  1
2  
210
0.0
220
0.0
230
1.0
 73
     1
 44
1.0
  0
MTEXT
  5
A9
100
AcDbEntity
  8
256
390
0
 62
     8
100
AcDbMText
 10
262.375031
 20
21.244792
 30
0.0
 40
1.75
 41
4.263636
 71
     8
 72
     1
  1
1.2  
210
0.0
220
0.0
230
1.0
 73
     1
 44
1.0
  0
MTEXT
  5
AA
100
AcDbEntity
  8
256
390
0
 62
     8
100
AcDbMText
 10
360.130196
 20
282.575181
 30
0.0
 40
3.386667
 41
7.050425
 71
     8
 72
     1
  1
仕  
210
0.0
220
0.0
230
1.0
 73
     1
 44
1.0
  0
MTEXT
  5
AB
100
AcDbEntity
  8
256
390
0
 62
     8
100
AcDbMText
 10
268.125015
 20
10.744792
 30
0.0
 40
1.75
 41
1.654545
 71
     8
 72
     1
  1
8  
210
0.0
220
0.0
230
1.0
 73
     1
 44
1.0
  0
MTEXT
  5
AC
100
AcDbEntity
  8
256
390
0
 62
     8
100
AcDbMText
 10
360.130196
 20
260.858133
 30
0.0
 40
2.822222
 41
5.875353
 71
     8
 72
     1
  1
処  
210
0.0
220
0.0
230
1.0
 73
     1
 44
1.0
  0
MTEXT
  5
AD
100
AcDbEntity
  8
256
390
0
 62
     8
100
AcDbMText
 10
336.870941
 20
283.013492
 30
0.0
 40
3.386667
 41
22.81382
 71
     8
 72
     1
  1
担当者     
210
0.0
220
0.0
230
1.0
 73
     1
 44
1.0
  0
MTEXT
  5
AE
100
AcDbEntity
  8
256
390
0
 62
     8
100
AcDbMText
 10
251.577735
 20
39.076539
 30
0.0
 40
2.0
 41
6.836364
 71
     8
 72
     1
  1
f %%p  
210
0.0
220
0.0
230
1.0
 73
     1
 44
1.0
  0
MTEXT
  5
AF
100
AcDbEntity
  8
256
390
0
 62
     8
100
AcDbMText
 10
360.130196
 20
263.973919
 30
0.0
 40
2.822222
 41
5.952323
 71
     8
 72
     1
  1
熱  
210
0.0
220
0.0
230
1.0
 73
     1
 44
1.0
  0
MTEXT
  5
B0
100
AcDbEntity
  8
256
390
0
 62
     8
100
AcDbMText
 10
268.125015
 20
31.744792
 30
0.0
 40
1.75
 41
4.55
 71
     8
 72
     1
  1
0.5  
210
0.0
220
0.0
230
1.0
 73
     1
 44
1.0
  0
MTEXT
  5
B1
100
AcDbEntity
  8
256
390
0
 62
     8
100
AcDbMText
 10
328.494219
 20
43.012096
 30
0.0
 40
3.386667
 41
17.30279
 71
     8
 72
     1
  1
尺 度  
210
0.0
220
0.0
230
1.0
 73
     1
 44
1.0
  0
MTEXT
  5
B2
100
AcDbEntity
  8
256
390
0
 62
     8
100
AcDbMText
 10
262.660189
 20
41.133356
 30
0.0
 40
1.7952
 41
7.9968
 71
     8
 72
     1
  1
粗級  
210
0.0
220
0.0
230
1.0
 73
     1
 44
1.0
  0
MTEXT
  5
B3
100
AcDbEntity
  8
256
390
0
 62
     8
100
AcDbMText
 10
225.086682
 20
40.357732
 30
0.0
 40
1.5
 41
6.640909
 71
     8
 72
     1
  1
基準  
210
0.0
220
0.0
230
1.0
 73
     1
 44
1.0
  0
MTEXT
  5
B4
100
AcDbEntity
  8
256
390
0
 62
     8
100
AcDbMText
 10
268.384088
 20
41.201556
 30
0.0
 40
1.584
 41
10.8
 71
     8
 72
     1
  1
極粗級  
210
0.0
220
0.0
230
1.0
 73
     1
 44
1.0
  0
MTEXT
  5
B5
100
AcDbEntity
  8
256
390
0
 62
     8
100
AcDbMText
 10
256.625031
 20
14.244792
 30
0.0
 40
1.75
 41
4.263636
 71
     8
 72
     1
  1
1.2  
210
0.0
220
0.0
230
1.0
 73
     1
 44
1.0
  0
MTEXT
  5
B6
100
AcDbEntity
  8
256
390
0
 62
     8
100
AcDbMText
 10
360.130196
 20
272.53334
 30
0.0
 40
3.386667
 41
7.050425
 71
     8
 72
     1
  1
処  
210
0.0
220
0.0
230
1.0
 73
     1
 44
1.0
  0
INSERT
  5
BB
100
AcDbEntity
  8
256
390
0
100
AcDbBlockReference
  2
AID287
 10
0.0
 20
0.0
 30
0.0
  0
CIRCLE
  5
BD
100
AcDbEntity
  8
1
390
0
  6
Continuous
 62
     2
100
AcDbCircle
 10
279.232849
 20
18.198005
 30
0.0
 40
7.5
210
0.0
220
0.0
230
1.0
  0
LINE
  5
BE
100
AcDbEntity
  8
1
390
0
  6
Continuous
 62
     2
100
AcDbLine
 10
272.358986
 20
15.198005
 30
0.0
 11
286.106713
 21
15.198005
 31
0.0
  0
LINE
  5
BF
100
AcDbEntity
  8
1
390
0
  6
Continuous
 62
     2
100
AcDbLine
 10
272.358986
 20
21.198005
 30
0.0
 11
286.106713
 21
21.198005
 31
0.0
  0
INSERT
  5
C4
100
AcDbEntity
  8
1
390
0
100
AcDbBlockReference
  2
AID297
 10
0.0
 20
0.0
 30
0.0
  0
INSERT
  5
C9
100
AcDbEntity
  8
1
390
0
100
AcDbBlockReference
  2
AID301
 10
0.0
 20
0.0
 30
0.0
  0
INSERT
  5
CE
100
AcDbEntity
  8
1
390
0
100
AcDbBlockReference
  2
AID305
 10
0.0
 20
0.0
 30
0.0
  0
CIRCLE
  5
CF
100
AcDbEntity
  8
1
390
0
  6
Continuous
 62
     7
100
AcDbCircle
 10
148.784159
 20
198.277956
 30
0.0
 40
1.3
210
0.0
220
0.0
230
1.0
  0
ARC
  5
D0
100
AcDbEntity
  8
1
390
0
  6
Continuous
 62
     7
100
AcDbCircle
 10
148.784159
 20
198.277956
 30
0.0
 40
2.0
210
0.0
220
0.0
230
1.0
100
AcDbArc
 50
0.0
 51
270.0
  0
ARC
  5
D1
100
AcDbEntity
  8
1
390
0
  6
Continuous
 62
     7
100
AcDbCircle
 10
148.784159
 20
198.277956
 30
0.0
 40
2.0
210
0.0
220
0.0
230
1.0
100
AcDbArc
 50
270.0
 51
360.0
  0
CIRCLE
  5
D2
100
AcDbEntity
  8
1
390
0
  6
Continuous
 62
     7
100
AcDbCircle
 10
148.784159
 20
198.277956
 30
0.0
 40
4.5
210
0.0
220
0.0
230
1.0
  0
ARC
  5
D3
100
AcDbEntity
  8
1
390
0
  6
Continuous
 62
     7
100
AcDbCircle
 10
148.784159
 20
198.277956
 30
0.0
 40
5.05
210
0.0
220
0.0
230
1.0
100
AcDbArc
 50
8.069301
 51
33.935817
  0
LINE
  5
D4
100
AcDbEntity
  8
1
390
0
  6
Continuous
 62
     7
100
AcDbLine
 10
153.784159
 20
198.986829
 30
0.0
 11
153.784159
 21
197.569084
 31
0.0
  0
ARC
  5
D5
100
AcDbEntity
  8
1
390
0
  6
Continuous
 62
     7
100
AcDbCircle
 10
148.784159
 20
198.277956
 30
0.0
 40
5.05
210
0.0
220
0.0
230
1.0
100
AcDbArc
 50
326.064183
 51
351.930699
  0
POLYLINE
  5
D6
100
AcDbEntity
  8
1
390
0
  6
Continuous
 62
     7
100
AcDb2dPolyline
 66
     1
 10
0.0
 20
0.0
 30
0.0
 40
1.0
 41
1.0
  0
VERTEX
  5
D7
100
AcDbEntity
  8
1
390
0
 62
     7
100
AcDbVertex
100
AcDb2dVertex
 10
152.97396
 20
195.458724
 30
0.0
  0
VERTEX
  5
D8
100
AcDbEntity
  8
1
390
0
 62
     7
100
AcDbVertex
100
AcDb2dVertex
 10
152.870785
 20
195.362177
 30
0.0
  0
VERTEX
  5
D9
100
AcDbEntity
  8
1
390
0
 62
     7
100
AcDbVertex
100
AcDb2dVertex
 10
152.771441
 20
195.255587
 30
0.0
  0
VERTEX
  5
DA
100
AcDbEntity
  8
1
390
0
 62
     7
100
AcDbVertex
100
AcDb2dVertex
 10
152.708281
 20
195.179365
 30
0.0
  0
SEQEND
  5
DB
100
AcDbEntity
  8
0
390
0
  0
ARC
  5
DC
100
AcDbEntity
  8
1
390
0
  6
Continuous
 62
     7
100
AcDbCircle
 10
148.784159
 20
198.277956
 30
0.0
 40
5.0
210
0.0
220
0.0
230
1.0
100
AcDbArc
 50
38.295567
 51
321.704433
  0
POLYLINE
  5
DD
100
AcDbEntity
  8
1
390
0
  6
Continuous
 62
     7
100
AcDb2dPolyline
 66
     1
 10
0.0
 20
0.0
 30
0.0
 40
1.0
 41
1.0
  0
VERTEX
  5
DE
100
AcDbEntity
  8
1
390
0
 62
     7
100
AcDbVertex
100
AcDb2dVertex
 10
152.708281
 20
201.376548
 30
0.0
  0
VERTEX
  5
DF
100
AcDbEntity
  8
1
390
0
 62
     7
100
AcDbVertex
100
AcDb2dVertex
 10
152.801449
 20
201.266543
 30
0.0
  0
VERTEX
  5
E0
100
AcDbEntity
  8
1
390
0
 62
     7
100
AcDbVertex
100
AcDb2dVertex
 10
152.902707
 20
201.162455
 30
0.0
  0
VERTEX
  5
E1
100
AcDbEntity
  8
1
390
0
 62
     7
100
AcDbVertex
100
AcDb2dVertex
 10
152.97396
 20
201.097189
 30
0.0
  0
SEQEND
  5
E2
100
AcDbEntity
  8
0
390
0
  0
LINE
  5
E3
100
AcDbEntity
  8
1
390
0
  6
Continuous
 62
     7
100
AcDbLine
 10
154.016463
 20
195.950258
 30
0.0
 11
153.898865
 21
195.927505
 31
0.0
  0
POLYLINE
  5
E4
100
AcDbEntity
  8
1
390
0
  6
Continuous
 62
     7
100
AcDb2dPolyline
 66
     1
 10
0.0
 20
0.0
 30
0.0
 40
1.0
 41
1.0
  0
VERTEX
  5
E5
100
AcDbEntity
  8
1
390
0
 62
     7
100
AcDbVertex
100
AcDb2dVertex
 10
153.784159
 20
199.338147
 30
0.0
  0
VERTEX
  5
E6
100
AcDbEntity
  8
1
390
0
 62
     7
100
AcDbVertex
100
AcDb2dVertex
 10
153.784174
 20
199.249775
 30
0.0
  0
VERTEX
  5
E7
100
AcDbEntity
  8
1
390
0
 62
     7
100
AcDbVertex
100
AcDb2dVertex
 10
153.784168
 20
199.206057
 30
0.0
  0
VERTEX
  5
E8
100
AcDbEntity
  8
1
390
0
 62
     7
100
AcDbVertex
100
AcDb2dVertex
 10
153.784159
 20
199.162825
 30
0.0
  0
SEQEND
  5
E9
100
AcDbEntity
  8
0
390
0
  0
POLYLINE
  5
EA
100
AcDbEntity
  8
1
390
0
  6
Continuous
 62
     7
100
AcDb2dPolyline
 66
     1
 10
0.0
 20
0.0
 30
0.0
 40
1.0
 41
1.0
  0
VERTEX
  5
EB
100
AcDbEntity
  8
1
390
0
 62
     7
100
AcDbVertex
100
AcDb2dVertex
 10
153.898865
 20
200.628407
 30
0.0
  0
VERTEX
  5
EC
100
AcDbEntity
  8
1
390
0
 62
     7
100
AcDbVertex
100
AcDb2dVertex
 10
153.887773
 20
200.593717
 30
0.0
  0
VERTEX
  5
ED
100
AcDbEntity
  8
1
390
0
 62
     7
100
AcDbVertex
100
AcDb2dVertex
 10
153.874538
 20
200.552122
 30
0.0
  0
VERTEX
  5
EE
100
AcDbEntity
  8
1
390
0
 62
     7
100
AcDbVertex
100
AcDb2dVertex
 10
153.859649
 20
200.504272
 30
0.0
  0
VERTEX
  5
EF
100
AcDbEntity
  8
1
390
0
 62
     7
100
AcDbVertex
100
AcDb2dVertex
 10
153.835296
 20
200.420771
 30
0.0
  0
VERTEX
  5
F0
100
AcDbEntity
  8
1
390
0
 62
     7
100
AcDbVertex
100
AcDb2dVertex
 10
153.812062
 20
200.325186
 30
0.0
  0
VERTEX
  5
F1
100
AcDbEntity
  8
1
390
0
 62
     7
100
AcDbVertex
100
AcDb2dVertex
 10
153.800829
 20
200.26559
 30
0.0
  0
VERTEX
  5
F2
100
AcDbEntity
  8
1
390
0
 62
     7
100
AcDbVertex
100
AcDb2dVertex
 10
153.791982
 20
200.202015
 30
0.0
  0
VERTEX
  5
F3
100
AcDbEntity
  8
1
390
0
 62
     7
100
AcDbVertex
100
AcDb2dVertex
 10
153.786208
 20
200.133834
 30
0.0
  0
VERTEX
  5
F4
100
AcDbEntity
  8
1
390
0
 62
     7
100
AcDbVertex
100
AcDb2dVertex
 10
153.784159
 20
200.061099
 30
0.0
  0
SEQEND
  5
F5
100
AcDbEntity
  8
0
390
0
  0
POLYLINE
  5
F6
100
AcDbEntity
  8
1
390
0
  6
Continuous
 62
     7
100
AcDb2dPolyline
 66
     1
 10
0.0
 20
0.0
 30
0.0
 40
1.0
 41
1.0
  0
VERTEX
  5
F7
100
AcDbEntity
  8
1
390
0
 62
     7
100
AcDbVertex
100
AcDb2dVertex
 10
153.784159
 20
196.494814
 30
0.0
  0
VERTEX
  5
F8
100
AcDbEntity
  8
1
390
0
 62
     7
100
AcDbVertex
100
AcDb2dVertex
 10
153.786882
 20
196.411527
 30
0.0
  0
VERTEX
  5
F9
100
AcDbEntity
  8
1
390
0
 62
     7
100
AcDbVertex
100
AcDb2dVertex
 10
153.794401
 20
196.334172
 30
0.0
  0
VERTEX
  5
FA
100
AcDbEntity
  8
1
390
0
 62
     7
100
AcDbVertex
100
AcDb2dVertex
 10
153.805747
 20
196.262405
 30
0.0
  0
VERTEX
  5
FB
100
AcDbEntity
  8
1
390
0
 62
     7
100
AcDbVertex
100
AcDb2dVertex
 10
153.827925
 20
196.163016
 30
0.0
  0
VERTEX
  5
FC
100
AcDbEntity
  8
1
390
0
 62
     7
100
AcDbVertex
100
AcDb2dVertex
 10
153.852394
 20
196.075606
 30
0.0
  0
VERTEX
  5
FD
100
AcDbEntity
  8
1
390
0
 62
     7
100
AcDbVertex
100
AcDb2dVertex
 10
153.865822
 20
196.031647
 30
0.0
  0
VERTEX
  5
FE
100
AcDbEntity
  8
1
390
0
 62
     7
100
AcDbVertex
100
AcDb2dVertex
 10
153.87828
 20
195.992101
 30
0.0
  0
VERTEX
  5
FF
100
AcDbEntity
  8
1
390
0
 62
     7
100
AcDbVertex
100
AcDb2dVertex
 10
153.889404
 20
195.957182
 30
0.0
  0
VERTEX
  5
100
100
AcDbEntity
  8
1
390
0
 62
     7
100
AcDbVertex
100
AcDb2dVertex
 10
153.898865
 20
195.927505
 30
0.0
  0
SEQEND
  5
101
100
AcDbEntity
  8
0
390
0
  0
LINE
  5
102
100
AcDbEntity
  8
1
390
0
  6
Continuous
 62
     7
100
AcDbLine
 10
153.784159
 20
197.393088
 30
0.0
 11
153.784159
 21
197.217766
 31
0.0
  0
POLYLINE
  5
103
100
AcDbEntity
  8
1
390
0
  6
Continuous
 62
     7
100
AcDb2dPolyline
 66
     1
 10
0.0
 20
0.0
 30
0.0
 40
1.0
 41
1.0
  0
VERTEX
  5
104
100
AcDbEntity
  8
1
390
0
 62
     7
100
AcDbVertex
100
AcDb2dVertex
 10
153.898865
 20
200.628407
 30
0.0
  0
VERTEX
  5
105
100
AcDbEntity
  8
1
390
0
 62
     7
100
AcDbVertex
100
AcDb2dVertex
 10
154.002431
 20
200.607992
 30
0.0
  0
VERTEX
  5
106
100
AcDbEntity
  8
1
390
0
 62
     7
100
AcDbVertex
100
AcDb2dVertex
 10
154.016463
 20
200.605655
 30
0.0
  0
SEQEND
  5
107
100
AcDbEntity
  8
0
390
0
  0
ARC
  5
108
100
AcDbEntity
  8
1
390
0
  6
Continuous
 62
     7
100
AcDbCircle
 10
154.990454
 20
201.047251
 30
0.0
 40
1.687251
210
0.0
220
0.0
230
1.0
100
AcDbArc
 50
199.29242
 51
224.361152
  0
LINE
  5
109
100
AcDbEntity
  8
1
390
0
  6
Continuous
 62
     7
100
AcDbLine
 10
153.784159
 20
199.338147
 30
0.0
 11
153.784159
 21
199.867561
 31
0.0
  0
ARC
  5
10A
100
AcDbEntity
  8
1
390
0
  6
Continuous
 62
     7
100
AcDbCircle
 10
154.356708
 20
202.678363
 30
0.0
 40
2.100501
210
0.0
220
0.0
230
1.0
100
AcDbArc
 50
228.830063
 51
239.012998
  0
LINE
  5
10B
100
AcDbEntity
  8
1
390
0
  6
Continuous
 62
     7
100
AcDbLine
 10
153.784159
 20
196.688352
 30
0.0
 11
153.784159
 21
197.217766
 31
0.0
  0
ARC
  5
10C
100
AcDbEntity
  8
1
390
0
  6
Continuous
 62
     7
100
AcDbCircle
 10
156.556408
 20
194.853773
 30
0.0
 40
3.383137
210
0.0
220
0.0
230
1.0
100
AcDbArc
 50
159.003753
 51
165.894404
  0
ARC
  5
10D
100
AcDbEntity
  8
1
390
0
  6
Continuous
 62
     7
100
AcDbCircle
 10
154.357678
 20
193.876218
 30
0.0
 40
2.102142
210
0.0
220
0.0
230
1.0
100
AcDbArc
 50
120.990988
 51
131.16595
  0
POLYLINE
  5
10E
100
AcDbEntity
  8
1
390
0
  6
Continuous
 62
     7
100
AcDb2dPolyline
 66
     1
 10
0.0
 20
0.0
 30
0.0
 40
1.0
 41
1.0
  0
VERTEX
  5
10F
100
AcDbEntity
  8
1
390
0
 62
     7
100
AcDbVertex
100
AcDb2dVertex
 10
153.397951
 20
200.489801
 30
0.0
  0
VERTEX
  5
110
100
AcDbEntity
  8
1
390
0
 62
     7
100
AcDbVertex
100
AcDb2dVertex
 10
153.362609
 20
200.586213
 30
0.0
  0
VERTEX
  5
111
100
AcDbEntity
  8
1
390
0
 62
     7
100
AcDbVertex
100
AcDb2dVertex
 10
153.313777
 20
200.736983
 30
0.0
  0
VERTEX
  5
112
100
AcDbEntity
  8
1
390
0
 62
     7
100
AcDbVertex
100
AcDb2dVertex
 10
153.275278
 20
200.877637
 30
0.0
  0
SEQEND
  5
113
100
AcDbEntity
  8
0
390
0
  0
LINE
  5
115
100
AcDbEntity
  8
1
390
0
  6
DOT
 62
     9
100
AcDbLine
 10
153.241001
 20
200.898671
 30
0.0
 11
153.272469
 21
200.879327
 31
0.0
  0
ARC
  5
116
100
AcDbEntity
  8
1
390
0
  6
Continuous
 62
     7
100
AcDbCircle
 10
154.356412
 20
202.677956
 30
0.0
 40
2.1
210
0.0
220
0.0
230
1.0
100
AcDbArc
 50
238.924754
 51
257.415483
  0
LINE
  5
117
100
AcDbEntity
  8
1
390
0
  6
Continuous
 62
     7
100
AcDbLine
 10
153.784159
 20
200.061099
 30
0.0
 11
153.784159
 21
199.867561
 31
0.0
  0
POLYLINE
  5
118
100
AcDbEntity
  8
1
390
0
  6
Continuous
 62
     7
100
AcDb2dPolyline
 66
     1
 10
0.0
 20
0.0
 30
0.0
 40
1.0
 41
1.0
  0
VERTEX
  5
119
100
AcDbEntity
  8
1
390
0
 62
     7
100
AcDbVertex
100
AcDb2dVertex
 10
153.397898
 20
196.065974
 30
0.0
  0
VERTEX
  5
11A
100
AcDbEntity
  8
1
390
0
 62
     7
100
AcDbVertex
100
AcDb2dVertex
 10
153.410314
 20
196.097848
 30
0.0
  0
VERTEX
  5
11B
100
AcDbEntity
  8
1
390
0
 62
     7
100
AcDbVertex
100
AcDb2dVertex
 10
153.434769
 20
196.157475
 30
0.0
  0
VERTEX
  5
11C
100
AcDbEntity
  8
1
390
0
 62
     7
100
AcDbVertex
100
AcDb2dVertex
 10
153.44973
 20
196.192089
 30
0.0
  0
VERTEX
  5
11D
100
AcDbEntity
  8
1
390
0
 62
     7
100
AcDbVertex
100
AcDb2dVertex
 10
153.465261
 20
196.226518
 30
0.0
  0
VERTEX
  5
11E
100
AcDbEntity
  8
1
390
0
 62
     7
100
AcDbVertex
100
AcDb2dVertex
 10
153.481372
 20
196.260642
 30
0.0
  0
VERTEX
  5
11F
100
AcDbEntity
  8
1
390
0
 62
     7
100
AcDbVertex
100
AcDb2dVertex
 10
153.498072
 20
196.294342
 30
0.0
  0
VERTEX
  5
120
100
AcDbEntity
  8
1
390
0
 62
     7
100
AcDbVertex
100
AcDb2dVertex
 10
153.515371
 20
196.327496
 30
0.0
  0
VERTEX
  5
121
100
AcDbEntity
  8
1
390
0
 62
     7
100
AcDbVertex
100
AcDb2dVertex
 10
153.538949
 20
196.369906
 30
0.0
  0
VERTEX
  5
122
100
AcDbEntity
  8
1
390
0
 62
     7
100
AcDbVertex
100
AcDb2dVertex
 10
153.563671
 20
196.411252
 30
0.0
  0
VERTEX
  5
123
100
AcDbEntity
  8
1
390
0
 62
     7
100
AcDbVertex
100
AcDb2dVertex
 10
153.58952
 20
196.451469
 30
0.0
  0
VERTEX
  5
124
100
AcDbEntity
  8
1
390
0
 62
     7
100
AcDbVertex
100
AcDb2dVertex
 10
153.616481
 20
196.490492
 30
0.0
  0
VERTEX
  5
125
100
AcDbEntity
  8
1
390
0
 62
     7
100
AcDbVertex
100
AcDb2dVertex
 10
153.655272
 20
196.542173
 30
0.0
  0
VERTEX
  5
126
100
AcDbEntity
  8
1
390
0
 62
     7
100
AcDbVertex
100
AcDb2dVertex
 10
153.696141
 20
196.592086
 30
0.0
  0
VERTEX
  5
127
100
AcDbEntity
  8
1
390
0
 62
     7
100
AcDbVertex
100
AcDb2dVertex
 10
153.739238
 20
196.6408
 30
0.0
  0
VERTEX
  5
128
100
AcDbEntity
  8
1
390
0
 62
     7
100
AcDbVertex
100
AcDb2dVertex
 10
153.784159
 20
196.688352
 30
0.0
  0
SEQEND
  5
129
100
AcDbEntity
  8
0
390
0
  0
LINE
  5
12A
100
AcDbEntity
  8
1
390
0
  6
Continuous
 62
     7
100
AcDbLine
 10
153.784159
 20
196.688352
 30
0.0
 11
153.784159
 21
196.494814
 31
0.0
  0
ARC
  5
12B
100
AcDbEntity
  8
1
390
0
  6
Continuous
 62
     7
100
AcDbCircle
 10
154.356388
 20
193.878015
 30
0.0
 40
2.099938
210
0.0
220
0.0
230
1.0
100
AcDbArc
 50
102.584244
 51
120.94594
  0
LINE
  5
12C
100
AcDbEntity
  8
1
390
0
  6
DOT
 62
     9
100
AcDbLine
 10
153.276539
 20
195.679033
 30
0.0
 11
153.241001
 21
195.657242
 31
0.0
  0
CIRCLE
  5
12D
100
AcDbEntity
  8
1
390
0
  6
DOT
 62
     9
100
AcDbCircle
 10
148.784159
 20
198.277956
 30
0.0
 40
3.4
210
0.0
220
0.0
230
1.0
  0
ARC
  5
12E
100
AcDbEntity
  8
1
390
0
  6
Continuous
 62
     7
100
AcDbCircle
 10
154.284159
 20
201.027956
 30
0.0
 40
0.5
210
0.0
220
0.0
230
1.0
100
AcDbArc
 50
237.603934
 51
270.0
  0
ARC
  5
12F
100
AcDbEntity
  8
1
390
0
  6
Continuous
 62
     7
100
AcDbCircle
 10
154.284159
 20
195.527956
 30
0.0
 40
0.5
210
0.0
220
0.0
230
1.0
100
AcDbArc
 50
90.0
 51
122.396066
  0
LINE
  5
130
100
AcDbEntity
  8
1
390
0
  6
DOT
 62
     9
100
AcDbLine
 10
153.240921
 20
200.898879
 30
0.0
 11
153.397822
 21
200.490136
 31
0.0
  0
LINE
  5
131
100
AcDbEntity
  8
1
390
0
  6
DOT
 62
     9
100
AcDbLine
 10
153.397774
 20
196.06565
 30
0.0
 11
153.240941
 21
195.657087
 31
0.0
  0
LINE
  5
132
100
AcDbEntity
  8
1
390
0
  6
Continuous
 62
     7
100
AcDbLine
 10
158.484159
 20
200.527956
 30
0.0
 11
154.284159
 21
200.527956
 31
0.0
  0
LINE
  5
133
100
AcDbEntity
  8
1
390
0
  6
Continuous
 62
     7
100
AcDbLine
 10
154.284159
 20
196.027956
 30
0.0
 11
158.484159
 21
196.027956
 31
0.0
  0
LINE
  5
134
100
AcDbEntity
  8
1
390
0
  6
Continuous
 62
     7
100
AcDbLine
 10
188.797659
 20
199.527956
 30
0.0
 11
169.784159
 21
199.527956
 31
0.0
  0
LINE
  5
135
100
AcDbEntity
  8
1
390
0
  6
Continuous
 62
     7
100
AcDbLine
 10
169.784159
 20
197.027956
 30
0.0
 11
187.72623
 21
197.027956
 31
0.0
  0
LINE
  5
136
100
AcDbEntity
  8
1
390
0
  6
Continuous
 62
     7
100
AcDbLine
 10
264.531278
 20
195.077956
 30
0.0
 11
264.531278
 21
201.477956
 31
0.0
  0
LINE
  5
137
100
AcDbEntity
  8
1
390
0
  6
Continuous
 62
     7
100
AcDbLine
 10
260.031278
 20
201.477956
 30
0.0
 11
260.031278
 21
201.277956
 31
0.0
  0
LINE
  5
138
100
AcDbEntity
  8
1
390
0
  6
Continuous
 62
     7
100
AcDbLine
 10
260.031278
 20
195.277956
 30
0.0
 11
260.031278
 21
195.077956
 31
0.0
  0
LINE
  5
139
100
AcDbEntity
  8
1
390
0
  6
Continuous
 62
     7
100
AcDbLine
 10
260.031278
 20
195.277956
 30
0.0
 11
258.131278
 21
195.277956
 31
0.0
  0
LINE
  5
13A
100
AcDbEntity
  8
1
390
0
  6
Continuous
 62
     7
100
AcDbLine
 10
258.131278
 20
201.277956
 30
0.0
 11
258.131278
 21
195.277956
 31
0.0
  0
LINE
  5
13B
100
AcDbEntity
  8
1
390
0
  6
Continuous
 62
     7
100
AcDbLine
 10
260.031278
 20
201.277956
 30
0.0
 11
258.131278
 21
201.277956
 31
0.0
  0
LINE
  5
13C
100
AcDbEntity
  8
1
390
0
  6
Continuous
 62
     7
100
AcDbLine
 10
258.131278
 20
195.277956
 30
0.0
 11
258.031278
 21
195.277956
 31
0.0
  0
LINE
  5
13D
100
AcDbEntity
  8
1
390
0
  6
Continuous
 62
     7
100
AcDbLine
 10
258.031278
 20
195.277956
 30
0.0
 11
258.031278
 21
201.277956
 31
0.0
  0
LINE
  5
13E
100
AcDbEntity
  8
1
390
0
  6
Continuous
 62
     7
100
AcDbLine
 10
258.031278
 20
201.277956
 30
0.0
 11
258.131278
 21
201.277956
 31
0.0
  0
LINE
  5
13F
100
AcDbEntity
  8
1
390
0
  6
Continuous
 62
     7
100
AcDbLine
 10
265.101222
 20
195.527956
 30
0.0
 11
265.101222
 21
201.027956
 31
0.0
  0
LINE
  5
140
100
AcDbEntity
  8
1
390
0
  6
Continuous
 62
     7
100
AcDbLine
 10
266.701222
 20
201.027956
 30
0.0
 11
265.101222
 21
201.027956
 31
0.0
  0
LINE
  5
141
100
AcDbEntity
  8
1
390
0
  6
Continuous
 62
     7
100
AcDbLine
 10
266.701222
 20
195.527956
 30
0.0
 11
265.101222
 21
195.527956
 31
0.0
  0
LINE
  5
142
100
AcDbEntity
  8
1
390
0
  6
Continuous
 62
     7
100
AcDbLine
 10
266.701222
 20
195.527956
 30
0.0
 11
266.701222
 21
201.027956
 31
0.0
  0
LINE
  5
143
100
AcDbEntity
  8
1
390
0
  6
Continuous
 62
     7
100
AcDbLine
 10
272.701222
 20
201.452956
 30
0.0
 11
272.701222
 21
195.102956
 31
0.0
  0
LINE
  5
144
100
AcDbEntity
  8
1
390
0
  6
Continuous
 62
     7
100
AcDbLine
 10
272.601222
 20
195.202956
 30
0.0
 11
272.601222
 21
198.277956
 31
0.0
  0
LINE
  5
145
100
AcDbEntity
  8
1
390
0
  6
Continuous
 62
     7
100
AcDbLine
 10
272.601222
 20
198.277956
 30
0.0
 11
272.601222
 21
201.352956
 31
0.0
  0
LINE
  5
146
100
AcDbEntity
  8
1
390
0
  6
Continuous
 62
     7
100
AcDbLine
 10
275.001222
 20
195.102956
 30
0.0
 11
275.001222
 21
201.452956
 31
0.0
  0
LINE
  5
147
100
AcDbEntity
  8
1
390
0
  6
Continuous
 62
     7
100
AcDbLine
 10
275.101222
 20
201.352956
 30
0.0
 11
275.101222
 21
195.202956
 31
0.0
  0
LINE
  5
148
100
AcDbEntity
  8
1
390
0
  6
Continuous
 62
     7
100
AcDbLine
 10
270.001222
 20
195.102956
 30
0.0
 11
270.001222
 21
201.452956
 31
0.0
  0
LINE
  5
149
100
AcDbEntity
  8
1
390
0
  6
Continuous
 62
     7
100
AcDbLine
 10
270.101222
 20
201.352956
 30
0.0
 11
270.101222
 21
195.202956
 31
0.0
  0
LINE
  5
14A
100
AcDbEntity
  8
1
390
0
  6
Continuous
 62
     7
100
AcDbLine
 10
267.701222
 20
201.452956
 30
0.0
 11
267.701222
 21
195.102956
 31
0.0
  0
LINE
  5
14B
100
AcDbEntity
  8
1
390
0
  6
Continuous
 62
     7
100
AcDbLine
 10
267.601222
 20
195.202956
 30
0.0
 11
267.601222
 21
198.277956
 31
0.0
  0
LINE
  5
14C
100
AcDbEntity
  8
1
390
0
  6
Continuous
 62
     7
100
AcDbLine
 10
267.601222
 20
198.277956
 30
0.0
 11
267.601222
 21
201.352956
 31
0.0
  0
LINE
  5
14D
100
AcDbEntity
  8
1
390
0
  6
Continuous
 62
     7
100
AcDbLine
 10
258.031278
 20
195.177956
 30
0.0
 11
258.031278
 21
195.277956
 31
0.0
  0
LINE
  5
14E
100
AcDbEntity
  8
1
390
0
  6
Continuous
 62
     7
100
AcDbLine
 10
258.031278
 20
201.277956
 30
0.0
 11
258.031278
 21
201.377956
 31
0.0
  0
LINE
  5
14F
100
AcDbEntity
  8
1
390
0
  6
Continuous
 62
     7
100
AcDbLine
 10
245.031278
 20
195.177956
 30
0.0
 11
245.031278
 21
201.377956
 31
0.0
  0
LINE
  5
150
100
AcDbEntity
  8
1
390
0
  6
Continuous
 62
     7
100
AcDbLine
 10
243.531278
 20
195.622859
 30
0.0
 11
243.531278
 21
200.933054
 31
0.0
  0
LINE
  5
151
100
AcDbEntity
  8
1
390
0
  6
Continuous
 62
     7
100
AcDbLine
 10
278.101222
 20
195.377956
 30
0.0
 11
278.101222
 21
201.177956
 31
0.0
  0
LINE
  5
152
100
AcDbEntity
  8
1
390
0
  6
Continuous
 62
     7
100
AcDbLine
 10
231.031278
 20
196.277956
 30
0.0
 11
231.031278
 21
200.277956
 31
0.0
  0
LINE
  5
153
100
AcDbEntity
  8
1
390
0
  6
Continuous
 62
     7
100
AcDbLine
 10
286.101222
 20
200.502956
 30
0.0
 11
286.101222
 21
196.052956
 31
0.0
  0
LINE
  5
154
100
AcDbEntity
  8
1
390
0
  6
Continuous
 62
     7
100
AcDbLine
 10
264.531278
 20
201.477956
 30
0.0
 11
260.031278
 21
201.477956
 31
0.0
  0
LINE
  5
155
100
AcDbEntity
  8
1
390
0
  6
Continuous
 62
     7
100
AcDbLine
 10
260.031278
 20
195.077956
 30
0.0
 11
264.531278
 21
195.077956
 31
0.0
  0
LINE
  5
156
100
AcDbEntity
  8
1
390
0
  6
Continuous
 62
     7
100
AcDbLine
 10
272.701222
 20
201.452956
 30
0.0
 11
272.601222
 21
201.352956
 31
0.0
  0
LINE
  5
157
100
AcDbEntity
  8
1
390
0
  6
Continuous
 62
     7
100
AcDbLine
 10
272.601222
 20
195.202956
 30
0.0
 11
272.701222
 21
195.102956
 31
0.0
  0
LINE
  5
158
100
AcDbEntity
  8
1
390
0
  6
Continuous
 62
     7
100
AcDbLine
 10
272.701222
 20
195.102956
 30
0.0
 11
275.001222
 21
195.102956
 31
0.0
  0
LINE
  5
159
100
AcDbEntity
  8
1
390
0
  6
Continuous
 62
     7
100
AcDbLine
 10
275.001222
 20
201.452956
 30
0.0
 11
272.701222
 21
201.452956
 31
0.0
  0
LINE
  5
15A
100
AcDbEntity
  8
1
390
0
  6
Continuous
 62
     7
100
AcDbLine
 10
275.001222
 20
195.102956
 30
0.0
 11
275.101222
 21
195.202956
 31
0.0
  0
LINE
  5
15B
100
AcDbEntity
  8
1
390
0
  6
Continuous
 62
     7
100
AcDbLine
 10
275.101222
 20
201.352956
 30
0.0
 11
275.001222
 21
201.452956
 31
0.0
  0
LINE
  5
15C
100
AcDbEntity
  8
1
390
0
  6
Continuous
 62
     7
100
AcDbLine
 10
270.001222
 20
195.102956
 30
0.0
 11
270.101222
 21
195.202956
 31
0.0
  0
LINE
  5
15D
100
AcDbEntity
  8
1
390
0
  6
Continuous
 62
     7
100
AcDbLine
 10
270.101222
 20
201.352956
 30
0.0
 11
270.001222
 21
201.452956
 31
0.0
  0
LINE
  5
15E
100
AcDbEntity
  8
1
390
0
  6
Continuous
 62
     7
100
AcDbLine
 10
267.701222
 20
201.452956
 30
0.0
 11
267.601222
 21
201.352956
 31
0.0
  0
LINE
  5
15F
100
AcDbEntity
  8
1
390
0
  6
Continuous
 62
     7
100
AcDbLine
 10
267.601222
 20
195.202956
 30
0.0
 11
267.701222
 21
195.102956
 31
0.0
  0
LINE
  5
160
100
AcDbEntity
  8
1
390
0
  6
Continuous
 62
     7
100
AcDbLine
 10
267.701222
 20
195.102956
 30
0.0
 11
270.001222
 21
195.102956
 31
0.0
  0
LINE
  5
161
100
AcDbEntity
  8
1
390
0
  6
Continuous
 62
     7
100
AcDbLine
 10
270.001222
 20
201.452956
 30
0.0
 11
267.701222
 21
201.452956
 31
0.0
  0
ARC
  5
162
100
AcDbEntity
  8
1
390
0
  6
Continuous
 62
     7
100
AcDbCircle
 10
278.001222
 20
195.377956
 30
0.0
 40
0.1
210
0.0
220
0.0
230
1.0
100
AcDbArc
 50
270.0
 51
360.0
  0
ARC
  5
163
100
AcDbEntity
  8
1
390
0
  6
Continuous
 62
     7
100
AcDbCircle
 10
278.001222
 20
201.177956
 30
0.0
 40
0.1
210
0.0
220
0.0
230
1.0
100
AcDbArc
 50
0.0
 51
90.0
  0
LINE
  5
164
100
AcDbEntity
  8
1
390
0
  6
Continuous
 62
     7
100
AcDbLine
 10
275.101222
 20
195.277956
 30
0.0
 11
278.001222
 21
195.277956
 31
0.0
  0
LINE
  5
165
100
AcDbEntity
  8
1
390
0
  6
Continuous
 62
     7
100
AcDbLine
 10
278.001222
 20
201.277956
 30
0.0
 11
275.101222
 21
201.277956
 31
0.0
  0
LINE
  5
166
100
AcDbEntity
  8
1
390
0
  6
Continuous
 62
     7
100
AcDbLine
 10
270.101222
 20
195.277956
 30
0.0
 11
272.601222
 21
195.277956
 31
0.0
  0
LINE
  5
167
100
AcDbEntity
  8
1
390
0
  6
Continuous
 62
     7
100
AcDbLine
 10
272.601222
 20
201.277956
 30
0.0
 11
270.101222
 21
201.277956
 31
0.0
  0
LINE
  5
168
100
AcDbEntity
  8
1
390
0
  6
Continuous
 62
     7
100
AcDbLine
 10
266.701222
 20
195.602956
 30
0.0
 11
267.601222
 21
195.602956
 31
0.0
  0
LINE
  5
169
100
AcDbEntity
  8
1
390
0
  6
Continuous
 62
     7
100
AcDbLine
 10
267.601222
 20
200.952956
 30
0.0
 11
266.701222
 21
200.952956
 31
0.0
  0
LINE
  5
16A
100
AcDbEntity
  8
1
390
0
  6
Continuous
 62
     7
100
AcDbLine
 10
264.531278
 20
195.777956
 30
0.0
 11
265.101222
 21
195.777956
 31
0.0
  0
LINE
  5
16B
100
AcDbEntity
  8
1
390
0
  6
Continuous
 62
     7
100
AcDbLine
 10
265.101222
 20
200.777956
 30
0.0
 11
264.531278
 21
200.777956
 31
0.0
  0
ARC
  5
16C
100
AcDbEntity
  8
1
390
0
  6
Continuous
 62
     7
100
AcDbCircle
 10
285.851222
 20
200.502956
 30
0.0
 40
0.25
210
0.0
220
0.0
230
1.0
100
AcDbArc
 50
0.0
 51
90.0
  0
ARC
  5
16D
100
AcDbEntity
  8
1
390
0
  6
Continuous
 62
     7
100
AcDbCircle
 10
285.851222
 20
196.052956
 30
0.0
 40
0.25
210
0.0
220
0.0
230
1.0
100
AcDbArc
 50
270.0
 51
360.0
  0
LINE
  5
16E
100
AcDbEntity
  8
1
390
0
  6
Continuous
 62
     7
100
AcDbLine
 10
278.101222
 20
195.802956
 30
0.0
 11
285.851222
 21
195.802956
 31
0.0
  0
LINE
  5
16F
100
AcDbEntity
  8
1
390
0
  6
Continuous
 62
     7
100
AcDbLine
 10
285.851222
 20
200.752956
 30
0.0
 11
278.101222
 21
200.752956
 31
0.0
  0
LINE
  5
170
100
AcDbEntity
  8
1
390
0
  6
Continuous
 62
     7
100
AcDbLine
 10
231.031278
 20
199.527956
 30
0.0
 11
193.797659
 21
199.527956
 31
0.0
  0
LINE
  5
171
100
AcDbEntity
  8
1
390
0
  6
Continuous
 62
     7
100
AcDbLine
 10
192.72623
 20
197.027956
 30
0.0
 11
231.031278
 21
197.027956
 31
0.0
  0
LINE
  5
172
100
AcDbEntity
  8
1
390
0
  6
Continuous
 62
    11
100
AcDbLine
 10
186.824789
 20
194.924594
 30
0.0
 11
189.665881
 21
201.553808
 31
0.0
  0
LINE
  5
173
100
AcDbEntity
  8
1
390
0
  6
Continuous
 62
    11
100
AcDbLine
 10
191.824789
 20
194.924594
 30
0.0
 11
194.665881
 21
201.553808
 31
0.0
  0
LINE
  5
174
100
AcDbEntity
  8
1
390
0
  6
Continuous
 62
     7
100
AcDbLine
 10
143.784159
 20
131.524845
 30
0.0
 11
152.708281
 21
131.524845
 31
0.0
  0
LINE
  5
175
100
AcDbEntity
  8
1
390
0
  6
Continuous
 62
     7
100
AcDbLine
 10
152.708281
 20
138.024845
 30
0.0
 11
143.784159
 21
138.024845
 31
0.0
  0
LINE
  5
176
100
AcDbEntity
  8
1
390
0
  6
Continuous
 62
     7
100
AcDbLine
 10
144.284159
 20
131.024845
 30
0.0
 11
153.284159
 21
131.024845
 31
0.0
  0
LINE
  5
177
100
AcDbEntity
  8
1
390
0
  6
Continuous
 62
     7
100
AcDbLine
 10
152.97396
 20
131.574845
 30
0.0
 11
153.784159
 21
131.574845
 31
0.0
  0
LINE
  5
178
100
AcDbEntity
  8
1
390
0
  6
DOT
 62
     9
100
AcDbLine
 10
152.97396
 20
131.574845
 30
0.0
 11
153.784159
 21
131.574845
 31
0.0
  0
POLYLINE
  5
179
100
AcDbEntity
  8
1
390
0
  6
DOT
 62
     9
100
AcDb2dPolyline
 66
     1
 10
0.0
 20
0.0
 30
0.0
 40
1.0
 41
1.0
  0
VERTEX
  5
17A
100
AcDbEntity
  8
1
390
0
 62
     9
100
AcDbVertex
100
AcDb2dVertex
 10
152.97396
 20
131.574845
 30
0.0
  0
VERTEX
  5
17B
100
AcDbEntity
  8
1
390
0
 62
     9
100
AcDbVertex
100
AcDb2dVertex
 10
152.870785
 20
131.545032
 30
0.0
  0
VERTEX
  5
17C
100
AcDbEntity
  8
1
390
0
 62
     9
100
AcDbVertex
100
AcDb2dVertex
 10
152.771441
 20
131.528157
 30
0.0
  0
VERTEX
  5
17D
100
AcDbEntity
  8
1
390
0
 62
     9
100
AcDbVertex
100
AcDb2dVertex
 10
152.708281
 20
131.524845
 30
0.0
  0
SEQEND
  5
17E
100
AcDbEntity
  8
0
390
0
  0
POLYLINE
  5
17F
100
AcDbEntity
  8
1
390
0
  6
Continuous
 62
     7
100
AcDb2dPolyline
 66
     1
 10
0.0
 20
0.0
 30
0.0
 40
1.0
 41
1.0
  0
VERTEX
  5
180
100
AcDbEntity
  8
1
390
0
 62
     7
100
AcDbVertex
100
AcDb2dVertex
 10
152.708281
 20
131.524845
 30
0.0
  0
VERTEX
  5
181
100
AcDbEntity
  8
1
390
0
 62
     7
100
AcDbVertex
100
AcDb2dVertex
 10
152.834133
 20
131.537312
 30
0.0
  0
VERTEX
  5
182
100
AcDbEntity
  8
1
390
0
 62
     7
100
AcDbVertex
100
AcDb2dVertex
 10
152.938078
 20
131.56322
 30
0.0
  0
VERTEX
  5
183
100
AcDbEntity
  8
1
390
0
 62
     7
100
AcDbVertex
100
AcDb2dVertex
 10
152.97396
 20
131.574845
 30
0.0
  0
SEQEND
  5
184
100
AcDbEntity
  8
0
390
0
  0
LINE
  5
185
100
AcDbEntity
  8
1
390
0
  6
Continuous
 62
     7
100
AcDbLine
 10
144.284159
 20
138.524845
 30
0.0
 11
148.784159
 21
138.524845
 31
0.0
  0
LINE
  5
186
100
AcDbEntity
  8
1
390
0
  6
Continuous
 62
     7
100
AcDbLine
 10
148.784159
 20
138.524845
 30
0.0
 11
153.284159
 21
138.524845
 31
0.0
  0
LINE
  5
187
100
AcDbEntity
  8
1
390
0
  6
DOT
 62
     9
100
AcDbLine
 10
153.784159
 20
137.974845
 30
0.0
 11
152.97396
 21
137.974845
 31
0.0
  0
LINE
  5
188
100
AcDbEntity
  8
1
390
0
  6
Continuous
 62
     7
100
AcDbLine
 10
153.784159
 20
137.974845
 30
0.0
 11
152.97396
 21
137.974845
 31
0.0
  0
POLYLINE
  5
189
100
AcDbEntity
  8
1
390
0
  6
Continuous
 62
     7
100
AcDb2dPolyline
 66
     1
 10
0.0
 20
0.0
 30
0.0
 40
1.0
 41
1.0
  0
VERTEX
  5
18A
100
AcDbEntity
  8
1
390
0
 62
     7
100
AcDbVertex
100
AcDb2dVertex
 10
152.97396
 20
137.974845
 30
0.0
  0
VERTEX
  5
18B
100
AcDbEntity
  8
1
390
0
 62
     7
100
AcDbVertex
100
AcDb2dVertex
 10
152.870785
 20
138.004657
 30
0.0
  0
VERTEX
  5
18C
100
AcDbEntity
  8
1
390
0
 62
     7
100
AcDbVertex
100
AcDb2dVertex
 10
152.771441
 20
138.021533
 30
0.0
  0
VERTEX
  5
18D
100
AcDbEntity
  8
1
390
0
 62
     7
100
AcDbVertex
100
AcDb2dVertex
 10
152.708281
 20
138.024845
 30
0.0
  0
SEQEND
  5
18E
100
AcDbEntity
  8
0
390
0
  0
POLYLINE
  5
18F
100
AcDbEntity
  8
1
390
0
  6
DOT
 62
     9
100
AcDb2dPolyline
 66
     1
 10
0.0
 20
0.0
 30
0.0
 40
1.0
 41
1.0
  0
VERTEX
  5
190
100
AcDbEntity
  8
1
390
0
 62
     9
100
AcDbVertex
100
AcDb2dVertex
 10
152.708281
 20
138.024845
 30
0.0
  0
VERTEX
  5
191
100
AcDbEntity
  8
1
390
0
 62
     9
100
AcDbVertex
100
AcDb2dVertex
 10
152.834133
 20
138.012377
 30
0.0
  0
VERTEX
  5
192
100
AcDbEntity
  8
1
390
0
 62
     9
100
AcDbVertex
100
AcDb2dVertex
 10
152.938078
 20
137.98647
 30
0.0
  0
VERTEX
  5
193
100
AcDbEntity
  8
1
390
0
 62
     9
100
AcDbVertex
100
AcDb2dVertex
 10
152.97396
 20
137.974845
 30
0.0
  0
SEQEND
  5
194
100
AcDbEntity
  8
0
390
0
  0
LINE
  5
195
100
AcDbEntity
  8
1
390
0
  6
DOT
 62
     9
100
AcDbLine
 10
145.384159
 20
131.124845
 30
0.0
 11
152.184159
 21
131.124845
 31
0.0
  0
POLYLINE
  5
196
100
AcDbEntity
  8
1
390
0
  6
Continuous
 62
     7
100
AcDb2dPolyline
 66
     1
 10
0.0
 20
0.0
 30
0.0
 40
1.0
 41
1.0
  0
VERTEX
  5
197
100
AcDbEntity
  8
1
390
0
 62
     7
100
AcDbVertex
100
AcDb2dVertex
 10
152.97396
 20
137.074845
 30
0.0
  0
VERTEX
  5
198
100
AcDbEntity
  8
1
390
0
 62
     7
100
AcDbVertex
100
AcDb2dVertex
 10
152.974033
 20
137.070398
 30
0.0
  0
VERTEX
  5
199
100
AcDbEntity
  8
1
390
0
 62
     7
100
AcDbVertex
100
AcDb2dVertex
 10
152.974251
 20
137.065955
 30
0.0
  0
VERTEX
  5
19A
100
AcDbEntity
  8
1
390
0
 62
     7
100
AcDbVertex
100
AcDb2dVertex
 10
152.974611
 20
137.061525
 30
0.0
  0
VERTEX
  5
19B
100
AcDbEntity
  8
1
390
0
 62
     7
100
AcDbVertex
100
AcDb2dVertex
 10
152.975109
 20
137.05712
 30
0.0
  0
VERTEX
  5
19C
100
AcDbEntity
  8
1
390
0
 62
     7
100
AcDbVertex
100
AcDb2dVertex
 10
152.975743
 20
137.052753
 30
0.0
  0
VERTEX
  5
19D
100
AcDbEntity
  8
1
390
0
 62
     7
100
AcDbVertex
100
AcDb2dVertex
 10
152.976768
 20
137.047113
 30
0.0
  0
VERTEX
  5
19E
100
AcDbEntity
  8
1
390
0
 62
     7
100
AcDbVertex
100
AcDb2dVertex
 10
152.978006
 20
137.041542
 30
0.0
  0
VERTEX
  5
19F
100
AcDbEntity
  8
1
390
0
 62
     7
100
AcDbVertex
100
AcDb2dVertex
 10
152.979441
 20
137.036053
 30
0.0
  0
VERTEX
  5
1A0
100
AcDbEntity
  8
1
390
0
 62
     7
100
AcDbVertex
100
AcDb2dVertex
 10
152.981059
 20
137.03066
 30
0.0
  0
VERTEX
  5
1A1
100
AcDbEntity
  8
1
390
0
 62
     7
100
AcDbVertex
100
AcDb2dVertex
 10
152.984246
 20
137.021573
 30
0.0
  0
VERTEX
  5
1A2
100
AcDbEntity
  8
1
390
0
 62
     7
100
AcDbVertex
100
AcDb2dVertex
 10
152.987884
 20
137.012756
 30
0.0
  0
VERTEX
  5
1A3
100
AcDbEntity
  8
1
390
0
 62
     7
100
AcDbVertex
100
AcDb2dVertex
 10
152.991917
 20
137.00421
 30
0.0
  0
VERTEX
  5
1A4
100
AcDbEntity
  8
1
390
0
 62
     7
100
AcDbVertex
100
AcDb2dVertex
 10
152.996291
 20
136.995934
 30
0.0
  0
VERTEX
  5
1A5
100
AcDbEntity
  8
1
390
0
 62
     7
100
AcDbVertex
100
AcDb2dVertex
 10
153.000951
 20
136.987928
 30
0.0
  0
VERTEX
  5
1A6
100
AcDbEntity
  8
1
390
0
 62
     7
100
AcDbVertex
100
AcDb2dVertex
 10
153.005844
 20
136.980194
 30
0.0
  0
VERTEX
  5
1A7
100
AcDbEntity
  8
1
390
0
 62
     7
100
AcDbVertex
100
AcDb2dVertex
 10
153.020492
 20
136.959675
 30
0.0
  0
VERTEX
  5
1A8
100
AcDbEntity
  8
1
390
0
 62
     7
100
AcDbVertex
100
AcDb2dVertex
 10
153.03638
 20
136.940529
 30
0.0
  0
VERTEX
  5
1A9
100
AcDbEntity
  8
1
390
0
 62
     7
100
AcDbVertex
100
AcDb2dVertex
 10
153.053313
 20
136.922594
 30
0.0
  0
VERTEX
  5
1AA
100
AcDbEntity
  8
1
390
0
 62
     7
100
AcDbVertex
100
AcDb2dVertex
 10
153.071092
 20
136.905708
 30
0.0
  0
VERTEX
  5
1AB
100
AcDbEntity
  8
1
390
0
 62
     7
100
AcDbVertex
100
AcDb2dVertex
 10
153.089521
 20
136.889712
 30
0.0
  0
VERTEX
  5
1AC
100
AcDbEntity
  8
1
390
0
 62
     7
100
AcDbVertex
100
AcDb2dVertex
 10
153.108402
 20
136.874444
 30
0.0
  0
VERTEX
  5
1AD
100
AcDbEntity
  8
1
390
0
 62
     7
100
AcDbVertex
100
AcDb2dVertex
 10
153.147671
 20
136.845481
 30
0.0
  0
VERTEX
  5
1AE
100
AcDbEntity
  8
1
390
0
 62
     7
100
AcDbVertex
100
AcDb2dVertex
 10
153.188694
 20
136.818744
 30
0.0
  0
VERTEX
  5
1AF
100
AcDbEntity
  8
1
390
0
 62
     7
100
AcDbVertex
100
AcDb2dVertex
 10
153.23129
 20
136.79412
 30
0.0
  0
VERTEX
  5
1B0
100
AcDbEntity
  8
1
390
0
 62
     7
100
AcDbVertex
100
AcDb2dVertex
 10
153.275278
 20
136.7715
 30
0.0
  0
SEQEND
  5
1B1
100
AcDbEntity
  8
0
390
0
  0
POLYLINE
  5
1B2
100
AcDbEntity
  8
1
390
0
  6
Continuous
 62
     7
100
AcDb2dPolyline
 66
     1
 10
0.0
 20
0.0
 30
0.0
 40
1.0
 41
1.0
  0
VERTEX
  5
1B3
100
AcDbEntity
  8
1
390
0
 62
     7
100
AcDbVertex
100
AcDb2dVertex
 10
153.898865
 20
134.946747
 30
0.0
  0
VERTEX
  5
1B4
100
AcDbEntity
  8
1
390
0
 62
     7
100
AcDbVertex
100
AcDb2dVertex
 10
153.801416
 20
134.984308
 30
0.0
  0
VERTEX
  5
1B5
100
AcDbEntity
  8
1
390
0
 62
     7
100
AcDbVertex
100
AcDb2dVertex
 10
153.709849
 20
135.040367
 30
0.0
  0
VERTEX
  5
1B6
100
AcDbEntity
  8
1
390
0
 62
     7
100
AcDbVertex
100
AcDb2dVertex
 10
153.631297
 20
135.107321
 30
0.0
 42
-0.213643
  0
VERTEX
  5
1B7
100
AcDbEntity
  8
1
390
0
 62
     7
100
AcDbVertex
100
AcDb2dVertex
 10
153.275278
 20
136.7715
 30
0.0
  0
SEQEND
  5
1B8
100
AcDbEntity
  8
0
390
0
  0
POLYLINE
  5
1B9
100
AcDbEntity
  8
1
390
0
  6
Continuous
 62
     7
100
AcDb2dPolyline
 66
     1
 10
0.0
 20
0.0
 30
0.0
 40
1.0
 41
1.0
  0
VERTEX
  5
1BA
100
AcDbEntity
  8
1
390
0
 62
     7
100
AcDbVertex
100
AcDb2dVertex
 10
153.898865
 20
133.702942
 30
0.0
 42
0.087038
  0
VERTEX
  5
1BB
100
AcDbEntity
  8
1
390
0
 62
     7
100
AcDbVertex
100
AcDb2dVertex
 10
154.015163
 20
134.378291
 30
0.0
  0
VERTEX
  5
1BC
100
AcDbEntity
  8
1
390
0
 62
     7
100
AcDbVertex
100
AcDb2dVertex
 10
153.99961
 20
134.521686
 30
0.0
  0
VERTEX
  5
1BD
100
AcDbEntity
  8
1
390
0
 62
     7
100
AcDbVertex
100
AcDb2dVertex
 10
153.971259
 20
134.663238
 30
0.0
  0
VERTEX
  5
1BE
100
AcDbEntity
  8
1
390
0
 62
     7
100
AcDbVertex
100
AcDb2dVertex
 10
153.898865
 20
134.946747
 30
0.0
  0
SEQEND
  5
1BF
100
AcDbEntity
  8
0
390
0
  0
POLYLINE
  5
1C0
100
AcDbEntity
  8
1
390
0
  6
Continuous
 62
     7
100
AcDb2dPolyline
 66
     1
 10
0.0
 20
0.0
 30
0.0
 40
1.0
 41
1.0
  0
VERTEX
  5
1C1
100
AcDbEntity
  8
1
390
0
 62
     7
100
AcDbVertex
100
AcDb2dVertex
 10
153.275278
 20
131.87819
 30
0.0
 42
-0.172998
  0
VERTEX
  5
1C2
100
AcDbEntity
  8
1
390
0
 62
     7
100
AcDbVertex
100
AcDb2dVertex
 10
153.521525
 20
133.412222
 30
0.0
  0
VERTEX
  5
1C3
100
AcDbEntity
  8
1
390
0
 62
     7
100
AcDbVertex
100
AcDb2dVertex
 10
153.593246
 20
133.502633
 30
0.0
  0
VERTEX
  5
1C4
100
AcDbEntity
  8
1
390
0
 62
     7
100
AcDbVertex
100
AcDb2dVertex
 10
153.674344
 20
133.581376
 30
0.0
  0
VERTEX
  5
1C5
100
AcDbEntity
  8
1
390
0
 62
     7
100
AcDbVertex
100
AcDb2dVertex
 10
153.766578
 20
133.646604
 30
0.0
  0
VERTEX
  5
1C6
100
AcDbEntity
  8
1
390
0
 62
     7
100
AcDbVertex
100
AcDb2dVertex
 10
153.871262
 20
133.694401
 30
0.0
  0
VERTEX
  5
1C7
100
AcDbEntity
  8
1
390
0
 62
     7
100
AcDbVertex
100
AcDb2dVertex
 10
153.898865
 20
133.702942
 30
0.0
  0
SEQEND
  5
1C8
100
AcDbEntity
  8
0
390
0
  0
POLYLINE
  5
1C9
100
AcDbEntity
  8
1
390
0
  6
Continuous
 62
     7
100
AcDb2dPolyline
 66
     1
 10
0.0
 20
0.0
 30
0.0
 40
1.0
 41
1.0
  0
VERTEX
  5
1CA
100
AcDbEntity
  8
1
390
0
 62
     7
100
AcDbVertex
100
AcDb2dVertex
 10
153.275278
 20
131.87819
 30
0.0
  0
VERTEX
  5
1CB
100
AcDbEntity
  8
1
390
0
 62
     7
100
AcDbVertex
100
AcDb2dVertex
 10
153.235686
 20
131.857974
 30
0.0
  0
VERTEX
  5
1CC
100
AcDbEntity
  8
1
390
0
 62
     7
100
AcDbVertex
100
AcDb2dVertex
 10
153.197181
 20
131.83616
 30
0.0
  0
VERTEX
  5
1CD
100
AcDbEntity
  8
1
390
0
 62
     7
100
AcDbVertex
100
AcDb2dVertex
 10
153.159914
 20
131.812638
 30
0.0
  0
VERTEX
  5
1CE
100
AcDbEntity
  8
1
390
0
 62
     7
100
AcDbVertex
100
AcDb2dVertex
 10
153.124037
 20
131.787298
 30
0.0
  0
VERTEX
  5
1CF
100
AcDbEntity
  8
1
390
0
 62
     7
100
AcDbVertex
100
AcDb2dVertex
 10
153.0897
 20
131.760031
 30
0.0
  0
VERTEX
  5
1D0
100
AcDbEntity
  8
1
390
0
 62
     7
100
AcDbVertex
100
AcDb2dVertex
 10
153.069999
 20
131.742717
 30
0.0
  0
VERTEX
  5
1D1
100
AcDbEntity
  8
1
390
0
 62
     7
100
AcDbVertex
100
AcDb2dVertex
 10
153.051032
 20
131.724411
 30
0.0
  0
VERTEX
  5
1D2
100
AcDbEntity
  8
1
390
0
 62
     7
100
AcDbVertex
100
AcDb2dVertex
 10
153.032983
 20
131.704942
 30
0.0
  0
VERTEX
  5
1D3
100
AcDbEntity
  8
1
390
0
 62
     7
100
AcDbVertex
100
AcDb2dVertex
 10
153.024364
 20
131.694704
 30
0.0
  0
VERTEX
  5
1D4
100
AcDbEntity
  8
1
390
0
 62
     7
100
AcDbVertex
100
AcDb2dVertex
 10
153.016072
 20
131.684066
 30
0.0
  0
VERTEX
  5
1D5
100
AcDbEntity
  8
1
390
0
 62
     7
100
AcDbVertex
100
AcDb2dVertex
 10
153.008174
 20
131.672985
 30
0.0
  0
VERTEX
  5
1D6
100
AcDbEntity
  8
1
390
0
 62
     7
100
AcDbVertex
100
AcDb2dVertex
 10
153.002425
 20
131.664157
 30
0.0
  0
VERTEX
  5
1D7
100
AcDbEntity
  8
1
390
0
 62
     7
100
AcDbVertex
100
AcDb2dVertex
 10
152.996987
 20
131.654996
 30
0.0
  0
VERTEX
  5
1D8
100
AcDbEntity
  8
1
390
0
 62
     7
100
AcDbVertex
100
AcDb2dVertex
 10
152.991929
 20
131.645492
 30
0.0
  0
VERTEX
  5
1D9
100
AcDbEntity
  8
1
390
0
 62
     7
100
AcDbVertex
100
AcDb2dVertex
 10
152.98732
 20
131.635631
 30
0.0
  0
VERTEX
  5
1DA
100
AcDbEntity
  8
1
390
0
 62
     7
100
AcDbVertex
100
AcDb2dVertex
 10
152.984811
 20
131.62956
 30
0.0
  0
VERTEX
  5
1DB
100
AcDbEntity
  8
1
390
0
 62
     7
100
AcDbVertex
100
AcDb2dVertex
 10
152.982504
 20
131.623331
 30
0.0
  0
VERTEX
  5
1DC
100
AcDbEntity
  8
1
390
0
 62
     7
100
AcDbVertex
100
AcDb2dVertex
 10
152.980422
 20
131.61696
 30
0.0
  0
VERTEX
  5
1DD
100
AcDbEntity
  8
1
390
0
 62
     7
100
AcDbVertex
100
AcDb2dVertex
 10
152.978591
 20
131.610463
 30
0.0
  0
VERTEX
  5
1DE
100
AcDbEntity
  8
1
390
0
 62
     7
100
AcDbVertex
100
AcDb2dVertex
 10
152.977034
 20
131.603855
 30
0.0
  0
VERTEX
  5
1DF
100
AcDbEntity
  8
1
390
0
 62
     7
100
AcDbVertex
100
AcDb2dVertex
 10
152.975778
 20
131.597153
 30
0.0
  0
VERTEX
  5
1E0
100
AcDbEntity
  8
1
390
0
 62
     7
100
AcDbVertex
100
AcDb2dVertex
 10
152.975132
 20
131.592744
 30
0.0
  0
VERTEX
  5
1E1
100
AcDbEntity
  8
1
390
0
 62
     7
100
AcDbVertex
100
AcDb2dVertex
 10
152.974624
 20
131.588296
 30
0.0
  0
VERTEX
  5
1E2
100
AcDbEntity
  8
1
390
0
 62
     7
100
AcDbVertex
100
AcDb2dVertex
 10
152.974257
 20
131.583823
 30
0.0
  0
VERTEX
  5
1E3
100
AcDbEntity
  8
1
390
0
 62
     7
100
AcDbVertex
100
AcDb2dVertex
 10
152.974035
 20
131.579335
 30
0.0
  0
VERTEX
  5
1E4
100
AcDbEntity
  8
1
390
0
 62
     7
100
AcDbVertex
100
AcDb2dVertex
 10
152.97396
 20
131.574845
 30
0.0
  0
SEQEND
  5
1E5
100
AcDbEntity
  8
0
390
0
  0
LINE
  5
1E6
100
AcDbEntity
  8
1
390
0
  6
Continuous
 62
     7
100
AcDbLine
 10
152.97396
 20
137.974845
 30
0.0
 11
152.97396
 21
137.074845
 31
0.0
  0
LINE
  5
1E7
100
AcDbEntity
  8
1
390
0
  6
Continuous
 62
     7
100
AcDbLine
 10
153.784159
 20
136.928593
 30
0.0
 11
153.784159
 21
137.074845
 31
0.0
  0
LINE
  5
1E8
100
AcDbEntity
  8
1
390
0
  6
Continuous
 62
     7
100
AcDbLine
 10
153.784159
 20
136.928593
 30
0.0
 11
153.784159
 21
136.862264
 31
0.0
  0
LINE
  5
1E9
100
AcDbEntity
  8
1
390
0
  6
Continuous
 62
     7
100
AcDbLine
 10
153.784159
 20
136.730418
 30
0.0
 11
153.784159
 21
136.862264
 31
0.0
  0
POLYLINE
  5
1EA
100
AcDbEntity
  8
1
390
0
  6
Continuous
 62
     7
100
AcDb2dPolyline
 66
     1
 10
0.0
 20
0.0
 30
0.0
 40
1.0
 41
1.0
  0
VERTEX
  5
1EB
100
AcDbEntity
  8
1
390
0
 62
     7
100
AcDbVertex
100
AcDb2dVertex
 10
153.275278
 20
136.7715
 30
0.0
  0
VERTEX
  5
1EC
100
AcDbEntity
  8
1
390
0
 62
     7
100
AcDbVertex
100
AcDb2dVertex
 10
153.307699
 20
136.800888
 30
0.0
  0
VERTEX
  5
1ED
100
AcDbEntity
  8
1
390
0
 62
     7
100
AcDbVertex
100
AcDb2dVertex
 10
153.344902
 20
136.827924
 30
0.0
  0
VERTEX
  5
1EE
100
AcDbEntity
  8
1
390
0
 62
     7
100
AcDbVertex
100
AcDb2dVertex
 10
153.365448
 20
136.839858
 30
0.0
  0
VERTEX
  5
1EF
100
AcDbEntity
  8
1
390
0
 62
     7
100
AcDbVertex
100
AcDb2dVertex
 10
153.387229
 20
136.849964
 30
0.0
  0
VERTEX
  5
1F0
100
AcDbEntity
  8
1
390
0
 62
     7
100
AcDbVertex
100
AcDb2dVertex
 10
153.410314
 20
136.857611
 30
0.0
  0
VERTEX
  5
1F1
100
AcDbEntity
  8
1
390
0
 62
     7
100
AcDbVertex
100
AcDb2dVertex
 10
153.434769
 20
136.862168
 30
0.0
  0
VERTEX
  5
1F2
100
AcDbEntity
  8
1
390
0
 62
     7
100
AcDbVertex
100
AcDb2dVertex
 10
153.44973
 20
136.863108
 30
0.0
  0
VERTEX
  5
1F3
100
AcDbEntity
  8
1
390
0
 62
     7
100
AcDbVertex
100
AcDb2dVertex
 10
153.465261
 20
136.86264
 30
0.0
  0
VERTEX
  5
1F4
100
AcDbEntity
  8
1
390
0
 62
     7
100
AcDbVertex
100
AcDb2dVertex
 10
153.481372
 20
136.860736
 30
0.0
  0
VERTEX
  5
1F5
100
AcDbEntity
  8
1
390
0
 62
     7
100
AcDbVertex
100
AcDb2dVertex
 10
153.498072
 20
136.857367
 30
0.0
  0
VERTEX
  5
1F6
100
AcDbEntity
  8
1
390
0
 62
     7
100
AcDbVertex
100
AcDb2dVertex
 10
153.515371
 20
136.852507
 30
0.0
  0
VERTEX
  5
1F7
100
AcDbEntity
  8
1
390
0
 62
     7
100
AcDbVertex
100
AcDb2dVertex
 10
153.538949
 20
136.843979
 30
0.0
  0
VERTEX
  5
1F8
100
AcDbEntity
  8
1
390
0
 62
     7
100
AcDbVertex
100
AcDb2dVertex
 10
153.563671
 20
136.833369
 30
0.0
  0
VERTEX
  5
1F9
100
AcDbEntity
  8
1
390
0
 62
     7
100
AcDbVertex
100
AcDb2dVertex
 10
153.58952
 20
136.821117
 30
0.0
  0
VERTEX
  5
1FA
100
AcDbEntity
  8
1
390
0
 62
     7
100
AcDbVertex
100
AcDb2dVertex
 10
153.616481
 20
136.807666
 30
0.0
  0
VERTEX
  5
1FB
100
AcDbEntity
  8
1
390
0
 62
     7
100
AcDbVertex
100
AcDb2dVertex
 10
153.655272
 20
136.788085
 30
0.0
  0
VERTEX
  5
1FC
100
AcDbEntity
  8
1
390
0
 62
     7
100
AcDbVertex
100
AcDb2dVertex
 10
153.696141
 20
136.768131
 30
0.0
  0
VERTEX
  5
1FD
100
AcDbEntity
  8
1
390
0
 62
     7
100
AcDbVertex
100
AcDb2dVertex
 10
153.739238
 20
136.748627
 30
0.0
  0
VERTEX
  5
1FE
100
AcDbEntity
  8
1
390
0
 62
     7
100
AcDbVertex
100
AcDb2dVertex
 10
153.784159
 20
136.730418
 30
0.0
  0
SEQEND
  5
1FF
100
AcDbEntity
  8
0
390
0
  0
LINE
  5
200
100
AcDbEntity
  8
1
390
0
  6
Continuous
 62
     7
100
AcDbLine
 10
153.784159
 20
131.787425
 30
0.0
 11
153.784159
 21
131.721096
 31
0.0
  0
LINE
  5
201
100
AcDbEntity
  8
1
390
0
  6
Continuous
 62
     7
100
AcDbLine
 10
153.784159
 20
131.574845
 30
0.0
 11
153.784159
 21
131.721096
 31
0.0
  0
POLYLINE
  5
202
100
AcDbEntity
  8
1
390
0
  6
Continuous
 62
     7
100
AcDb2dPolyline
 66
     1
 10
0.0
 20
0.0
 30
0.0
 40
1.0
 41
1.0
  0
VERTEX
  5
203
100
AcDbEntity
  8
1
390
0
 62
     7
100
AcDbVertex
100
AcDb2dVertex
 10
153.784159
 20
131.919271
 30
0.0
  0
VERTEX
  5
204
100
AcDbEntity
  8
1
390
0
 62
     7
100
AcDbVertex
100
AcDb2dVertex
 10
153.725484
 20
131.89495
 30
0.0
  0
VERTEX
  5
205
100
AcDbEntity
  8
1
390
0
 62
     7
100
AcDbVertex
100
AcDb2dVertex
 10
153.670004
 20
131.868831
 30
0.0
  0
VERTEX
  5
206
100
AcDbEntity
  8
1
390
0
 62
     7
100
AcDbVertex
100
AcDb2dVertex
 10
153.618107
 20
131.842846
 30
0.0
  0
VERTEX
  5
207
100
AcDbEntity
  8
1
390
0
 62
     7
100
AcDbVertex
100
AcDb2dVertex
 10
153.592915
 20
131.83028
 30
0.0
  0
VERTEX
  5
208
100
AcDbEntity
  8
1
390
0
 62
     7
100
AcDbVertex
100
AcDb2dVertex
 10
153.568666
 20
131.818741
 30
0.0
  0
VERTEX
  5
209
100
AcDbEntity
  8
1
390
0
 62
     7
100
AcDbVertex
100
AcDb2dVertex
 10
153.54537
 20
131.808528
 30
0.0
  0
VERTEX
  5
20A
100
AcDbEntity
  8
1
390
0
 62
     7
100
AcDbVertex
100
AcDb2dVertex
 10
153.523036
 20
131.799942
 30
0.0
  0
VERTEX
  5
20B
100
AcDbEntity
  8
1
390
0
 62
     7
100
AcDbVertex
100
AcDb2dVertex
 10
153.501672
 20
131.793284
 30
0.0
  0
VERTEX
  5
20C
100
AcDbEntity
  8
1
390
0
 62
     7
100
AcDbVertex
100
AcDb2dVertex
 10
153.481288
 20
131.788855
 30
0.0
  0
VERTEX
  5
20D
100
AcDbEntity
  8
1
390
0
 62
     7
100
AcDbVertex
100
AcDb2dVertex
 10
153.461366
 20
131.786768
 30
0.0
  0
VERTEX
  5
20E
100
AcDbEntity
  8
1
390
0
 62
     7
100
AcDbVertex
100
AcDb2dVertex
 10
153.442295
 20
131.786939
 30
0.0
  0
VERTEX
  5
20F
100
AcDbEntity
  8
1
390
0
 62
     7
100
AcDbVertex
100
AcDb2dVertex
 10
153.424041
 20
131.789142
 30
0.0
  0
VERTEX
  5
210
100
AcDbEntity
  8
1
390
0
 62
     7
100
AcDbVertex
100
AcDb2dVertex
 10
153.406571
 20
131.793152
 30
0.0
  0
VERTEX
  5
211
100
AcDbEntity
  8
1
390
0
 62
     7
100
AcDbVertex
100
AcDb2dVertex
 10
153.389852
 20
131.798744
 30
0.0
  0
VERTEX
  5
212
100
AcDbEntity
  8
1
390
0
 62
     7
100
AcDbVertex
100
AcDb2dVertex
 10
153.362609
 20
131.811331
 30
0.0
  0
VERTEX
  5
213
100
AcDbEntity
  8
1
390
0
 62
     7
100
AcDbVertex
100
AcDb2dVertex
 10
153.337262
 20
131.826712
 30
0.0
  0
VERTEX
  5
214
100
AcDbEntity
  8
1
390
0
 62
     7
100
AcDbVertex
100
AcDb2dVertex
 10
153.313777
 20
131.843944
 30
0.0
  0
VERTEX
  5
215
100
AcDbEntity
  8
1
390
0
 62
     7
100
AcDbVertex
100
AcDb2dVertex
 10
153.275278
 20
131.87819
 30
0.0
  0
SEQEND
  5
216
100
AcDbEntity
  8
0
390
0
  0
LINE
  5
217
100
AcDbEntity
  8
1
390
0
  6
Continuous
 62
     7
100
AcDbLine
 10
153.784159
 20
131.787425
 30
0.0
 11
153.784159
 21
131.919271
 31
0.0
  0
LINE
  5
218
100
AcDbEntity
  8
1
390
0
  6
Continuous
 62
     7
100
AcDbLine
 10
153.784159
 20
137.074845
 30
0.0
 11
153.784159
 21
137.974845
 31
0.0
  0
ARC
  5
219
100
AcDbEntity
  8
1
390
0
  6
Continuous
 62
     7
100
AcDbCircle
 10
191.425817
 20
130.037641
 30
0.0
 40
37.705525
210
0.0
220
0.0
230
1.0
100
AcDbArc
 50
174.421548
 51
176.664712
  0
LINE
  5
21A
100
AcDbEntity
  8
1
390
0
  6
Continuous
 62
     7
100
AcDbLine
 10
153.784159
 20
132.231306
 30
0.0
 11
153.784159
 21
131.919271
 31
0.0
  0
LINE
  5
21B
100
AcDbEntity
  8
1
390
0
  6
Continuous
 62
     7
100
AcDbLine
 10
153.784159
 20
136.730418
 30
0.0
 11
153.784159
 21
136.418383
 31
0.0
  0
ARC
  5
21C
100
AcDbEntity
  8
1
390
0
  6
Continuous
 62
     7
100
AcDbCircle
 10
183.86441
 20
138.02268
 30
0.0
 40
30.123002
210
0.0
220
0.0
230
1.0
100
AcDbArc
 50
183.052914
 51
185.860826
  0
LINE
  5
21D
100
AcDbEntity
  8
1
390
0
  6
Continuous
 62
     7
100
AcDbLine
 10
147.484159
 20
139.024845
 30
0.0
 11
148.784159
 21
139.024845
 31
0.0
  0
LINE
  5
21E
100
AcDbEntity
  8
1
390
0
  6
Continuous
 62
     7
100
AcDbLine
 10
148.784159
 20
139.024845
 30
0.0
 11
150.084159
 21
139.024845
 31
0.0
  0
LINE
  5
21F
100
AcDbEntity
  8
1
390
0
  6
Continuous
 62
     7
100
AcDbLine
 10
143.784159
 20
138.024845
 30
0.0
 11
143.784159
 21
131.524845
 31
0.0
  0
LINE
  5
220
100
AcDbEntity
  8
1
390
0
  6
Continuous
 62
     7
100
AcDbLine
 10
143.784159
 20
131.524845
 30
0.0
 11
144.284159
 21
131.024845
 31
0.0
  0
LINE
  5
221
100
AcDbEntity
  8
1
390
0
  6
Continuous
 62
     7
100
AcDbLine
 10
153.284159
 20
131.024845
 30
0.0
 11
153.784159
 21
131.524845
 31
0.0
  0
LINE
  5
222
100
AcDbEntity
  8
1
390
0
  6
Continuous
 62
     7
100
AcDbLine
 10
153.784159
 20
138.024845
 30
0.0
 11
153.284159
 21
138.524845
 31
0.0
  0
LINE
  5
223
100
AcDbEntity
  8
1
390
0
  6
Continuous
 62
     7
100
AcDbLine
 10
144.284159
 20
138.524845
 30
0.0
 11
143.784159
 21
138.024845
 31
0.0
  0
ARC
  5
224
100
AcDbEntity
  8
1
390
0
  6
Continuous
 62
     7
100
AcDbCircle
 10
154.284159
 20
137.074845
 30
0.0
 40
0.5
210
0.0
220
0.0
230
1.0
100
AcDbArc
 50
180.0
 51
270.0
  0
ARC
  5
225
100
AcDbEntity
  8
1
390
0
  6
DOT
 62
     9
100
AcDbCircle
 10
154.284159
 20
131.574845
 30
0.0
 40
0.5
210
0.0
220
0.0
230
1.0
100
AcDbArc
 50
163.892759
 51
180.0
  0
ARC
  5
226
100
AcDbEntity
  8
1
390
0
  6
Continuous
 62
     7
100
AcDbCircle
 10
154.284159
 20
131.574845
 30
0.0
 40
0.5
210
0.0
220
0.0
230
1.0
100
AcDbArc
 50
90.0
 51
163.892759
  0
LINE
  5
227
100
AcDbEntity
  8
1
390
0
  6
Continuous
 62
     7
100
AcDbLine
 10
158.484159
 20
136.574845
 30
0.0
 11
154.284159
 21
136.574845
 31
0.0
  0
LINE
  5
228
100
AcDbEntity
  8
1
390
0
  6
Continuous
 62
     7
100
AcDbLine
 10
154.284159
 20
132.074845
 30
0.0
 11
158.484159
 21
132.074845
 31
0.0
  0
ARC
  5
229
100
AcDbEntity
  8
1
390
0
  6
Continuous
 62
     7
100
AcDbCircle
 10
146.684159
 20
138.624845
 30
0.0
 40
0.1
210
0.0
220
0.0
230
1.0
100
AcDbArc
 50
270.0
 51
360.0
  0
ARC
  5
22A
100
AcDbEntity
  8
1
390
0
  6
Continuous
 62
     7
100
AcDbCircle
 10
150.884159
 20
138.624845
 30
0.0
 40
0.1
210
0.0
220
0.0
230
1.0
100
AcDbArc
 50
180.0
 51
270.0
  0
ARC
  5
22B
100
AcDbEntity
  8
1
390
0
  6
Continuous
 62
     7
100
AcDbCircle
 10
146.884159
 20
138.825671
 30
0.0
 40
0.1
210
0.0
220
0.0
230
1.0
100
AcDbArc
 50
101.064807
 51
180.0
  0
ARC
  5
22C
100
AcDbEntity
  8
1
390
0
  6
Continuous
 62
     7
100
AcDbCircle
 10
150.684159
 20
138.825671
 30
0.0
 40
0.1
210
0.0
220
0.0
230
1.0
100
AcDbArc
 50
0.0
 51
78.935193
  0
LINE
  5
22D
100
AcDbEntity
  8
1
390
0
  6
Continuous
 62
     7
100
AcDbLine
 10
146.784159
 20
138.825671
 30
0.0
 11
146.784159
 21
138.624845
 31
0.0
  0
LINE
  5
22E
100
AcDbEntity
  8
1
390
0
  6
Continuous
 62
     7
100
AcDbLine
 10
150.784159
 20
138.624845
 30
0.0
 11
150.784159
 21
138.825671
 31
0.0
  0
ARC
  5
22F
100
AcDbEntity
  8
1
390
0
  6
Continuous
 62
     7
100
AcDbCircle
 10
148.784159
 20
129.109705
 30
0.0
 40
10.0
210
0.0
220
0.0
230
1.0
100
AcDbArc
 50
97.469592
 51
101.064807
  0
ARC
  5
230
100
AcDbEntity
  8
1
390
0
  6
Continuous
 62
     7
100
AcDbCircle
 10
148.784159
 20
129.109705
 30
0.0
 40
10.0
210
0.0
220
0.0
230
1.0
100
AcDbArc
 50
78.935193
 51
82.530408
  0
LINE
  5
231
100
AcDbEntity
  8
1
390
0
  6
Continuous
 62
     7
100
AcDbLine
 10
188.556588
 20
135.574845
 30
0.0
 11
169.784159
 21
135.574845
 31
0.0
  0
LINE
  5
232
100
AcDbEntity
  8
1
390
0
  6
Continuous
 62
     7
100
AcDbLine
 10
169.784159
 20
133.074845
 30
0.0
 11
187.217302
 21
133.074845
 31
0.0
  0
LINE
  5
233
100
AcDbEntity
  8
1
390
0
  6
Continuous
 62
     7
100
AcDbLine
 10
264.531278
 20
131.124845
 30
0.0
 11
264.531278
 21
137.524845
 31
0.0
  0
LINE
  5
234
100
AcDbEntity
  8
1
390
0
  6
Continuous
 62
     7
100
AcDbLine
 10
258.131278
 20
137.524845
 30
0.0
 11
258.131278
 21
135.438398
 31
0.0
  0
LINE
  5
235
100
AcDbEntity
  8
1
390
0
  6
Continuous
 62
     7
100
AcDbLine
 10
258.131278
 20
133.211292
 30
0.0
 11
258.131278
 21
131.124845
 31
0.0
  0
LINE
  5
236
100
AcDbEntity
  8
1
390
0
  6
Continuous
 62
     7
100
AcDbLine
 10
260.031278
 20
133.211292
 30
0.0
 11
258.131278
 21
133.211292
 31
0.0
  0
LINE
  5
237
100
AcDbEntity
  8
1
390
0
  6
Continuous
 62
     7
100
AcDbLine
 10
260.031278
 20
135.438398
 30
0.0
 11
260.031278
 21
133.211292
 31
0.0
  0
LINE
  5
238
100
AcDbEntity
  8
1
390
0
  6
Continuous
 62
     7
100
AcDbLine
 10
260.031278
 20
135.438398
 30
0.0
 11
258.131278
 21
135.438398
 31
0.0
  0
LINE
  5
239
100
AcDbEntity
  8
1
390
0
  6
DOT
 62
     9
100
AcDbLine
 10
260.031278
 20
133.211292
 30
0.0
 11
258.131278
 21
133.211292
 31
0.0
  0
LINE
  5
23A
100
AcDbEntity
  8
1
390
0
  6
Continuous
 62
     7
100
AcDbLine
 10
267.701222
 20
137.499845
 30
0.0
 11
267.701222
 21
134.324845
 31
0.0
  0
LINE
  5
23B
100
AcDbEntity
  8
1
390
0
  6
Continuous
 62
     7
100
AcDbLine
 10
267.601222
 20
131.249845
 30
0.0
 11
267.601222
 21
137.399845
 31
0.0
  0
LINE
  5
23C
100
AcDbEntity
  8
1
390
0
  6
Continuous
 62
     7
100
AcDbLine
 10
267.701222
 20
134.324845
 30
0.0
 11
267.701222
 21
131.149845
 31
0.0
  0
LINE
  5
23D
100
AcDbEntity
  8
1
390
0
  6
Continuous
 62
     7
100
AcDbLine
 10
270.001222
 20
131.149845
 30
0.0
 11
270.001222
 21
137.499845
 31
0.0
  0
LINE
  5
23E
100
AcDbEntity
  8
1
390
0
  6
Continuous
 62
     7
100
AcDbLine
 10
270.101222
 20
137.399845
 30
0.0
 11
270.101222
 21
131.249845
 31
0.0
  0
LINE
  5
23F
100
AcDbEntity
  8
1
390
0
  6
Continuous
 62
     7
100
AcDbLine
 10
272.701222
 20
137.499845
 30
0.0
 11
272.701222
 21
134.324845
 31
0.0
  0
LINE
  5
240
100
AcDbEntity
  8
1
390
0
  6
Continuous
 62
     7
100
AcDbLine
 10
272.601222
 20
131.249845
 30
0.0
 11
272.601222
 21
137.399845
 31
0.0
  0
LINE
  5
241
100
AcDbEntity
  8
1
390
0
  6
Continuous
 62
     7
100
AcDbLine
 10
272.701222
 20
134.324845
 30
0.0
 11
272.701222
 21
131.149845
 31
0.0
  0
LINE
  5
242
100
AcDbEntity
  8
1
390
0
  6
Continuous
 62
     7
100
AcDbLine
 10
275.001222
 20
131.149845
 30
0.0
 11
275.001222
 21
137.499845
 31
0.0
  0
LINE
  5
243
100
AcDbEntity
  8
1
390
0
  6
Continuous
 62
     7
100
AcDbLine
 10
275.101222
 20
137.399845
 30
0.0
 11
275.101222
 21
131.249845
 31
0.0
  0
LINE
  5
244
100
AcDbEntity
  8
1
390
0
  6
Continuous
 62
     7
100
AcDbLine
 10
258.031278
 20
131.224845
 30
0.0
 11
258.031278
 21
133.54382
 31
0.0
  0
LINE
  5
245
100
AcDbEntity
  8
1
390
0
  6
Continuous
 62
     7
100
AcDbLine
 10
245.031278
 20
131.224845
 30
0.0
 11
245.031278
 21
134.324845
 31
0.0
  0
LINE
  5
246
100
AcDbEntity
  8
1
390
0
  6
Continuous
 62
     7
100
AcDbLine
 10
258.031278
 20
133.54382
 30
0.0
 11
258.031278
 21
135.10587
 31
0.0
  0
LINE
  5
247
100
AcDbEntity
  8
1
390
0
  6
Continuous
 62
     7
100
AcDbLine
 10
258.031278
 20
135.10587
 30
0.0
 11
258.031278
 21
137.424845
 31
0.0
  0
LINE
  5
248
100
AcDbEntity
  8
1
390
0
  6
Continuous
 62
     7
100
AcDbLine
 10
245.031278
 20
134.324845
 30
0.0
 11
245.031278
 21
137.424845
 31
0.0
  0
LINE
  5
249
100
AcDbEntity
  8
1
390
0
  6
Continuous
 62
     7
100
AcDbLine
 10
243.531278
 20
131.669747
 30
0.0
 11
243.531278
 21
134.324845
 31
0.0
  0
LINE
  5
24A
100
AcDbEntity
  8
1
390
0
  6
Continuous
 62
     7
100
AcDbLine
 10
243.531278
 20
134.324845
 30
0.0
 11
243.531278
 21
136.979942
 31
0.0
  0
POLYLINE
  5
24B
100
AcDbEntity
  8
1
390
0
  6
Continuous
 62
     7
100
AcDb2dPolyline
 66
     1
 10
0.0
 20
0.0
 30
0.0
 40
1.0
 41
1.0
  0
VERTEX
  5
24C
100
AcDbEntity
  8
1
390
0
 62
     7
100
AcDbVertex
100
AcDb2dVertex
 10
258.131278
 20
135.438398
 30
0.0
  0
VERTEX
  5
24D
100
AcDbEntity
  8
1
390
0
 62
     7
100
AcDbVertex
100
AcDb2dVertex
 10
258.110023
 20
135.375759
 30
0.0
  0
VERTEX
  5
24E
100
AcDbEntity
  8
1
390
0
 62
     7
100
AcDbVertex
100
AcDb2dVertex
 10
258.06823
 20
135.241614
 30
0.0
  0
VERTEX
  5
24F
100
AcDbEntity
  8
1
390
0
 62
     7
100
AcDbVertex
100
AcDb2dVertex
 10
258.031278
 20
135.10587
 30
0.0
  0
SEQEND
  5
250
100
AcDbEntity
  8
0
390
0
  0
POLYLINE
  5
251
100
AcDbEntity
  8
1
390
0
  6
DOT
 62
     9
100
AcDb2dPolyline
 66
     1
 10
0.0
 20
0.0
 30
0.0
 40
1.0
 41
1.0
  0
VERTEX
  5
252
100
AcDbEntity
  8
1
390
0
 62
     9
100
AcDbVertex
100
AcDb2dVertex
 10
258.031278
 20
135.10587
 30
0.0
  0
VERTEX
  5
253
100
AcDbEntity
  8
1
390
0
 62
     9
100
AcDbVertex
100
AcDb2dVertex
 10
258.077566
 20
135.273069
 30
0.0
  0
VERTEX
  5
254
100
AcDbEntity
  8
1
390
0
 62
     9
100
AcDbVertex
100
AcDb2dVertex
 10
258.131278
 20
135.438398
 30
0.0
  0
SEQEND
  5
255
100
AcDbEntity
  8
0
390
0
  0
POLYLINE
  5
256
100
AcDbEntity
  8
1
390
0
  6
Continuous
 62
     7
100
AcDb2dPolyline
 66
     1
 10
0.0
 20
0.0
 30
0.0
 40
1.0
 41
1.0
  0
VERTEX
  5
257
100
AcDbEntity
  8
1
390
0
 62
     7
100
AcDbVertex
100
AcDb2dVertex
 10
258.031278
 20
133.54382
 30
0.0
  0
VERTEX
  5
258
100
AcDbEntity
  8
1
390
0
 62
     7
100
AcDbVertex
100
AcDb2dVertex
 10
258.077566
 20
133.376621
 30
0.0
  0
VERTEX
  5
259
100
AcDbEntity
  8
1
390
0
 62
     7
100
AcDbVertex
100
AcDb2dVertex
 10
258.131278
 20
133.211292
 30
0.0
  0
SEQEND
  5
25A
100
AcDbEntity
  8
0
390
0
  0
POLYLINE
  5
25B
100
AcDbEntity
  8
1
390
0
  6
DOT
 62
     9
100
AcDb2dPolyline
 66
     1
 10
0.0
 20
0.0
 30
0.0
 40
1.0
 41
1.0
  0
VERTEX
  5
25C
100
AcDbEntity
  8
1
390
0
 62
     9
100
AcDbVertex
100
AcDb2dVertex
 10
258.131278
 20
133.211292
 30
0.0
  0
VERTEX
  5
25D
100
AcDbEntity
  8
1
390
0
 62
     9
100
AcDbVertex
100
AcDb2dVertex
 10
258.077663
 20
133.376298
 30
0.0
  0
VERTEX
  5
25E
100
AcDbEntity
  8
1
390
0
 62
     9
100
AcDbVertex
100
AcDb2dVertex
 10
258.031278
 20
133.54382
 30
0.0
  0
SEQEND
  5
25F
100
AcDbEntity
  8
0
390
0
  0
LINE
  5
260
100
AcDbEntity
  8
1
390
0
  6
Continuous
 62
     7
100
AcDbLine
 10
278.101222
 20
131.424845
 30
0.0
 11
278.101222
 21
134.324845
 31
0.0
  0
LINE
  5
261
100
AcDbEntity
  8
1
390
0
  6
Continuous
 62
     7
100
AcDbLine
 10
278.101222
 20
134.324845
 30
0.0
 11
278.101222
 21
137.224845
 31
0.0
  0
LINE
  5
262
100
AcDbEntity
  8
1
390
0
  6
Continuous
 62
     7
100
AcDbLine
 10
266.701222
 20
132.688538
 30
0.0
 11
265.101222
 21
132.688538
 31
0.0
  0
LINE
  5
263
100
AcDbEntity
  8
1
390
0
  6
Continuous
 62
     7
100
AcDbLine
 10
266.701222
 20
135.961152
 30
0.0
 11
265.101222
 21
135.961152
 31
0.0
  0
LINE
  5
264
100
AcDbEntity
  8
1
390
0
  6
Continuous
 62
     7
100
AcDbLine
 10
266.701222
 20
132.688538
 30
0.0
 11
266.701222
 21
135.961152
 31
0.0
  0
LINE
  5
265
100
AcDbEntity
  8
1
390
0
  6
Continuous
 62
     7
100
AcDbLine
 10
265.101222
 20
135.961152
 30
0.0
 11
265.101222
 21
132.688538
 31
0.0
  0
LINE
  5
266
100
AcDbEntity
  8
1
390
0
  6
Continuous
 62
     7
100
AcDbLine
 10
266.701222
 20
131.124845
 30
0.0
 11
266.701222
 21
132.688538
 31
0.0
  0
LINE
  5
267
100
AcDbEntity
  8
1
390
0
  6
Continuous
 62
     7
100
AcDbLine
 10
265.101222
 20
131.124845
 30
0.0
 11
265.101222
 21
132.688538
 31
0.0
  0
LINE
  5
268
100
AcDbEntity
  8
1
390
0
  6
DOT
 62
     9
100
AcDbLine
 10
266.701222
 20
132.688538
 30
0.0
 11
265.101222
 21
132.688538
 31
0.0
  0
LINE
  5
269
100
AcDbEntity
  8
1
390
0
  6
Continuous
 62
     7
100
AcDbLine
 10
266.701222
 20
135.961152
 30
0.0
 11
266.701222
 21
137.524845
 31
0.0
  0
LINE
  5
26A
100
AcDbEntity
  8
1
390
0
  6
Continuous
 62
     7
100
AcDbLine
 10
265.101222
 20
135.961152
 30
0.0
 11
265.101222
 21
137.524845
 31
0.0
  0
LINE
  5
26B
100
AcDbEntity
  8
1
390
0
  6
Continuous
 62
     7
100
AcDbLine
 10
231.031278
 20
132.324845
 30
0.0
 11
231.031278
 21
134.324845
 31
0.0
  0
LINE
  5
26C
100
AcDbEntity
  8
1
390
0
  6
Continuous
 62
     7
100
AcDbLine
 10
231.031278
 20
134.324845
 30
0.0
 11
231.031278
 21
136.324845
 31
0.0
  0
LINE
  5
26D
100
AcDbEntity
  8
1
390
0
  6
Continuous
 62
     7
100
AcDbLine
 10
286.101222
 20
136.549845
 30
0.0
 11
286.101222
 21
134.324845
 31
0.0
  0
LINE
  5
26E
100
AcDbEntity
  8
1
390
0
  6
Continuous
 62
     7
100
AcDbLine
 10
286.101222
 20
134.324845
 30
0.0
 11
286.101222
 21
132.099845
 31
0.0
  0
LINE
  5
26F
100
AcDbEntity
  8
1
390
0
  6
Continuous
 62
     7
100
AcDbLine
 10
264.531278
 20
137.524845
 30
0.0
 11
258.131278
 21
137.524845
 31
0.0
  0
LINE
  5
270
100
AcDbEntity
  8
1
390
0
  6
Continuous
 62
     7
100
AcDbLine
 10
258.131278
 20
131.124845
 30
0.0
 11
264.531278
 21
131.124845
 31
0.0
  0
LINE
  5
271
100
AcDbEntity
  8
1
390
0
  6
Continuous
 62
     7
100
AcDbLine
 10
267.701222
 20
137.499845
 30
0.0
 11
267.601222
 21
137.399845
 31
0.0
  0
LINE
  5
272
100
AcDbEntity
  8
1
390
0
  6
Continuous
 62
     7
100
AcDbLine
 10
267.601222
 20
131.249845
 30
0.0
 11
267.701222
 21
131.149845
 31
0.0
  0
LINE
  5
273
100
AcDbEntity
  8
1
390
0
  6
Continuous
 62
     7
100
AcDbLine
 10
267.701222
 20
131.149845
 30
0.0
 11
270.001222
 21
131.149845
 31
0.0
  0
LINE
  5
274
100
AcDbEntity
  8
1
390
0
  6
Continuous
 62
     7
100
AcDbLine
 10
270.001222
 20
137.499845
 30
0.0
 11
267.701222
 21
137.499845
 31
0.0
  0
LINE
  5
275
100
AcDbEntity
  8
1
390
0
  6
Continuous
 62
     7
100
AcDbLine
 10
270.001222
 20
131.149845
 30
0.0
 11
270.101222
 21
131.249845
 31
0.0
  0
LINE
  5
276
100
AcDbEntity
  8
1
390
0
  6
Continuous
 62
     7
100
AcDbLine
 10
270.101222
 20
137.399845
 30
0.0
 11
270.001222
 21
137.499845
 31
0.0
  0
LINE
  5
277
100
AcDbEntity
  8
1
390
0
  6
Continuous
 62
     7
100
AcDbLine
 10
272.701222
 20
137.499845
 30
0.0
 11
272.601222
 21
137.399845
 31
0.0
  0
LINE
  5
278
100
AcDbEntity
  8
1
390
0
  6
Continuous
 62
     7
100
AcDbLine
 10
272.601222
 20
131.249845
 30
0.0
 11
272.701222
 21
131.149845
 31
0.0
  0
LINE
  5
279
100
AcDbEntity
  8
1
390
0
  6
Continuous
 62
     7
100
AcDbLine
 10
272.701222
 20
131.149845
 30
0.0
 11
275.001222
 21
131.149845
 31
0.0
  0
LINE
  5
27A
100
AcDbEntity
  8
1
390
0
  6
Continuous
 62
     7
100
AcDbLine
 10
275.001222
 20
137.499845
 30
0.0
 11
272.701222
 21
137.499845
 31
0.0
  0
LINE
  5
27B
100
AcDbEntity
  8
1
390
0
  6
Continuous
 62
     7
100
AcDbLine
 10
275.001222
 20
131.149845
 30
0.0
 11
275.101222
 21
131.249845
 31
0.0
  0
LINE
  5
27C
100
AcDbEntity
  8
1
390
0
  6
Continuous
 62
     7
100
AcDbLine
 10
275.101222
 20
137.399845
 30
0.0
 11
275.001222
 21
137.499845
 31
0.0
  0
LINE
  5
27D
100
AcDbEntity
  8
1
390
0
  6
Continuous
 62
     7
100
AcDbLine
 10
270.101222
 20
131.324845
 30
0.0
 11
272.601222
 21
131.324845
 31
0.0
  0
LINE
  5
27E
100
AcDbEntity
  8
1
390
0
  6
Continuous
 62
     7
100
AcDbLine
 10
272.601222
 20
137.324845
 30
0.0
 11
270.101222
 21
137.324845
 31
0.0
  0
LINE
  5
27F
100
AcDbEntity
  8
1
390
0
  6
Continuous
 62
     7
100
AcDbLine
 10
275.101222
 20
131.324845
 30
0.0
 11
278.001222
 21
131.324845
 31
0.0
  0
LINE
  5
280
100
AcDbEntity
  8
1
390
0
  6
Continuous
 62
     7
100
AcDbLine
 10
278.001222
 20
137.324845
 30
0.0
 11
275.101222
 21
137.324845
 31
0.0
  0
LINE
  5
281
100
AcDbEntity
  8
1
390
0
  6
Continuous
 62
     7
100
AcDbLine
 10
258.131278
 20
137.524845
 30
0.0
 11
258.031278
 21
137.424845
 31
0.0
  0
LINE
  5
282
100
AcDbEntity
  8
1
390
0
  6
Continuous
 62
     7
100
AcDbLine
 10
258.031278
 20
131.224845
 30
0.0
 11
258.131278
 21
131.124845
 31
0.0
  0
ARC
  5
283
100
AcDbEntity
  8
1
390
0
  6
Continuous
 62
     7
100
AcDbCircle
 10
278.001222
 20
131.424845
 30
0.0
 40
0.1
210
0.0
220
0.0
230
1.0
100
AcDbArc
 50
270.0
 51
360.0
  0
ARC
  5
284
100
AcDbEntity
  8
1
390
0
  6
Continuous
 62
     7
100
AcDbCircle
 10
278.001222
 20
137.224845
 30
0.0
 40
0.1
210
0.0
220
0.0
230
1.0
100
AcDbArc
 50
0.0
 51
90.0
  0
LINE
  5
285
100
AcDbEntity
  8
1
390
0
  6
Continuous
 62
     7
100
AcDbLine
 10
265.101222
 20
131.124845
 30
0.0
 11
266.701222
 21
131.124845
 31
0.0
  0
LINE
  5
286
100
AcDbEntity
  8
1
390
0
  6
Continuous
 62
     7
100
AcDbLine
 10
266.701222
 20
137.524845
 30
0.0
 11
265.101222
 21
137.524845
 31
0.0
  0
LINE
  5
287
100
AcDbEntity
  8
1
390
0
  6
Continuous
 62
     7
100
AcDbLine
 10
266.701222
 20
131.649845
 30
0.0
 11
267.601222
 21
131.649845
 31
0.0
  0
LINE
  5
288
100
AcDbEntity
  8
1
390
0
  6
Continuous
 62
     7
100
AcDbLine
 10
267.601222
 20
136.999845
 30
0.0
 11
266.701222
 21
136.999845
 31
0.0
  0
LINE
  5
289
100
AcDbEntity
  8
1
390
0
  6
Continuous
 62
     7
100
AcDbLine
 10
264.531278
 20
131.824845
 30
0.0
 11
265.101222
 21
131.824845
 31
0.0
  0
LINE
  5
28A
100
AcDbEntity
  8
1
390
0
  6
Continuous
 62
     7
100
AcDbLine
 10
265.101222
 20
136.824845
 30
0.0
 11
264.531278
 21
136.824845
 31
0.0
  0
LINE
  5
28B
100
AcDbEntity
  8
1
390
0
  6
Continuous
 62
     7
100
AcDbLine
 10
278.101222
 20
131.849845
 30
0.0
 11
285.851222
 21
131.849845
 31
0.0
  0
LINE
  5
28C
100
AcDbEntity
  8
1
390
0
  6
Continuous
 62
     7
100
AcDbLine
 10
285.851222
 20
136.799845
 30
0.0
 11
278.101222
 21
136.799845
 31
0.0
  0
ARC
  5
28D
100
AcDbEntity
  8
1
390
0
  6
Continuous
 62
     7
100
AcDbCircle
 10
285.851222
 20
136.549845
 30
0.0
 40
0.25
210
0.0
220
0.0
230
1.0
100
AcDbArc
 50
0.0
 51
90.0
  0
ARC
  5
28E
100
AcDbEntity
  8
1
390
0
  6
Continuous
 62
     7
100
AcDbCircle
 10
285.851222
 20
132.099845
 30
0.0
 40
0.25
210
0.0
220
0.0
230
1.0
100
AcDbArc
 50
270.0
 51
360.0
  0
LINE
  5
28F
100
AcDbEntity
  8
1
390
0
  6
Continuous
 62
     7
100
AcDbLine
 10
231.031278
 20
135.574845
 30
0.0
 11
193.556588
 21
135.574845
 31
0.0
  0
LINE
  5
290
100
AcDbEntity
  8
1
390
0
  6
Continuous
 62
     7
100
AcDbLine
 10
192.217302
 20
133.074845
 30
0.0
 11
231.031278
 21
133.074845
 31
0.0
  0
LINE
  5
291
100
AcDbEntity
  8
1
390
0
  6
Continuous
 62
    11
100
AcDbLine
 10
186.824789
 20
132.342155
 30
0.0
 11
189.665881
 21
137.645526
 31
0.0
  0
LINE
  5
292
100
AcDbEntity
  8
1
390
0
  6
Continuous
 62
    11
100
AcDbLine
 10
191.824789
 20
132.342155
 30
0.0
 11
194.665881
 21
137.645526
 31
0.0
  0
LINE
  5
294
100
AcDbEntity
  8
1
390
0
  6
CENTER
 62
     1
100
AcDbLine
 10
142.784159
 20
198.277956
 30
0.0
 11
287.559586
 21
198.277956
 31
0.0
  0
LINE
  5
295
100
AcDbEntity
  8
1
390
0
  6
CENTER
 62
     1
100
AcDbLine
 10
148.784159
 20
192.277956
 30
0.0
 11
148.784159
 21
204.277956
 31
0.0
  0
LINE
  5
296
100
AcDbEntity
  8
1
390
0
  6
CENTER
 62
     1
100
AcDbLine
 10
148.784159
 20
139.024845
 30
0.0
 11
148.784159
 21
130.524845
 31
0.0
  0
POINT
  5
298
100
AcDbEntity
  8
5
390
0
 62
     2
100
AcDbPoint
 10
287.559586
 20
186.663179
 30
0.0
  0
LINE
  5
299
100
AcDbEntity
  8
1
390
0
  6
CENTER
 62
     1
100
AcDbLine
 10
153.284159
 20
134.324845
 30
0.0
 11
287.559586
 21
134.324845
 31
0.0
  0
POINT
  5
29A
100
AcDbEntity
  8
5
390
0
 62
     2
100
AcDbPoint
 10
287.559586
 20
198.277956
 30
0.0
  0
INSERT
  5
2AD
100
AcDbEntity
  8
1
390
0
100
AcDbBlockReference
  2
AID1267
 10
0.0
 20
0.0
 30
0.0
  0
LINE
  5
2AE
100
AcDbEntity
  8
1
390
0
  6
Continuous
 62
     7
100
AcDbLine
 10
169.784159
 20
200.177956
 30
0.0
 11
158.784159
 21
200.177956
 31
0.0
  0
LINE
  5
2AF
100
AcDbEntity
  8
1
390
0
  6
Continuous
 62
     7
100
AcDbLine
 10
158.784159
 20
196.377956
 30
0.0
 11
169.784159
 21
196.377956
 31
0.0
  0
LINE
  5
2B0
100
AcDbEntity
  8
1
390
0
  6
Continuous
 62
     7
100
AcDbLine
 10
169.784159
 20
136.224845
 30
0.0
 11
158.784159
 21
136.224845
 31
0.0
  0
LINE
  5
2B1
100
AcDbEntity
  8
1
390
0
  6
Continuous
 62
     7
100
AcDbLine
 10
158.784159
 20
132.424845
 30
0.0
 11
169.784159
 21
132.424845
 31
0.0
  0
INSERT
  5
2C4
100
AcDbEntity
  8
1
390
0
100
AcDbBlockReference
  2
AID1292
 10
0.0
 20
0.0
 30
0.0
  0
INSERT
  5
2D7
100
AcDbEntity
  8
1
390
0
100
AcDbBlockReference
  2
AID1301
 10
0.0
 20
0.0
 30
0.0
  0
INSERT
  5
2EB
100
AcDbEntity
  8
1
390
0
100
AcDbBlockReference
  2
AID1310
 10
0.0
 20
0.0
 30
0.0
  0
LINE
  5
2EC
100
AcDbEntity
  8
1
390
0
  6
Continuous
 62
     7
100
AcDbLine
 10
158.784159
 20
200.227956
 30
0.0
 11
158.784159
 21
196.327956
 31
0.0
  0
LINE
  5
2ED
100
AcDbEntity
  8
1
390
0
  6
Continuous
 62
     7
100
AcDbLine
 10
158.484159
 20
196.027956
 30
0.0
 11
158.484159
 21
200.527956
 31
0.0
  0
LINE
  5
2EE
100
AcDbEntity
  8
1
390
0
  6
Continuous
 62
     7
100
AcDbLine
 10
158.484159
 20
132.074845
 30
0.0
 11
158.484159
 21
136.574845
 31
0.0
  0
LINE
  5
2EF
100
AcDbEntity
  8
1
390
0
  6
Continuous
 62
     7
100
AcDbLine
 10
158.784159
 20
136.274845
 30
0.0
 11
158.784159
 21
132.374845
 31
0.0
  0
LINE
  5
2F0
100
AcDbEntity
  8
1
390
0
  6
Continuous
 62
     7
100
AcDbLine
 10
158.484159
 20
196.027956
 30
0.0
 11
158.784159
 21
196.327956
 31
0.0
  0
LINE
  5
2F1
100
AcDbEntity
  8
1
390
0
  6
Continuous
 62
     7
100
AcDbLine
 10
158.784159
 20
200.227956
 30
0.0
 11
158.484159
 21
200.527956
 31
0.0
  0
LINE
  5
2F2
100
AcDbEntity
  8
1
390
0
  6
Continuous
 62
     7
100
AcDbLine
 10
158.484159
 20
132.074845
 30
0.0
 11
158.784159
 21
132.374845
 31
0.0
  0
LINE
  5
2F3
100
AcDbEntity
  8
1
390
0
  6
Continuous
 62
     7
100
AcDbLine
 10
158.784159
 20
136.274845
 30
0.0
 11
158.484159
 21
136.574845
 31
0.0
  0
INSERT
  5
308
100
AcDbEntity
  8
1
390
0
100
AcDbBlockReference
  2
AID1352
 10
0.0
 20
0.0
 30
0.0
  0
INSERT
  5
31A
100
AcDbEntity
  8
1
390
0
100
AcDbBlockReference
  2
AID1363
 10
0.0
 20
0.0
 30
0.0
  0
INSERT
  5
32C
100
AcDbEntity
  8
1
390
0
100
AcDbBlockReference
  2
AID1371
 10
0.0
 20
0.0
 30
0.0
  0
INSERT
  5
33E
100
AcDbEntity
  8
1
390
0
100
AcDbBlockReference
  2
AID1379
 10
0.0
 20
0.0
 30
0.0
  0
INSERT
  5
34F
100
AcDbEntity
  8
1
390
0
100
AcDbBlockReference
  2
AID1387
 10
0.0
 20
0.0
 30
0.0
  0
INSERT
  5
35B
100
AcDbEntity
  8
1
390
0
100
AcDbBlockReference
  2
AID1394
 10
0.0
 20
0.0
 30
0.0
  0
POINT
  5
35C
100
AcDbEntity
  8
1
390
0
 62
     2
100
AcDbPoint
 10
153.784159
 20
198.277956
 30
0.0
  0
INSERT
  5
36E
100
AcDbEntity
  8
1
390
0
100
AcDbBlockReference
  2
AID1402
 10
0.0
 20
0.0
 30
0.0
  0
INSERT
  5
373
100
AcDbEntity
  8
1
390
0
100
AcDbBlockReference
  2
AID1410
 10
0.0
 20
0.0
 30
0.0
  0
INSERT
  5
378
100
AcDbEntity
  8
1
390
0
100
AcDbBlockReference
  2
AID1414
 10
0.0
 20
0.0
 30
0.0
  0
INSERT
  5
37D
100
AcDbEntity
  8
1
390
0
100
AcDbBlockReference
  2
AID1418
 10
0.0
 20
0.0
 30
0.0
  0
LINE
  5
37E
100
AcDbEntity
  8
1
390
0
  6
Continuous
 62
     7
100
AcDbLine
 10
92.973693
 20
202.777956
 30
0.0
 11
92.973693
 21
193.777956
 31
0.0
  0
LINE
  5
37F
100
AcDbEntity
  8
1
390
0
  6
Continuous
 62
     7
100
AcDbLine
 10
92.473693
 20
193.277956
 30
0.0
 11
92.473693
 21
203.277956
 31
0.0
  0
LINE
  5
380
100
AcDbEntity
  8
1
390
0
  6
DOT
 62
     9
100
AcDbLine
 10
92.423693
 20
198.986829
 30
0.0
 11
92.423693
 21
201.097189
 31
0.0
  0
ARC
  5
381
100
AcDbEntity
  8
1
390
0
  6
DOT
 62
     9
100
AcDbCircle
 10
87.423688
 20
198.277956
 30
0.0
 40
5.050005
210
0.0
220
0.0
230
1.0
100
AcDbArc
 50
351.930707
 51
8.069293
  0
LINE
  5
382
100
AcDbEntity
  8
1
390
0
  6
DOT
 62
     9
100
AcDbLine
 10
92.423693
 20
195.458724
 30
0.0
 11
92.423693
 21
197.569084
 31
0.0
  0
POLYLINE
  5
383
100
AcDbEntity
  8
1
390
0
  6
DOT
 62
     9
100
AcDb2dPolyline
 66
     1
 10
0.0
 20
0.0
 30
0.0
 40
1.0
 41
1.0
  0
VERTEX
  5
384
100
AcDbEntity
  8
1
390
0
 62
     9
100
AcDbVertex
100
AcDb2dVertex
 10
92.423693
 20
195.458724
 30
0.0
  0
VERTEX
  5
385
100
AcDbEntity
  8
1
390
0
 62
     9
100
AcDbVertex
100
AcDb2dVertex
 10
92.453505
 20
195.362177
 30
0.0
  0
VERTEX
  5
386
100
AcDbEntity
  8
1
390
0
 62
     9
100
AcDbVertex
100
AcDb2dVertex
 10
92.470381
 20
195.255587
 30
0.0
  0
VERTEX
  5
387
100
AcDbEntity
  8
1
390
0
 62
     9
100
AcDbVertex
100
AcDb2dVertex
 10
92.473693
 20
195.179365
 30
0.0
  0
SEQEND
  5
388
100
AcDbEntity
  8
0
390
0
  0
POLYLINE
  5
389
100
AcDbEntity
  8
1
390
0
  6
DOT
 62
     9
100
AcDb2dPolyline
 66
     1
 10
0.0
 20
0.0
 30
0.0
 40
1.0
 41
1.0
  0
VERTEX
  5
38A
100
AcDbEntity
  8
1
390
0
 62
     9
100
AcDbVertex
100
AcDb2dVertex
 10
92.473693
 20
201.376548
 30
0.0
  0
VERTEX
  5
38B
100
AcDbEntity
  8
1
390
0
 62
     9
100
AcDbVertex
100
AcDb2dVertex
 10
92.466671
 20
201.266543
 30
0.0
  0
VERTEX
  5
38C
100
AcDbEntity
  8
1
390
0
 62
     9
100
AcDbVertex
100
AcDb2dVertex
 10
92.445495
 20
201.162455
 30
0.0
  0
VERTEX
  5
38D
100
AcDbEntity
  8
1
390
0
 62
     9
100
AcDbVertex
100
AcDb2dVertex
 10
92.423693
 20
201.097189
 30
0.0
  0
SEQEND
  5
38E
100
AcDbEntity
  8
0
390
0
  0
LINE
  5
38F
100
AcDbEntity
  8
1
390
0
  6
Continuous
 62
     7
100
AcDbLine
 10
85.973693
 20
203.277956
 30
0.0
 11
85.973693
 21
193.277956
 31
0.0
  0
LINE
  5
390
100
AcDbEntity
  8
1
390
0
  6
Continuous
 62
     7
100
AcDbLine
 10
85.473693
 20
202.777956
 30
0.0
 11
85.473693
 21
193.777956
 31
0.0
  0
LINE
  5
391
100
AcDbEntity
  8
1
390
0
  6
DOT
 62
     9
100
AcDbLine
 10
86.023693
 20
197.569084
 30
0.0
 11
86.023693
 21
195.458724
 31
0.0
  0
ARC
  5
392
100
AcDbEntity
  8
1
390
0
  6
DOT
 62
     9
100
AcDbCircle
 10
91.023698
 20
198.277956
 30
0.0
 40
5.050005
210
0.0
220
0.0
230
1.0
100
AcDbArc
 50
171.930707
 51
188.069293
  0
LINE
  5
393
100
AcDbEntity
  8
1
390
0
  6
DOT
 62
     9
100
AcDbLine
 10
86.023693
 20
201.097189
 30
0.0
 11
86.023693
 21
198.986829
 31
0.0
  0
POLYLINE
  5
394
100
AcDbEntity
  8
1
390
0
  6
DOT
 62
     9
100
AcDb2dPolyline
 66
     1
 10
0.0
 20
0.0
 30
0.0
 40
1.0
 41
1.0
  0
VERTEX
  5
395
100
AcDbEntity
  8
1
390
0
 62
     9
100
AcDbVertex
100
AcDb2dVertex
 10
86.023693
 20
201.097189
 30
0.0
  0
VERTEX
  5
396
100
AcDbEntity
  8
1
390
0
 62
     9
100
AcDbVertex
100
AcDb2dVertex
 10
85.99388
 20
201.193735
 30
0.0
  0
VERTEX
  5
397
100
AcDbEntity
  8
1
390
0
 62
     9
100
AcDbVertex
100
AcDb2dVertex
 10
85.977005
 20
201.300325
 30
0.0
  0
VERTEX
  5
398
100
AcDbEntity
  8
1
390
0
 62
     9
100
AcDbVertex
100
AcDb2dVertex
 10
85.973693
 20
201.376548
 30
0.0
  0
SEQEND
  5
399
100
AcDbEntity
  8
0
390
0
  0
POLYLINE
  5
39A
100
AcDbEntity
  8
1
390
0
  6
DOT
 62
     9
100
AcDb2dPolyline
 66
     1
 10
0.0
 20
0.0
 30
0.0
 40
1.0
 41
1.0
  0
VERTEX
  5
39B
100
AcDbEntity
  8
1
390
0
 62
     9
100
AcDbVertex
100
AcDb2dVertex
 10
85.973693
 20
195.179365
 30
0.0
  0
VERTEX
  5
39C
100
AcDbEntity
  8
1
390
0
 62
     9
100
AcDbVertex
100
AcDb2dVertex
 10
85.980714
 20
195.28937
 30
0.0
  0
VERTEX
  5
39D
100
AcDbEntity
  8
1
390
0
 62
     9
100
AcDbVertex
100
AcDb2dVertex
 10
86.00189
 20
195.393457
 30
0.0
  0
VERTEX
  5
39E
100
AcDbEntity
  8
1
390
0
 62
     9
100
AcDbVertex
100
AcDb2dVertex
 10
86.023693
 20
195.458724
 30
0.0
  0
SEQEND
  5
39F
100
AcDbEntity
  8
0
390
0
  0
LINE
  5
3A0
100
AcDbEntity
  8
1
390
0
  6
DOT
 62
     9
100
AcDbLine
 10
85.573693
 20
201.677956
 30
0.0
 11
85.573693
 21
194.877956
 31
0.0
  0
LINE
  5
3A1
100
AcDbEntity
  8
1
390
0
  6
Continuous
 62
     7
100
AcDbLine
 10
93.473693
 20
199.577956
 30
0.0
 11
93.473693
 21
196.977956
 31
0.0
  0
POLYLINE
  5
3A2
100
AcDbEntity
  8
1
390
0
  6
DOT
 62
     9
100
AcDb2dPolyline
 66
     1
 10
0.0
 20
0.0
 30
0.0
 40
1.0
 41
1.0
  0
VERTEX
  5
3A3
100
AcDbEntity
  8
1
390
0
 62
     9
100
AcDbVertex
100
AcDb2dVertex
 10
91.523693
 20
195.458724
 30
0.0
  0
VERTEX
  5
3A4
100
AcDbEntity
  8
1
390
0
 62
     9
100
AcDbVertex
100
AcDb2dVertex
 10
91.519246
 20
195.458788
 30
0.0
  0
VERTEX
  5
3A5
100
AcDbEntity
  8
1
390
0
 62
     9
100
AcDbVertex
100
AcDb2dVertex
 10
91.514802
 20
195.458979
 30
0.0
  0
VERTEX
  5
3A6
100
AcDbEntity
  8
1
390
0
 62
     9
100
AcDbVertex
100
AcDb2dVertex
 10
91.510373
 20
195.459294
 30
0.0
  0
VERTEX
  5
3A7
100
AcDbEntity
  8
1
390
0
 62
     9
100
AcDbVertex
100
AcDb2dVertex
 10
91.505968
 20
195.459729
 30
0.0
  0
VERTEX
  5
3A8
100
AcDbEntity
  8
1
390
0
 62
     9
100
AcDbVertex
100
AcDb2dVertex
 10
91.5016
 20
195.460282
 30
0.0
  0
VERTEX
  5
3A9
100
AcDbEntity
  8
1
390
0
 62
     9
100
AcDbVertex
100
AcDb2dVertex
 10
91.495961
 20
195.461176
 30
0.0
  0
VERTEX
  5
3AA
100
AcDbEntity
  8
1
390
0
 62
     9
100
AcDbVertex
100
AcDb2dVertex
 10
91.49039
 20
195.462253
 30
0.0
  0
VERTEX
  5
3AB
100
AcDbEntity
  8
1
390
0
 62
     9
100
AcDbVertex
100
AcDb2dVertex
 10
91.484901
 20
195.463501
 30
0.0
  0
VERTEX
  5
3AC
100
AcDbEntity
  8
1
390
0
 62
     9
100
AcDbVertex
100
AcDb2dVertex
 10
91.479508
 20
195.464905
 30
0.0
  0
VERTEX
  5
3AD
100
AcDbEntity
  8
1
390
0
 62
     9
100
AcDbVertex
100
AcDb2dVertex
 10
91.470421
 20
195.467661
 30
0.0
  0
VERTEX
  5
3AE
100
AcDbEntity
  8
1
390
0
 62
     9
100
AcDbVertex
100
AcDb2dVertex
 10
91.461604
 20
195.470792
 30
0.0
  0
VERTEX
  5
3AF
100
AcDbEntity
  8
1
390
0
 62
     9
100
AcDbVertex
100
AcDb2dVertex
 10
91.453058
 20
195.474248
 30
0.0
  0
VERTEX
  5
3B0
100
AcDbEntity
  8
1
390
0
 62
     9
100
AcDbVertex
100
AcDb2dVertex
 10
91.444782
 20
195.477977
 30
0.0
  0
VERTEX
  5
3B1
100
AcDbEntity
  8
1
390
0
 62
     9
100
AcDbVertex
100
AcDb2dVertex
 10
91.436776
 20
195.481928
 30
0.0
  0
VERTEX
  5
3B2
100
AcDbEntity
  8
1
390
0
 62
     9
100
AcDbVertex
100
AcDb2dVertex
 10
91.429042
 20
195.486051
 30
0.0
  0
VERTEX
  5
3B3
100
AcDbEntity
  8
1
390
0
 62
     9
100
AcDbVertex
100
AcDb2dVertex
 10
91.408523
 20
195.498227
 30
0.0
  0
VERTEX
  5
3B4
100
AcDbEntity
  8
1
390
0
 62
     9
100
AcDbVertex
100
AcDb2dVertex
 10
91.389377
 20
195.511176
 30
0.0
  0
VERTEX
  5
3B5
100
AcDbEntity
  8
1
390
0
 62
     9
100
AcDbVertex
100
AcDb2dVertex
 10
91.371442
 20
195.524708
 30
0.0
  0
VERTEX
  5
3B6
100
AcDbEntity
  8
1
390
0
 62
     9
100
AcDbVertex
100
AcDb2dVertex
 10
91.354556
 20
195.53863
 30
0.0
  0
VERTEX
  5
3B7
100
AcDbEntity
  8
1
390
0
 62
     9
100
AcDbVertex
100
AcDb2dVertex
 10
91.33856
 20
195.552752
 30
0.0
  0
VERTEX
  5
3B8
100
AcDbEntity
  8
1
390
0
 62
     9
100
AcDbVertex
100
AcDb2dVertex
 10
91.323291
 20
195.566882
 30
0.0
  0
VERTEX
  5
3B9
100
AcDbEntity
  8
1
390
0
 62
     9
100
AcDbVertex
100
AcDb2dVertex
 10
91.294329
 20
195.595196
 30
0.0
  0
VERTEX
  5
3BA
100
AcDbEntity
  8
1
390
0
 62
     9
100
AcDbVertex
100
AcDb2dVertex
 10
91.267592
 20
195.623343
 30
0.0
  0
VERTEX
  5
3BB
100
AcDbEntity
  8
1
390
0
 62
     9
100
AcDbVertex
100
AcDb2dVertex
 10
91.242968
 20
195.651108
 30
0.0
  0
VERTEX
  5
3BC
100
AcDbEntity
  8
1
390
0
 62
     9
100
AcDbVertex
100
AcDb2dVertex
 10
91.220347
 20
195.678276
 30
0.0
  0
SEQEND
  5
3BD
100
AcDbEntity
  8
0
390
0
  0
POLYLINE
  5
3BE
100
AcDbEntity
  8
1
390
0
  6
DOT
 62
     9
100
AcDb2dPolyline
 66
     1
 10
0.0
 20
0.0
 30
0.0
 40
1.0
 41
1.0
  0
VERTEX
  5
3BF
100
AcDbEntity
  8
1
390
0
 62
     9
100
AcDbVertex
100
AcDb2dVertex
 10
86.023693
 20
201.097189
 30
0.0
  0
VERTEX
  5
3C0
100
AcDbEntity
  8
1
390
0
 62
     9
100
AcDbVertex
100
AcDb2dVertex
 10
86.028139
 20
201.097125
 30
0.0
  0
VERTEX
  5
3C1
100
AcDbEntity
  8
1
390
0
 62
     9
100
AcDbVertex
100
AcDb2dVertex
 10
86.032583
 20
201.096934
 30
0.0
  0
VERTEX
  5
3C2
100
AcDbEntity
  8
1
390
0
 62
     9
100
AcDbVertex
100
AcDb2dVertex
 10
86.037013
 20
201.096619
 30
0.0
  0
VERTEX
  5
3C3
100
AcDbEntity
  8
1
390
0
 62
     9
100
AcDbVertex
100
AcDb2dVertex
 10
86.041417
 20
201.096184
 30
0.0
  0
VERTEX
  5
3C4
100
AcDbEntity
  8
1
390
0
 62
     9
100
AcDbVertex
100
AcDb2dVertex
 10
86.045785
 20
201.095631
 30
0.0
  0
VERTEX
  5
3C5
100
AcDbEntity
  8
1
390
0
 62
     9
100
AcDbVertex
100
AcDb2dVertex
 10
86.051424
 20
201.094737
 30
0.0
  0
VERTEX
  5
3C6
100
AcDbEntity
  8
1
390
0
 62
     9
100
AcDbVertex
100
AcDb2dVertex
 10
86.056995
 20
201.093659
 30
0.0
  0
VERTEX
  5
3C7
100
AcDbEntity
  8
1
390
0
 62
     9
100
AcDbVertex
100
AcDb2dVertex
 10
86.062484
 20
201.092412
 30
0.0
  0
VERTEX
  5
3C8
100
AcDbEntity
  8
1
390
0
 62
     9
100
AcDbVertex
100
AcDb2dVertex
 10
86.067877
 20
201.091008
 30
0.0
  0
VERTEX
  5
3C9
100
AcDbEntity
  8
1
390
0
 62
     9
100
AcDbVertex
100
AcDb2dVertex
 10
86.076964
 20
201.088252
 30
0.0
  0
VERTEX
  5
3CA
100
AcDbEntity
  8
1
390
0
 62
     9
100
AcDbVertex
100
AcDb2dVertex
 10
86.085781
 20
201.085121
 30
0.0
  0
VERTEX
  5
3CB
100
AcDbEntity
  8
1
390
0
 62
     9
100
AcDbVertex
100
AcDb2dVertex
 10
86.094327
 20
201.081665
 30
0.0
  0
VERTEX
  5
3CC
100
AcDbEntity
  8
1
390
0
 62
     9
100
AcDbVertex
100
AcDb2dVertex
 10
86.102603
 20
201.077936
 30
0.0
  0
VERTEX
  5
3CD
100
AcDbEntity
  8
1
390
0
 62
     9
100
AcDbVertex
100
AcDb2dVertex
 10
86.110609
 20
201.073985
 30
0.0
  0
VERTEX
  5
3CE
100
AcDbEntity
  8
1
390
0
 62
     9
100
AcDbVertex
100
AcDb2dVertex
 10
86.118344
 20
201.069862
 30
0.0
  0
VERTEX
  5
3CF
100
AcDbEntity
  8
1
390
0
 62
     9
100
AcDbVertex
100
AcDb2dVertex
 10
86.138862
 20
201.057686
 30
0.0
  0
VERTEX
  5
3D0
100
AcDbEntity
  8
1
390
0
 62
     9
100
AcDbVertex
100
AcDb2dVertex
 10
86.158008
 20
201.044737
 30
0.0
  0
VERTEX
  5
3D1
100
AcDbEntity
  8
1
390
0
 62
     9
100
AcDbVertex
100
AcDb2dVertex
 10
86.175944
 20
201.031205
 30
0.0
  0
VERTEX
  5
3D2
100
AcDbEntity
  8
1
390
0
 62
     9
100
AcDbVertex
100
AcDb2dVertex
 10
86.192829
 20
201.017283
 30
0.0
  0
VERTEX
  5
3D3
100
AcDbEntity
  8
1
390
0
 62
     9
100
AcDbVertex
100
AcDb2dVertex
 10
86.208825
 20
201.003161
 30
0.0
  0
VERTEX
  5
3D4
100
AcDbEntity
  8
1
390
0
 62
     9
100
AcDbVertex
100
AcDb2dVertex
 10
86.224094
 20
200.98903
 30
0.0
  0
VERTEX
  5
3D5
100
AcDbEntity
  8
1
390
0
 62
     9
100
AcDbVertex
100
AcDb2dVertex
 10
86.253056
 20
200.960717
 30
0.0
  0
VERTEX
  5
3D6
100
AcDbEntity
  8
1
390
0
 62
     9
100
AcDbVertex
100
AcDb2dVertex
 10
86.279793
 20
200.93257
 30
0.0
  0
VERTEX
  5
3D7
100
AcDbEntity
  8
1
390
0
 62
     9
100
AcDbVertex
100
AcDb2dVertex
 10
86.304417
 20
200.904805
 30
0.0
  0
VERTEX
  5
3D8
100
AcDbEntity
  8
1
390
0
 62
     9
100
AcDbVertex
100
AcDb2dVertex
 10
86.327038
 20
200.877637
 30
0.0
  0
SEQEND
  5
3D9
100
AcDbEntity
  8
0
390
0
  0
POLYLINE
  5
3DA
100
AcDbEntity
  8
1
390
0
  6
DOT
 62
     9
100
AcDb2dPolyline
 66
     1
 10
0.0
 20
0.0
 30
0.0
 40
1.0
 41
1.0
  0
VERTEX
  5
3DB
100
AcDbEntity
  8
1
390
0
 62
     9
100
AcDbVertex
100
AcDb2dVertex
 10
86.327038
 20
195.678276
 30
0.0
  0
VERTEX
  5
3DC
100
AcDbEntity
  8
1
390
0
 62
     9
100
AcDbVertex
100
AcDb2dVertex
 10
86.306822
 20
195.653886
 30
0.0
  0
VERTEX
  5
3DD
100
AcDbEntity
  8
1
390
0
 62
     9
100
AcDbVertex
100
AcDb2dVertex
 10
86.285008
 20
195.628979
 30
0.0
  0
VERTEX
  5
3DE
100
AcDbEntity
  8
1
390
0
 62
     9
100
AcDbVertex
100
AcDb2dVertex
 10
86.261486
 20
195.603728
 30
0.0
  0
VERTEX
  5
3DF
100
AcDbEntity
  8
1
390
0
 62
     9
100
AcDbVertex
100
AcDb2dVertex
 10
86.236146
 20
195.578311
 30
0.0
  0
VERTEX
  5
3E0
100
AcDbEntity
  8
1
390
0
 62
     9
100
AcDbVertex
100
AcDb2dVertex
 10
86.208879
 20
195.552902
 30
0.0
  0
VERTEX
  5
3E1
100
AcDbEntity
  8
1
390
0
 62
     9
100
AcDbVertex
100
AcDb2dVertex
 10
86.191565
 20
195.537816
 30
0.0
  0
VERTEX
  5
3E2
100
AcDbEntity
  8
1
390
0
 62
     9
100
AcDbVertex
100
AcDb2dVertex
 10
86.173259
 20
195.522942
 30
0.0
  0
VERTEX
  5
3E3
100
AcDbEntity
  8
1
390
0
 62
     9
100
AcDbVertex
100
AcDb2dVertex
 10
86.15379
 20
195.508458
 30
0.0
  0
VERTEX
  5
3E4
100
AcDbEntity
  8
1
390
0
 62
     9
100
AcDbVertex
100
AcDb2dVertex
 10
86.143552
 20
195.501424
 30
0.0
  0
VERTEX
  5
3E5
100
AcDbEntity
  8
1
390
0
 62
     9
100
AcDbVertex
100
AcDb2dVertex
 10
86.132914
 20
195.494585
 30
0.0
  0
VERTEX
  5
3E6
100
AcDbEntity
  8
1
390
0
 62
     9
100
AcDbVertex
100
AcDb2dVertex
 10
86.121833
 20
195.488005
 30
0.0
  0
VERTEX
  5
3E7
100
AcDbEntity
  8
1
390
0
 62
     9
100
AcDbVertex
100
AcDb2dVertex
 10
86.113005
 20
195.483173
 30
0.0
  0
VERTEX
  5
3E8
100
AcDbEntity
  8
1
390
0
 62
     9
100
AcDbVertex
100
AcDb2dVertex
 10
86.103844
 20
195.47857
 30
0.0
  0
VERTEX
  5
3E9
100
AcDbEntity
  8
1
390
0
 62
     9
100
AcDbVertex
100
AcDb2dVertex
 10
86.09434
 20
195.47426
 30
0.0
  0
VERTEX
  5
3EA
100
AcDbEntity
  8
1
390
0
 62
     9
100
AcDbVertex
100
AcDb2dVertex
 10
86.084479
 20
195.470309
 30
0.0
  0
VERTEX
  5
3EB
100
AcDbEntity
  8
1
390
0
 62
     9
100
AcDbVertex
100
AcDb2dVertex
 10
86.078408
 20
195.468149
 30
0.0
  0
VERTEX
  5
3EC
100
AcDbEntity
  8
1
390
0
 62
     9
100
AcDbVertex
100
AcDb2dVertex
 10
86.072179
 20
195.466156
 30
0.0
  0
VERTEX
  5
3ED
100
AcDbEntity
  8
1
390
0
 62
     9
100
AcDbVertex
100
AcDb2dVertex
 10
86.065808
 20
195.464352
 30
0.0
  0
VERTEX
  5
3EE
100
AcDbEntity
  8
1
390
0
 62
     9
100
AcDbVertex
100
AcDb2dVertex
 10
86.059311
 20
195.462762
 30
0.0
  0
VERTEX
  5
3EF
100
AcDbEntity
  8
1
390
0
 62
     9
100
AcDbVertex
100
AcDb2dVertex
 10
86.052703
 20
195.461408
 30
0.0
  0
VERTEX
  5
3F0
100
AcDbEntity
  8
1
390
0
 62
     9
100
AcDbVertex
100
AcDb2dVertex
 10
86.046001
 20
195.460313
 30
0.0
  0
VERTEX
  5
3F1
100
AcDbEntity
  8
1
390
0
 62
     9
100
AcDbVertex
100
AcDb2dVertex
 10
86.041592
 20
195.459749
 30
0.0
  0
VERTEX
  5
3F2
100
AcDbEntity
  8
1
390
0
 62
     9
100
AcDbVertex
100
AcDb2dVertex
 10
86.037144
 20
195.459305
 30
0.0
  0
VERTEX
  5
3F3
100
AcDbEntity
  8
1
390
0
 62
     9
100
AcDbVertex
100
AcDb2dVertex
 10
86.032671
 20
195.458984
 30
0.0
  0
VERTEX
  5
3F4
100
AcDbEntity
  8
1
390
0
 62
     9
100
AcDbVertex
100
AcDb2dVertex
 10
86.028183
 20
195.458789
 30
0.0
  0
VERTEX
  5
3F5
100
AcDbEntity
  8
1
390
0
 62
     9
100
AcDbVertex
100
AcDb2dVertex
 10
86.023693
 20
195.458724
 30
0.0
  0
SEQEND
  5
3F6
100
AcDbEntity
  8
0
390
0
  0
POLYLINE
  5
3F7
100
AcDbEntity
  8
1
390
0
  6
DOT
 62
     9
100
AcDb2dPolyline
 66
     1
 10
0.0
 20
0.0
 30
0.0
 40
1.0
 41
1.0
  0
VERTEX
  5
3F8
100
AcDbEntity
  8
1
390
0
 62
     9
100
AcDbVertex
100
AcDb2dVertex
 10
91.220347
 20
200.877637
 30
0.0
  0
VERTEX
  5
3F9
100
AcDbEntity
  8
1
390
0
 62
     9
100
AcDbVertex
100
AcDb2dVertex
 10
91.240564
 20
200.902026
 30
0.0
  0
VERTEX
  5
3FA
100
AcDbEntity
  8
1
390
0
 62
     9
100
AcDbVertex
100
AcDb2dVertex
 10
91.262378
 20
200.926934
 30
0.0
  0
VERTEX
  5
3FB
100
AcDbEntity
  8
1
390
0
 62
     9
100
AcDbVertex
100
AcDb2dVertex
 10
91.2859
 20
200.952184
 30
0.0
  0
VERTEX
  5
3FC
100
AcDbEntity
  8
1
390
0
 62
     9
100
AcDbVertex
100
AcDb2dVertex
 10
91.311239
 20
200.977602
 30
0.0
  0
VERTEX
  5
3FD
100
AcDbEntity
  8
1
390
0
 62
     9
100
AcDbVertex
100
AcDb2dVertex
 10
91.338506
 20
201.003011
 30
0.0
  0
VERTEX
  5
3FE
100
AcDbEntity
  8
1
390
0
 62
     9
100
AcDbVertex
100
AcDb2dVertex
 10
91.35582
 20
201.018097
 30
0.0
  0
VERTEX
  5
3FF
100
AcDbEntity
  8
1
390
0
 62
     9
100
AcDbVertex
100
AcDb2dVertex
 10
91.374126
 20
201.032971
 30
0.0
  0
VERTEX
  5
400
100
AcDbEntity
  8
1
390
0
 62
     9
100
AcDbVertex
100
AcDb2dVertex
 10
91.393596
 20
201.047454
 30
0.0
  0
VERTEX
  5
401
100
AcDbEntity
  8
1
390
0
 62
     9
100
AcDbVertex
100
AcDb2dVertex
 10
91.403833
 20
201.054489
 30
0.0
  0
VERTEX
  5
402
100
AcDbEntity
  8
1
390
0
 62
     9
100
AcDbVertex
100
AcDb2dVertex
 10
91.414472
 20
201.061328
 30
0.0
  0
VERTEX
  5
403
100
AcDbEntity
  8
1
390
0
 62
     9
100
AcDbVertex
100
AcDb2dVertex
 10
91.425552
 20
201.067908
 30
0.0
  0
VERTEX
  5
404
100
AcDbEntity
  8
1
390
0
 62
     9
100
AcDbVertex
100
AcDb2dVertex
 10
91.43438
 20
201.07274
 30
0.0
  0
VERTEX
  5
405
100
AcDbEntity
  8
1
390
0
 62
     9
100
AcDbVertex
100
AcDb2dVertex
 10
91.443541
 20
201.077343
 30
0.0
  0
VERTEX
  5
406
100
AcDbEntity
  8
1
390
0
 62
     9
100
AcDbVertex
100
AcDb2dVertex
 10
91.453046
 20
201.081652
 30
0.0
  0
VERTEX
  5
407
100
AcDbEntity
  8
1
390
0
 62
     9
100
AcDbVertex
100
AcDb2dVertex
 10
91.462906
 20
201.085604
 30
0.0
  0
VERTEX
  5
408
100
AcDbEntity
  8
1
390
0
 62
     9
100
AcDbVertex
100
AcDb2dVertex
 10
91.468977
 20
201.087764
 30
0.0
  0
VERTEX
  5
409
100
AcDbEntity
  8
1
390
0
 62
     9
100
AcDbVertex
100
AcDb2dVertex
 10
91.475206
 20
201.089757
 30
0.0
  0
VERTEX
  5
40A
100
AcDbEntity
  8
1
390
0
 62
     9
100
AcDbVertex
100
AcDb2dVertex
 10
91.481577
 20
201.09156
 30
0.0
  0
VERTEX
  5
40B
100
AcDbEntity
  8
1
390
0
 62
     9
100
AcDbVertex
100
AcDb2dVertex
 10
91.488075
 20
201.093151
 30
0.0
  0
VERTEX
  5
40C
100
AcDbEntity
  8
1
390
0
 62
     9
100
AcDbVertex
100
AcDb2dVertex
 10
91.494682
 20
201.094505
 30
0.0
  0
VERTEX
  5
40D
100
AcDbEntity
  8
1
390
0
 62
     9
100
AcDbVertex
100
AcDb2dVertex
 10
91.501384
 20
201.0956
 30
0.0
  0
VERTEX
  5
40E
100
AcDbEntity
  8
1
390
0
 62
     9
100
AcDbVertex
100
AcDb2dVertex
 10
91.505793
 20
201.096164
 30
0.0
  0
VERTEX
  5
40F
100
AcDbEntity
  8
1
390
0
 62
     9
100
AcDbVertex
100
AcDb2dVertex
 10
91.510241
 20
201.096608
 30
0.0
  0
VERTEX
  5
410
100
AcDbEntity
  8
1
390
0
 62
     9
100
AcDbVertex
100
AcDb2dVertex
 10
91.514714
 20
201.096929
 30
0.0
  0
VERTEX
  5
411
100
AcDbEntity
  8
1
390
0
 62
     9
100
AcDbVertex
100
AcDb2dVertex
 10
91.519202
 20
201.097123
 30
0.0
  0
VERTEX
  5
412
100
AcDbEntity
  8
1
390
0
 62
     9
100
AcDbVertex
100
AcDb2dVertex
 10
91.523693
 20
201.097189
 30
0.0
  0
SEQEND
  5
413
100
AcDbEntity
  8
0
390
0
  0
LINE
  5
414
100
AcDbEntity
  8
1
390
0
  6
DOT
 62
     9
100
AcDbLine
 10
92.423693
 20
195.458724
 30
0.0
 11
91.523693
 21
195.458724
 31
0.0
  0
LINE
  5
415
100
AcDbEntity
  8
1
390
0
  6
DOT
 62
     9
100
AcDbLine
 10
91.523693
 20
201.097189
 30
0.0
 11
92.423693
 21
201.097189
 31
0.0
  0
POLYLINE
  5
416
100
AcDbEntity
  8
1
390
0
  6
DOT
 62
     9
100
AcDb2dPolyline
 66
     1
 10
0.0
 20
0.0
 30
0.0
 40
1.0
 41
1.0
  0
VERTEX
  5
417
100
AcDbEntity
  8
1
390
0
 62
     9
100
AcDbVertex
100
AcDb2dVertex
 10
91.179266
 20
199.867561
 30
0.0
  0
VERTEX
  5
418
100
AcDbEntity
  8
1
390
0
 62
     9
100
AcDbVertex
100
AcDb2dVertex
 10
91.229706
 20
199.995315
 30
0.0
  0
VERTEX
  5
419
100
AcDbEntity
  8
1
390
0
 62
     9
100
AcDbVertex
100
AcDb2dVertex
 10
91.268257
 20
200.099419
 30
0.0
  0
VERTEX
  5
41A
100
AcDbEntity
  8
1
390
0
 62
     9
100
AcDbVertex
100
AcDb2dVertex
 10
91.298596
 20
200.214484
 30
0.0
  0
VERTEX
  5
41B
100
AcDbEntity
  8
1
390
0
 62
     9
100
AcDbVertex
100
AcDb2dVertex
 10
91.311769
 20
200.337856
 30
0.0
 42
0.063555
  0
VERTEX
  5
41C
100
AcDbEntity
  8
1
390
0
 62
     9
100
AcDbVertex
100
AcDb2dVertex
 10
91.220347
 20
200.877637
 30
0.0
  0
SEQEND
  5
41D
100
AcDbEntity
  8
0
390
0
  0
POLYLINE
  5
41E
100
AcDbEntity
  8
1
390
0
  6
DOT
 62
     9
100
AcDb2dPolyline
 66
     1
 10
0.0
 20
0.0
 30
0.0
 40
1.0
 41
1.0
  0
VERTEX
  5
41F
100
AcDbEntity
  8
1
390
0
 62
     9
100
AcDbVertex
100
AcDb2dVertex
 10
91.220347
 20
200.877637
 30
0.0
 42
0.115037
  0
VERTEX
  5
420
100
AcDbEntity
  8
1
390
0
 62
     9
100
AcDbVertex
100
AcDb2dVertex
 10
89.47187
 20
200.672116
 30
0.0
  0
VERTEX
  5
421
100
AcDbEntity
  8
1
390
0
 62
     9
100
AcDbVertex
100
AcDb2dVertex
 10
89.395595
 20
200.628407
 30
0.0
  0
SEQEND
  5
422
100
AcDbEntity
  8
0
390
0
  0
POLYLINE
  5
423
100
AcDbEntity
  8
1
390
0
  6
DOT
 62
     9
100
AcDb2dPolyline
 66
     1
 10
0.0
 20
0.0
 30
0.0
 40
1.0
 41
1.0
  0
VERTEX
  5
424
100
AcDbEntity
  8
1
390
0
 62
     9
100
AcDbVertex
100
AcDb2dVertex
 10
86.368119
 20
196.688352
 30
0.0
  0
VERTEX
  5
425
100
AcDbEntity
  8
1
390
0
 62
     9
100
AcDbVertex
100
AcDb2dVertex
 10
86.317679
 20
196.560598
 30
0.0
  0
VERTEX
  5
426
100
AcDbEntity
  8
1
390
0
 62
     9
100
AcDbVertex
100
AcDb2dVertex
 10
86.279128
 20
196.456494
 30
0.0
  0
VERTEX
  5
427
100
AcDbEntity
  8
1
390
0
 62
     9
100
AcDbVertex
100
AcDb2dVertex
 10
86.24879
 20
196.341429
 30
0.0
  0
VERTEX
  5
428
100
AcDbEntity
  8
1
390
0
 62
     9
100
AcDbVertex
100
AcDb2dVertex
 10
86.235616
 20
196.218057
 30
0.0
 42
0.063555
  0
VERTEX
  5
429
100
AcDbEntity
  8
1
390
0
 62
     9
100
AcDbVertex
100
AcDb2dVertex
 10
86.327038
 20
195.678276
 30
0.0
  0
SEQEND
  5
42A
100
AcDbEntity
  8
0
390
0
  0
POLYLINE
  5
42B
100
AcDbEntity
  8
1
390
0
  6
DOT
 62
     9
100
AcDb2dPolyline
 66
     1
 10
0.0
 20
0.0
 30
0.0
 40
1.0
 41
1.0
  0
VERTEX
  5
42C
100
AcDbEntity
  8
1
390
0
 62
     9
100
AcDbVertex
100
AcDb2dVertex
 10
86.327038
 20
195.678276
 30
0.0
 42
0.115037
  0
VERTEX
  5
42D
100
AcDbEntity
  8
1
390
0
 62
     9
100
AcDbVertex
100
AcDb2dVertex
 10
88.075515
 20
195.883797
 30
0.0
  0
VERTEX
  5
42E
100
AcDbEntity
  8
1
390
0
 62
     9
100
AcDbVertex
100
AcDb2dVertex
 10
88.15179
 20
195.927505
 30
0.0
  0
SEQEND
  5
42F
100
AcDbEntity
  8
0
390
0
  0
POLYLINE
  5
430
100
AcDbEntity
  8
1
390
0
  6
DOT
 62
     9
100
AcDb2dPolyline
 66
     1
 10
0.0
 20
0.0
 30
0.0
 40
1.0
 41
1.0
  0
VERTEX
  5
431
100
AcDbEntity
  8
1
390
0
 62
     9
100
AcDbVertex
100
AcDb2dVertex
 10
86.327038
 20
200.877637
 30
0.0
 42
0.044859
  0
VERTEX
  5
432
100
AcDbEntity
  8
1
390
0
 62
     9
100
AcDbVertex
100
AcDb2dVertex
 10
86.236369
 20
200.398438
 30
0.0
  0
VERTEX
  5
433
100
AcDbEntity
  8
1
390
0
 62
     9
100
AcDbVertex
100
AcDb2dVertex
 10
86.237801
 20
200.29527
 30
0.0
  0
VERTEX
  5
434
100
AcDbEntity
  8
1
390
0
 62
     9
100
AcDbVertex
100
AcDb2dVertex
 10
86.254558
 20
200.186007
 30
0.0
  0
VERTEX
  5
435
100
AcDbEntity
  8
1
390
0
 62
     9
100
AcDbVertex
100
AcDb2dVertex
 10
86.290871
 20
200.065421
 30
0.0
  0
VERTEX
  5
436
100
AcDbEntity
  8
1
390
0
 62
     9
100
AcDbVertex
100
AcDb2dVertex
 10
86.330406
 20
199.963827
 30
0.0
  0
VERTEX
  5
437
100
AcDbEntity
  8
1
390
0
 62
     9
100
AcDbVertex
100
AcDb2dVertex
 10
86.368119
 20
199.867561
 30
0.0
  0
SEQEND
  5
438
100
AcDbEntity
  8
0
390
0
  0
POLYLINE
  5
439
100
AcDbEntity
  8
1
390
0
  6
DOT
 62
     9
100
AcDb2dPolyline
 66
     1
 10
0.0
 20
0.0
 30
0.0
 40
1.0
 41
1.0
  0
VERTEX
  5
43A
100
AcDbEntity
  8
1
390
0
 62
     9
100
AcDbVertex
100
AcDb2dVertex
 10
88.15179
 20
200.628407
 30
0.0
  0
VERTEX
  5
43B
100
AcDbEntity
  8
1
390
0
 62
     9
100
AcDbVertex
100
AcDb2dVertex
 10
88.058171
 20
200.679968
 30
0.0
 42
0.115366
  0
VERTEX
  5
43C
100
AcDbEntity
  8
1
390
0
 62
     9
100
AcDbVertex
100
AcDb2dVertex
 10
86.327038
 20
200.877637
 30
0.0
  0
SEQEND
  5
43D
100
AcDbEntity
  8
0
390
0
  0
POLYLINE
  5
43E
100
AcDbEntity
  8
1
390
0
  6
DOT
 62
     9
100
AcDb2dPolyline
 66
     1
 10
0.0
 20
0.0
 30
0.0
 40
1.0
 41
1.0
  0
VERTEX
  5
43F
100
AcDbEntity
  8
1
390
0
 62
     9
100
AcDbVertex
100
AcDb2dVertex
 10
91.220347
 20
195.678276
 30
0.0
 42
0.044859
  0
VERTEX
  5
440
100
AcDbEntity
  8
1
390
0
 62
     9
100
AcDbVertex
100
AcDb2dVertex
 10
91.311016
 20
196.157475
 30
0.0
  0
VERTEX
  5
441
100
AcDbEntity
  8
1
390
0
 62
     9
100
AcDbVertex
100
AcDb2dVertex
 10
91.309584
 20
196.260642
 30
0.0
  0
VERTEX
  5
442
100
AcDbEntity
  8
1
390
0
 62
     9
100
AcDbVertex
100
AcDb2dVertex
 10
91.292827
 20
196.369906
 30
0.0
  0
VERTEX
  5
443
100
AcDbEntity
  8
1
390
0
 62
     9
100
AcDbVertex
100
AcDb2dVertex
 10
91.256514
 20
196.490492
 30
0.0
  0
VERTEX
  5
444
100
AcDbEntity
  8
1
390
0
 62
     9
100
AcDbVertex
100
AcDb2dVertex
 10
91.216979
 20
196.592086
 30
0.0
  0
VERTEX
  5
445
100
AcDbEntity
  8
1
390
0
 62
     9
100
AcDbVertex
100
AcDb2dVertex
 10
91.179266
 20
196.688352
 30
0.0
  0
SEQEND
  5
446
100
AcDbEntity
  8
0
390
0
  0
POLYLINE
  5
447
100
AcDbEntity
  8
1
390
0
  6
DOT
 62
     9
100
AcDb2dPolyline
 66
     1
 10
0.0
 20
0.0
 30
0.0
 40
1.0
 41
1.0
  0
VERTEX
  5
448
100
AcDbEntity
  8
1
390
0
 62
     9
100
AcDbVertex
100
AcDb2dVertex
 10
89.395595
 20
195.927505
 30
0.0
  0
VERTEX
  5
449
100
AcDbEntity
  8
1
390
0
 62
     9
100
AcDbVertex
100
AcDb2dVertex
 10
89.489215
 20
195.875945
 30
0.0
 42
0.115366
  0
VERTEX
  5
44A
100
AcDbEntity
  8
1
390
0
 62
     9
100
AcDbVertex
100
AcDb2dVertex
 10
91.220347
 20
195.678276
 30
0.0
  0
SEQEND
  5
44B
100
AcDbEntity
  8
0
390
0
  0
ARC
  5
44C
100
AcDbEntity
  8
1
390
0
  6
DOT
 62
     9
100
AcDbCircle
 10
88.773693
 20
198.277956
 30
0.0
 40
2.25
210
0.0
220
0.0
230
1.0
100
AcDbArc
 50
360.0
 51
180.0
  0
ARC
  5
44D
100
AcDbEntity
  8
1
390
0
  6
DOT
 62
     9
100
AcDbCircle
 10
88.773693
 20
198.277956
 30
0.0
 40
2.25
210
0.0
220
0.0
230
1.0
100
AcDbArc
 50
180.0
 51
360.0
  0
ARC
  5
44E
100
AcDbEntity
  8
1
390
0
  6
DOT
 62
     9
100
AcDbCircle
 10
88.453445
 20
200.563917
 30
0.0
 40
4.731169
210
0.0
220
0.0
230
1.0
100
AcDbArc
 50
281.486483
 51
300.676356
  0
ARC
  5
44F
100
AcDbEntity
  8
1
390
0
  6
DOT
 62
     9
100
AcDbCircle
 10
89.09394
 20
195.991996
 30
0.0
 40
4.731169
210
0.0
220
0.0
230
1.0
100
AcDbArc
 50
101.486483
 51
120.676356
  0
ARC
  5
450
100
AcDbEntity
  8
1
390
0
  6
DOT
 62
     9
100
AcDbCircle
 10
89.08958
 20
200.552607
 30
0.0
 40
4.719217
210
0.0
220
0.0
230
1.0
100
AcDbArc
 50
239.299114
 51
258.538047
  0
ARC
  5
451
100
AcDbEntity
  8
1
390
0
  6
DOT
 62
     9
100
AcDbCircle
 10
88.457805
 20
196.003306
 30
0.0
 40
4.719217
210
0.0
220
0.0
230
0.9999999999999999
100
AcDbArc
 50
59.299114
 51
78.538047
  0
POLYLINE
  5
452
100
AcDbEntity
  8
1
390
0
  6
DOT
 62
     9
100
AcDb2dPolyline
 66
     1
 10
0.0
 20
0.0
 30
0.0
 40
1.0
 41
1.0
  0
VERTEX
  5
453
100
AcDbEntity
  8
1
390
0
 62
     9
100
AcDbVertex
100
AcDb2dVertex
 10
91.311112
 20
199.338147
 30
0.0
  0
VERTEX
  5
454
100
AcDbEntity
  8
1
390
0
 62
     9
100
AcDbVertex
100
AcDb2dVertex
 10
91.342126
 20
199.249775
 30
0.0
  0
VERTEX
  5
455
100
AcDbEntity
  8
1
390
0
 62
     9
100
AcDbVertex
100
AcDb2dVertex
 10
91.359136
 20
199.206057
 30
0.0
  0
VERTEX
  5
456
100
AcDbEntity
  8
1
390
0
 62
     9
100
AcDbVertex
100
AcDb2dVertex
 10
91.377441
 20
199.162825
 30
0.0
  0
SEQEND
  5
457
100
AcDbEntity
  8
0
390
0
  0
POLYLINE
  5
458
100
AcDbEntity
  8
1
390
0
  6
DOT
 62
     9
100
AcDb2dPolyline
 66
     1
 10
0.0
 20
0.0
 30
0.0
 40
1.0
 41
1.0
  0
VERTEX
  5
459
100
AcDbEntity
  8
1
390
0
 62
     9
100
AcDbVertex
100
AcDb2dVertex
 10
86.236273
 20
197.217766
 30
0.0
  0
VERTEX
  5
45A
100
AcDbEntity
  8
1
390
0
 62
     9
100
AcDbVertex
100
AcDb2dVertex
 10
86.205259
 20
197.306138
 30
0.0
  0
VERTEX
  5
45B
100
AcDbEntity
  8
1
390
0
 62
     9
100
AcDbVertex
100
AcDb2dVertex
 10
86.18825
 20
197.349855
 30
0.0
  0
VERTEX
  5
45C
100
AcDbEntity
  8
1
390
0
 62
     9
100
AcDbVertex
100
AcDb2dVertex
 10
86.169944
 20
197.393088
 30
0.0
  0
SEQEND
  5
45D
100
AcDbEntity
  8
0
390
0
  0
LINE
  5
45E
100
AcDbEntity
  8
1
390
0
  6
DOT
 62
     9
100
AcDbLine
 10
86.169944
 20
199.162825
 30
0.0
 11
86.236273
 21
199.338147
 31
0.0
  0
LINE
  5
45F
100
AcDbEntity
  8
1
390
0
  6
DOT
 62
     9
100
AcDbLine
 10
91.377441
 20
197.393088
 30
0.0
 11
91.311112
 21
197.217766
 31
0.0
  0
ARC
  5
460
100
AcDbEntity
  8
1
390
0
  6
DOT
 62
     9
100
AcDbCircle
 10
88.773693
 20
209.15533
 30
0.0
 40
8.549571
210
0.0
220
0.0
230
1.0
100
AcDbArc
 50
265.828577
 51
274.171423
  0
ARC
  5
461
100
AcDbEntity
  8
1
390
0
  6
DOT
 62
     9
100
AcDbCircle
 10
88.773693
 20
187.400583
 30
0.0
 40
8.549571
210
0.0
220
0.0
230
1.0
100
AcDbArc
 50
85.828577
 51
94.171423
  0
LINE
  5
462
100
AcDbEntity
  8
1
390
0
  6
DOT
 62
     9
100
AcDbLine
 10
92.423693
 20
198.986829
 30
0.0
 11
91.523693
 21
198.986829
 31
0.0
  0
LINE
  5
463
100
AcDbEntity
  8
1
390
0
  6
DOT
 62
     9
100
AcDbLine
 10
91.523693
 20
197.569084
 30
0.0
 11
92.423693
 21
197.569084
 31
0.0
  0
POLYLINE
  5
464
100
AcDbEntity
  8
1
390
0
  6
DOT
 62
     9
100
AcDb2dPolyline
 66
     1
 10
0.0
 20
0.0
 30
0.0
 40
1.0
 41
1.0
  0
VERTEX
  5
465
100
AcDbEntity
  8
1
390
0
 62
     9
100
AcDbVertex
100
AcDb2dVertex
 10
91.523693
 20
198.986829
 30
0.0
  0
VERTEX
  5
466
100
AcDbEntity
  8
1
390
0
 62
     9
100
AcDbVertex
100
AcDb2dVertex
 10
91.439826
 20
199.047576
 30
0.0
  0
VERTEX
  5
467
100
AcDbEntity
  8
1
390
0
 62
     9
100
AcDbVertex
100
AcDb2dVertex
 10
91.389905
 20
199.135574
 30
0.0
  0
VERTEX
  5
468
100
AcDbEntity
  8
1
390
0
 62
     9
100
AcDbVertex
100
AcDb2dVertex
 10
91.377441
 20
199.162825
 30
0.0
  0
SEQEND
  5
469
100
AcDbEntity
  8
0
390
0
  0
POLYLINE
  5
46A
100
AcDbEntity
  8
1
390
0
  6
DOT
 62
     9
100
AcDb2dPolyline
 66
     1
 10
0.0
 20
0.0
 30
0.0
 40
1.0
 41
1.0
  0
VERTEX
  5
46B
100
AcDbEntity
  8
1
390
0
 62
     9
100
AcDbVertex
100
AcDb2dVertex
 10
91.377441
 20
197.393088
 30
0.0
  0
VERTEX
  5
46C
100
AcDbEntity
  8
1
390
0
 62
     9
100
AcDbVertex
100
AcDb2dVertex
 10
91.432171
 20
197.497167
 30
0.0
  0
VERTEX
  5
46D
100
AcDbEntity
  8
1
390
0
 62
     9
100
AcDbVertex
100
AcDb2dVertex
 10
91.507921
 20
197.566872
 30
0.0
  0
VERTEX
  5
46E
100
AcDbEntity
  8
1
390
0
 62
     9
100
AcDbVertex
100
AcDb2dVertex
 10
91.523693
 20
197.569084
 30
0.0
  0
SEQEND
  5
46F
100
AcDbEntity
  8
0
390
0
  0
LINE
  5
470
100
AcDbEntity
  8
1
390
0
  6
DOT
 62
     9
100
AcDbLine
 10
91.179266
 20
196.688352
 30
0.0
 11
90.867231
 21
196.494814
 31
0.0
  0
ARC
  5
471
100
AcDbEntity
  8
1
390
0
  6
DOT
 62
     9
100
AcDbCircle
 10
95.099596
 20
195.993154
 30
0.0
 40
3.981494
210
0.0
220
0.0
230
1.0
100
AcDbArc
 50
162.086781
 51
169.944189
  0
LINE
  5
472
100
AcDbEntity
  8
1
390
0
  6
DOT
 62
     9
100
AcDbLine
 10
86.680154
 20
196.494814
 30
0.0
 11
86.368119
 21
196.688352
 31
0.0
  0
ARC
  5
473
100
AcDbEntity
  8
1
390
0
  6
DOT
 62
     9
100
AcDbCircle
 10
82.448729
 20
195.993388
 30
0.0
 40
3.980527
210
0.0
220
0.0
230
1.0
100
AcDbArc
 50
10.054855
 51
17.914174
  0
LINE
  5
474
100
AcDbEntity
  8
1
390
0
  6
DOT
 62
     9
100
AcDbLine
 10
90.867231
 20
200.061099
 30
0.0
 11
91.179266
 21
199.867561
 31
0.0
  0
ARC
  5
475
100
AcDbEntity
  8
1
390
0
  6
DOT
 62
     9
100
AcDbCircle
 10
95.098656
 20
200.562525
 30
0.0
 40
3.980527
210
0.0
220
0.0
230
1.0
100
AcDbArc
 50
190.054855
 51
197.914174
  0
LINE
  5
476
100
AcDbEntity
  8
1
390
0
  6
DOT
 62
     9
100
AcDbLine
 10
86.368119
 20
199.867561
 30
0.0
 11
86.680154
 21
200.061099
 31
0.0
  0
ARC
  5
477
100
AcDbEntity
  8
1
390
0
  6
DOT
 62
     9
100
AcDbCircle
 10
82.447789
 20
200.562759
 30
0.0
 40
3.981494
210
0.0
220
0.0
230
1.0
100
AcDbArc
 50
342.086781
 51
349.944189
  0
POLYLINE
  5
478
100
AcDbEntity
  8
1
390
0
  6
DOT
 62
     9
100
AcDb2dPolyline
 66
     1
 10
0.0
 20
0.0
 30
0.0
 40
1.0
 41
1.0
  0
VERTEX
  5
479
100
AcDbEntity
  8
1
390
0
 62
     9
100
AcDbVertex
100
AcDb2dVertex
 10
86.023693
 20
197.569084
 30
0.0
  0
VERTEX
  5
47A
100
AcDbEntity
  8
1
390
0
 62
     9
100
AcDbVertex
100
AcDb2dVertex
 10
86.107559
 20
197.508336
 30
0.0
  0
VERTEX
  5
47B
100
AcDbEntity
  8
1
390
0
 62
     9
100
AcDbVertex
100
AcDb2dVertex
 10
86.15748
 20
197.420339
 30
0.0
  0
VERTEX
  5
47C
100
AcDbEntity
  8
1
390
0
 62
     9
100
AcDbVertex
100
AcDb2dVertex
 10
86.169944
 20
197.393088
 30
0.0
  0
SEQEND
  5
47D
100
AcDbEntity
  8
0
390
0
  0
POLYLINE
  5
47E
100
AcDbEntity
  8
1
390
0
  6
DOT
 62
     9
100
AcDb2dPolyline
 66
     1
 10
0.0
 20
0.0
 30
0.0
 40
1.0
 41
1.0
  0
VERTEX
  5
47F
100
AcDbEntity
  8
1
390
0
 62
     9
100
AcDbVertex
100
AcDb2dVertex
 10
86.169944
 20
199.162825
 30
0.0
  0
VERTEX
  5
480
100
AcDbEntity
  8
1
390
0
 62
     9
100
AcDbVertex
100
AcDb2dVertex
 10
86.115214
 20
199.058746
 30
0.0
  0
VERTEX
  5
481
100
AcDbEntity
  8
1
390
0
 62
     9
100
AcDbVertex
100
AcDb2dVertex
 10
86.039464
 20
198.989041
 30
0.0
  0
VERTEX
  5
482
100
AcDbEntity
  8
1
390
0
 62
     9
100
AcDbVertex
100
AcDb2dVertex
 10
86.023693
 20
198.986829
 30
0.0
  0
SEQEND
  5
483
100
AcDbEntity
  8
0
390
0
  0
CIRCLE
  5
484
100
AcDbEntity
  8
1
390
0
  6
DOT
 62
     9
100
AcDbCircle
 10
88.773693
 20
198.277956
 30
0.0
 40
1.95
210
0.0
220
0.0
230
1.0
  0
CIRCLE
  5
485
100
AcDbEntity
  8
1
390
0
  6
DOT
 62
     9
100
AcDbCircle
 10
88.773693
 20
198.277956
 30
0.0
 40
1.9
210
0.0
220
0.0
230
1.0
  0
CIRCLE
  5
486
100
AcDbEntity
  8
1
390
0
  6
DOT
 62
     9
100
AcDbCircle
 10
88.773693
 20
198.277956
 30
0.0
 40
2.0
210
0.0
220
0.0
230
1.0
  0
CIRCLE
  5
487
100
AcDbEntity
  8
1
390
0
  6
DOT
 62
     9
100
AcDbCircle
 10
88.773693
 20
198.277956
 30
0.0
 40
2.655097
210
0.0
220
0.0
230
1.0
  0
CIRCLE
  5
488
100
AcDbEntity
  8
1
390
0
  6
DOT
 62
     9
100
AcDbCircle
 10
88.773693
 20
198.277956
 30
0.0
 40
3.1
210
0.0
220
0.0
230
1.0
  0
LINE
  5
489
100
AcDbEntity
  8
1
390
0
  6
DOT
 62
     9
100
AcDbLine
 10
87.992668
 20
201.277956
 30
0.0
 11
89.554718
 21
201.277956
 31
0.0
  0
ARC
  5
48A
100
AcDbEntity
  8
1
390
0
  6
DOT
 62
     9
100
AcDbCircle
 10
88.773693
 20
198.277956
 30
0.0
 40
3.2
210
0.0
220
0.0
230
1.0
100
AcDbArc
 50
110.364135
 51
249.635865
  0
LINE
  5
48B
100
AcDbEntity
  8
1
390
0
  6
DOT
 62
     9
100
AcDbLine
 10
87.992668
 20
195.277956
 30
0.0
 11
87.66014
 21
195.277956
 31
0.0
  0
LINE
  5
48C
100
AcDbEntity
  8
1
390
0
  6
DOT
 62
     9
100
AcDbLine
 10
87.66014
 20
201.277956
 30
0.0
 11
87.992668
 21
201.277956
 31
0.0
  0
LINE
  5
48D
100
AcDbEntity
  8
1
390
0
  6
DOT
 62
     9
100
AcDbLine
 10
89.554718
 20
195.277956
 30
0.0
 11
87.992668
 21
195.277956
 31
0.0
  0
ARC
  5
48E
100
AcDbEntity
  8
1
390
0
  6
DOT
 62
     9
100
AcDbCircle
 10
88.773693
 20
198.277956
 30
0.0
 40
3.2
210
0.0
220
0.0
230
1.0
100
AcDbArc
 50
290.364135
 51
69.635865
  0
LINE
  5
48F
100
AcDbEntity
  8
1
390
0
  6
DOT
 62
     9
100
AcDbLine
 10
89.887245
 20
195.277956
 30
0.0
 11
89.554718
 21
195.277956
 31
0.0
  0
LINE
  5
490
100
AcDbEntity
  8
1
390
0
  6
DOT
 62
     9
100
AcDbLine
 10
89.554718
 20
201.277956
 30
0.0
 11
89.887245
 21
201.277956
 31
0.0
  0
ARC
  5
491
100
AcDbEntity
  8
1
390
0
  6
DOT
 62
     9
100
AcDbCircle
 10
88.773693
 20
198.277956
 30
0.0
 40
3.2
210
0.0
220
0.0
230
1.0
100
AcDbArc
 50
69.635865
 51
110.364135
  0
ARC
  5
492
100
AcDbEntity
  8
1
390
0
  6
DOT
 62
     9
100
AcDbCircle
 10
88.773693
 20
198.277956
 30
0.0
 40
3.2
210
0.0
220
0.0
230
1.0
100
AcDbArc
 50
249.635865
 51
290.364135
  0
ARC
  5
493
100
AcDbEntity
  8
1
390
0
  6
DOT
 62
     9
100
AcDbCircle
 10
88.773693
 20
198.277956
 30
0.0
 40
2.5
210
0.0
220
0.0
230
1.0
100
AcDbArc
 50
180.0
 51
241.460578
  0
ARC
  5
494
100
AcDbEntity
  8
1
390
0
  6
DOT
 62
     9
100
AcDbCircle
 10
88.773693
 20
198.277956
 30
0.0
 40
2.5
210
0.0
220
0.0
230
1.0
100
AcDbArc
 50
241.460578
 51
298.361909
  0
ARC
  5
495
100
AcDbEntity
  8
1
390
0
  6
DOT
 62
     9
100
AcDbCircle
 10
88.773693
 20
198.277956
 30
0.0
 40
2.5
210
0.0
220
0.0
230
1.0
100
AcDbArc
 50
298.361909
 51
61.460578
  0
ARC
  5
496
100
AcDbEntity
  8
1
390
0
  6
DOT
 62
     9
100
AcDbCircle
 10
88.773693
 20
198.277956
 30
0.0
 40
2.5
210
0.0
220
0.0
230
1.0
100
AcDbArc
 50
61.460578
 51
118.361909
  0
ARC
  5
497
100
AcDbEntity
  8
1
390
0
  6
DOT
 62
     9
100
AcDbCircle
 10
88.773693
 20
198.277956
 30
0.0
 40
2.5
210
0.0
220
0.0
230
1.0
100
AcDbArc
 50
118.361909
 51
180.0
  0
LINE
  5
498
100
AcDbEntity
  8
1
390
0
  6
DOT
 62
     9
100
AcDbLine
 10
87.137386
 20
201.027956
 30
0.0
 11
87.342784
 21
201.027956
 31
0.0
  0
LINE
  5
499
100
AcDbEntity
  8
1
390
0
  6
DOT
 62
     9
100
AcDbLine
 10
87.342784
 20
201.027956
 30
0.0
 11
90.204601
 21
201.027956
 31
0.0
  0
LINE
  5
49A
100
AcDbEntity
  8
1
390
0
  6
DOT
 62
     9
100
AcDbLine
 10
90.204601
 20
201.027956
 30
0.0
 11
90.409999
 21
201.027956
 31
0.0
  0
LINE
  5
49B
100
AcDbEntity
  8
1
390
0
  6
DOT
 62
     9
100
AcDbLine
 10
90.409999
 20
195.527956
 30
0.0
 11
90.204601
 21
195.527956
 31
0.0
  0
LINE
  5
49C
100
AcDbEntity
  8
1
390
0
  6
DOT
 62
     9
100
AcDbLine
 10
90.204601
 20
195.527956
 30
0.0
 11
87.342784
 21
195.527956
 31
0.0
  0
LINE
  5
49D
100
AcDbEntity
  8
1
390
0
  6
DOT
 62
     9
100
AcDbLine
 10
87.342784
 20
195.527956
 30
0.0
 11
87.137386
 21
195.527956
 31
0.0
  0
CIRCLE
  5
49E
100
AcDbEntity
  8
1
390
0
  6
DOT
 62
     9
100
AcDbCircle
 10
88.773693
 20
198.277956
 30
0.0
 40
2.675
210
0.0
220
0.0
230
1.0
  0
ARC
  5
49F
100
AcDbEntity
  8
1
390
0
  6
DOT
 62
     9
100
AcDbCircle
 10
88.773693
 20
198.277956
 30
0.0
 40
3.175
210
0.0
220
0.0
230
0.9999999999999999
100
AcDbArc
 50
250.940044
 51
270.0
  0
ARC
  5
4A0
100
AcDbEntity
  8
1
390
0
  6
DOT
 62
     9
100
AcDbCircle
 10
88.773693
 20
198.277956
 30
0.0
 40
3.175
210
0.0
220
0.0
230
1.0
100
AcDbArc
 50
240.013333
 51
250.940044
  0
ARC
  5
4A1
100
AcDbEntity
  8
1
390
0
  6
DOT
 62
     9
100
AcDbCircle
 10
88.773693
 20
198.277956
 30
0.0
 40
3.175
210
0.0
220
0.0
230
1.0
100
AcDbArc
 50
119.986667
 51
240.013333
  0
ARC
  5
4A2
100
AcDbEntity
  8
1
390
0
  6
DOT
 62
     9
100
AcDbCircle
 10
88.773693
 20
198.277956
 30
0.0
 40
3.175
210
0.0
220
0.0
230
1.0
100
AcDbArc
 50
109.059956
 51
119.986667
  0
ARC
  5
4A3
100
AcDbEntity
  8
1
390
0
  6
DOT
 62
     9
100
AcDbCircle
 10
88.773693
 20
198.277956
 30
0.0
 40
3.175
210
0.0
220
0.0
230
1.0
100
AcDbArc
 50
70.940044
 51
109.059956
  0
ARC
  5
4A4
100
AcDbEntity
  8
1
390
0
  6
DOT
 62
     9
100
AcDbCircle
 10
88.773693
 20
198.277956
 30
0.0
 40
3.175
210
0.0
220
0.0
230
1.0
100
AcDbArc
 50
60.013333
 51
70.940044
  0
ARC
  5
4A5
100
AcDbEntity
  8
1
390
0
  6
DOT
 62
     9
100
AcDbCircle
 10
88.773693
 20
198.277956
 30
0.0
 40
3.175
210
0.0
220
0.0
230
1.0
100
AcDbArc
 50
299.986667
 51
60.013333
  0
ARC
  5
4A6
100
AcDbEntity
  8
1
390
0
  6
DOT
 62
     9
100
AcDbCircle
 10
88.773693
 20
198.277956
 30
0.0
 40
3.175
210
0.0
220
0.0
230
1.0
100
AcDbArc
 50
289.059956
 51
299.986667
  0
ARC
  5
4A7
100
AcDbEntity
  8
1
390
0
  6
DOT
 62
     9
100
AcDbCircle
 10
88.773693
 20
198.277956
 30
0.0
 40
3.175
210
0.0
220
0.0
230
1.0
100
AcDbArc
 50
270.0
 51
289.059956
  0
ARC
  5
4A8
100
AcDbEntity
  8
1
390
0
  6
DOT
 62
     9
100
AcDbCircle
 10
88.773693
 20
198.277956
 30
0.0
 40
3.075
210
0.0
220
0.0
230
1.0
100
AcDbArc
 50
0.0
 51
63.419803
  0
ARC
  5
4A9
100
AcDbEntity
  8
1
390
0
  6
DOT
 62
     9
100
AcDbCircle
 10
88.773693
 20
198.277956
 30
0.0
 40
3.075
210
0.0
220
0.0
230
1.0
100
AcDbArc
 50
63.419803
 51
76.100551
  0
ARC
  5
4AA
100
AcDbEntity
  8
1
390
0
  6
DOT
 62
     9
100
AcDbCircle
 10
88.773693
 20
198.277956
 30
0.0
 40
3.075
210
0.0
220
0.0
230
0.9999999999999999
100
AcDbArc
 50
76.100551
 51
103.899449
  0
ARC
  5
4AB
100
AcDbEntity
  8
1
390
0
  6
DOT
 62
     9
100
AcDbCircle
 10
88.773693
 20
198.277956
 30
0.0
 40
3.075
210
0.0
220
0.0
230
1.0
100
AcDbArc
 50
103.899449
 51
116.580197
  0
ARC
  5
4AC
100
AcDbEntity
  8
1
390
0
  6
DOT
 62
     9
100
AcDbCircle
 10
88.773693
 20
198.277956
 30
0.0
 40
3.075
210
0.0
220
0.0
230
1.0
100
AcDbArc
 50
116.580197
 51
243.419803
  0
ARC
  5
4AD
100
AcDbEntity
  8
1
390
0
  6
DOT
 62
     9
100
AcDbCircle
 10
88.773693
 20
198.277956
 30
0.0
 40
3.075
210
0.0
220
0.0
230
1.0
100
AcDbArc
 50
243.419803
 51
256.100551
  0
ARC
  5
4AE
100
AcDbEntity
  8
1
390
0
  6
DOT
 62
     9
100
AcDbCircle
 10
88.773693
 20
198.277956
 30
0.0
 40
3.075
210
0.0
220
0.0
230
1.0
100
AcDbArc
 50
256.100551
 51
283.899449
  0
ARC
  5
4AF
100
AcDbEntity
  8
1
390
0
  6
DOT
 62
     9
100
AcDbCircle
 10
88.773693
 20
198.277956
 30
0.0
 40
3.075
210
0.0
220
0.0
230
0.9999999999999999
100
AcDbArc
 50
283.899449
 51
296.580197
  0
ARC
  5
4B0
100
AcDbEntity
  8
1
390
0
  6
DOT
 62
     9
100
AcDbCircle
 10
88.773693
 20
198.277956
 30
0.0
 40
3.075
210
0.0
220
0.0
230
1.0
100
AcDbArc
 50
296.580197
 51
360.0
  0
CIRCLE
  5
4B1
100
AcDbEntity
  8
1
390
0
  6
DOT
 62
     9
100
AcDbCircle
 10
88.773693
 20
198.277956
 30
0.0
 40
3.0
210
0.0
220
0.0
230
1.0
  0
ARC
  5
4B2
100
AcDbEntity
  8
1
390
0
  6
DOT
 62
     9
100
AcDbCircle
 10
88.773693
 20
198.277956
 30
0.0
 40
2.475
210
0.0
220
0.0
230
1.0
100
AcDbArc
 50
270.0
 51
65.281035
  0
ARC
  5
4B3
100
AcDbEntity
  8
1
390
0
  6
DOT
 62
     9
100
AcDbCircle
 10
88.773693
 20
198.277956
 30
0.0
 40
2.475
210
0.0
220
0.0
230
1.0
100
AcDbArc
 50
65.281035
 51
245.281035
  0
ARC
  5
4B4
100
AcDbEntity
  8
1
390
0
  6
DOT
 62
     9
100
AcDbCircle
 10
88.773693
 20
198.277956
 30
0.0
 40
2.475
210
0.0
220
0.0
230
1.0
100
AcDbArc
 50
245.281035
 51
270.0
  0
LINE
  5
4B5
100
AcDbEntity
  8
1
390
0
  6
Continuous
 62
     7
100
AcDbLine
 10
92.473693
 20
193.277956
 30
0.0
 11
92.973693
 21
193.777956
 31
0.0
  0
LINE
  5
4B6
100
AcDbEntity
  8
1
390
0
  6
Continuous
 62
     7
100
AcDbLine
 10
92.973693
 20
202.777956
 30
0.0
 11
92.473693
 21
203.277956
 31
0.0
  0
LINE
  5
4B7
100
AcDbEntity
  8
1
390
0
  6
Continuous
 62
     7
100
AcDbLine
 10
92.473693
 20
203.277956
 30
0.0
 11
85.973693
 21
203.277956
 31
0.0
  0
LINE
  5
4B8
100
AcDbEntity
  8
1
390
0
  6
Continuous
 62
     7
100
AcDbLine
 10
85.973693
 20
193.277956
 30
0.0
 11
92.473693
 21
193.277956
 31
0.0
  0
LINE
  5
4B9
100
AcDbEntity
  8
1
390
0
  6
Continuous
 62
     7
100
AcDbLine
 10
85.973693
 20
203.277956
 30
0.0
 11
85.473693
 21
202.777956
 31
0.0
  0
LINE
  5
4BA
100
AcDbEntity
  8
1
390
0
  6
Continuous
 62
     7
100
AcDbLine
 10
85.473693
 20
193.777956
 30
0.0
 11
85.973693
 21
193.277956
 31
0.0
  0
ARC
  5
4BB
100
AcDbEntity
  8
1
390
0
  6
Continuous
 62
     7
100
AcDbCircle
 10
93.073693
 20
200.377956
 30
0.0
 40
0.1
210
0.0
220
0.0
230
1.0
100
AcDbArc
 50
180.0
 51
270.0
  0
ARC
  5
4BC
100
AcDbEntity
  8
1
390
0
  6
Continuous
 62
     7
100
AcDbCircle
 10
93.073693
 20
196.177956
 30
0.0
 40
0.1
210
0.0
220
0.0
230
1.0
100
AcDbArc
 50
90.0
 51
180.0
  0
LINE
  5
4BD
100
AcDbEntity
  8
1
390
0
  6
Continuous
 62
     7
100
AcDbLine
 10
93.274519
 20
200.277956
 30
0.0
 11
93.073693
 21
200.277956
 31
0.0
  0
LINE
  5
4BE
100
AcDbEntity
  8
1
390
0
  6
Continuous
 62
     7
100
AcDbLine
 10
93.073693
 20
196.277956
 30
0.0
 11
93.274519
 21
196.277956
 31
0.0
  0
ARC
  5
4BF
100
AcDbEntity
  8
1
390
0
  6
Continuous
 62
     7
100
AcDbCircle
 10
93.274519
 20
200.177956
 30
0.0
 40
0.1
210
0.0
220
0.0
230
1.0
100
AcDbArc
 50
11.064807
 51
90.0
  0
ARC
  5
4C0
100
AcDbEntity
  8
1
390
0
  6
Continuous
 62
     7
100
AcDbCircle
 10
93.274519
 20
196.377956
 30
0.0
 40
0.1
210
0.0
220
0.0
230
1.0
100
AcDbArc
 50
270.0
 51
348.935193
  0
ARC
  5
4C1
100
AcDbEntity
  8
1
390
0
  6
Continuous
 62
     7
100
AcDbCircle
 10
83.558553
 20
198.277956
 30
0.0
 40
10.0
210
0.0
220
0.0
230
1.0
100
AcDbArc
 50
348.935193
 51
352.530408
  0
ARC
  5
4C2
100
AcDbEntity
  8
1
390
0
  6
Continuous
 62
     7
100
AcDbCircle
 10
83.558553
 20
198.277956
 30
0.0
 40
10.0
210
0.0
220
0.0
230
1.0
100
AcDbArc
 50
7.469592
 51
11.064807
  0
LINE
  5
4C3
100
AcDbEntity
  8
1
390
0
  6
CENTER
 62
     1
100
AcDbLine
 10
93.473693
 20
198.277956
 30
0.0
 11
84.973693
 21
198.277956
 31
0.0
  0
LINE
  5
4C4
100
AcDbEntity
  8
1
390
0
  6
Continuous
 62
     7
100
AcDbLine
 10
245.031278
 20
201.377956
 30
0.0
 11
243.531278
 21
200.933054
 31
0.0
  0
LINE
  5
4C5
100
AcDbEntity
  8
1
390
0
  6
Continuous
 62
     7
100
AcDbLine
 10
243.531278
 20
195.622859
 30
0.0
 11
245.031278
 21
195.177956
 31
0.0
  0
LINE
  5
4C6
100
AcDbEntity
  8
1
390
0
  6
Continuous
 62
     7
100
AcDbLine
 10
245.031278
 20
195.177956
 30
0.0
 11
258.031278
 21
195.177956
 31
0.0
  0
LINE
  5
4C7
100
AcDbEntity
  8
1
390
0
  6
Continuous
 62
     7
100
AcDbLine
 10
258.031278
 20
201.377956
 30
0.0
 11
245.031278
 21
201.377956
 31
0.0
  0
LINE
  5
4C8
100
AcDbEntity
  8
1
390
0
  6
Continuous
 62
     7
100
AcDbLine
 10
243.531278
 20
200.933054
 30
0.0
 11
231.031278
 21
200.277956
 31
0.0
  0
LINE
  5
4C9
100
AcDbEntity
  8
1
390
0
  6
Continuous
 62
     7
100
AcDbLine
 10
231.031278
 20
196.277956
 30
0.0
 11
243.531278
 21
195.622859
 31
0.0
  0
LINE
  5
4CA
100
AcDbEntity
  8
1
390
0
  6
Continuous
 62
     7
100
AcDbLine
 10
245.031278
 20
131.224845
 30
0.0
 11
258.031278
 21
131.224845
 31
0.0
  0
LINE
  5
4CB
100
AcDbEntity
  8
1
390
0
  6
Continuous
 62
     7
100
AcDbLine
 10
258.031278
 20
137.424845
 30
0.0
 11
245.031278
 21
137.424845
 31
0.0
  0
LINE
  5
4CC
100
AcDbEntity
  8
1
390
0
  6
Continuous
 62
     7
100
AcDbLine
 10
245.031278
 20
137.424845
 30
0.0
 11
243.531278
 21
136.979942
 31
0.0
  0
LINE
  5
4CD
100
AcDbEntity
  8
1
390
0
  6
Continuous
 62
     7
100
AcDbLine
 10
243.531278
 20
131.669747
 30
0.0
 11
245.031278
 21
131.224845
 31
0.0
  0
LINE
  5
4CE
100
AcDbEntity
  8
1
390
0
  6
Continuous
 62
     7
100
AcDbLine
 10
243.531278
 20
136.979942
 30
0.0
 11
231.031278
 21
136.324845
 31
0.0
  0
LINE
  5
4CF
100
AcDbEntity
  8
1
390
0
  6
Continuous
 62
     7
100
AcDbLine
 10
231.031278
 20
132.324845
 30
0.0
 11
243.531278
 21
131.669747
 31
0.0
  0
INSERT
  5
4E2
100
AcDbEntity
  8
1
390
0
100
AcDbBlockReference
  2
AID1714
 10
0.0
 20
0.0
 30
0.0
  0
LINE
  5
4E3
100
AcDbEntity
  8
1
390
0
  6
Continuous
 62
     7
100
AcDbLine
 10
169.784159
 20
196.377956
 30
0.0
 11
169.784159
 21
200.177956
 31
0.0
  0
LINE
  5
4E4
100
AcDbEntity
  8
1
390
0
  6
Continuous
 62
     7
100
AcDbLine
 10
153.784159
 20
131.574845
 30
0.0
 11
153.784159
 21
131.524845
 31
0.0
  0
LINE
  5
4E5
100
AcDbEntity
  8
1
390
0
  6
Continuous
 62
     7
100
AcDbLine
 10
153.784159
 20
138.024845
 30
0.0
 11
153.784159
 21
137.974845
 31
0.0
  0
LINE
  5
4E6
100
AcDbEntity
  8
1
390
0
  6
Continuous
 62
     7
100
AcDbLine
 10
169.784159
 20
132.424845
 30
0.0
 11
169.784159
 21
136.224845
 31
0.0
  0
CIRCLE
  5
4E7
100
AcDbEntity
  8
1
390
0
  6
DOT
 62
     9
100
AcDbCircle
 10
88.773693
 20
198.277956
 30
0.0
 40
1.25
210
0.0
220
0.0
230
1.0
  0
ENDSEC
  0
SECTION
  2
OBJECTS
  0
DICTIONARY
  5
19
100
AcDbDictionary
280
     0
281
     1
  3
ACAD_GROUP
350
1A
  3
ACAD_MLINESTYLE
350
1B
  3
ACAD_LAYOUT
350
1E
  3
ACAD_PLOTSETTINGS
350
22
  3
ACAD_PLOTSTYLENAME
350
1F
  3
ACAD_WIPEOUT_VARS
350
23
  0
DICTIONARY
  5
1A
102
{ACAD_REACTORS
330
19
102
}
100
AcDbDictionary
280
     0
281
     1
  0
DICTIONARY
  5
1B
102
{ACAD_REACTORS
330
19
102
}
100
AcDbDictionary
280
     0
281
     1
  3
Standard
350
1C
  0
MLINESTYLE
  5
1C
102
{ACAD_REACTORS
330
1B
102
}
100
AcDbMlineStyle
  2
Standard
 70
     0
  3

 62
     0
 51
90.0
 52
90.0
 71
     2
 49
0.5
 62
   256
  6
ByLayer
 49
-0.5
 62
   256
  6
ByLayer
  0
ACDBDICTIONARYWDFLT
  5
1F
102
{ACAD_REACTORS
330
19
102
}
100
AcDbDictionary
281
     1
  3
Normal
350
1D
100
AcDbDictionaryWithDefault
340
1D
  0
ACDBPLACEHOLDER
  5
1D
102
{ACAD_REACTORS
330
1F
102
}
  0
LAYOUT
  5
20
102
{ACAD_REACTORS
330
1E
102
}
100
AcDbPlotSettings
  1

  2

  4

  6

 40
0.0
 41
0.0
 42
0.0
 43
0.0
 44
0.0
 45
0.0
 46
0.0
 47
0.0
 48
0.0
 49
0.0
140
0.0
141
0.0
142
1.0
143
1.0
 70
  1024
 72
     0
 73
     0
 74
     0
  7

 75
     0
147
1.0
148
0.0
149
0.0
100
AcDbLayout
  1
Model
 70
     0
 71
     0
 10
0.0
 20
0.0
 11
0.0
 21
0.0
 12
0.0
 22
0.0
 32
0.0
 14
0.0
 24
0.0
 34
0.0
 15
0.0
 25
0.0
 35
0.0
146
0.0
 13
0.0
 23
0.0
 33
0.0
 16
0.0
 26
0.0
 36
0.0
 17
0.0
 27
0.0
 37
0.0
 76
     0
330
A
331
0
345
0
346
0
  0
LAYOUT
  5
21
102
{ACAD_REACTORS
330
1E
102
}
100
AcDbPlotSettings
  1

  2

  4

  6

 40
0.0
 41
0.0
 42
0.0
 43
0.0
 44
0.0
 45
0.0
 46
0.0
 47
0.0
 48
0.0
 49
0.0
140
0.0
141
0.0
142
1.0
143
1.0
 70
     0
 72
     0
 73
     0
 74
     0
  7

 75
     0
147
1.0
148
0.0
149
0.0
100
AcDbLayout
  1
Layout1
 70
     0
 71
     0
 10
0.0
 20
0.0
 11
0.0
 21
0.0
 12
0.0
 22
0.0
 32
0.0
 14
0.0
 24
0.0
 34
0.0
 15
0.0
 25
0.0
 35
0.0
146
0.0
 13
0.0
 23
0.0
 33
0.0
 16
0.0
 26
0.0
 36
0.0
 17
0.0
 27
0.0
 37
0.0
 76
     0
330
B
331
0
345
0
346
0
  0
DICTIONARY
  5
1E
102
{ACAD_REACTORS
330
19
102
}
100
AcDbDictionary
280
     0
281
     1
  3
Layout1
350
21
  3
Model
350
20
  0
DICTIONARY
  5
22
102
{ACAD_REACTORS
330
19
102
}
100
AcDbDictionary
280
     0
281
     1
  0
WIPEOUTVARIABLES
  5
23
100
AcDbWipeoutVariables
 70
     1
  0
ENDSEC
  0
EOF
