  0
SECTION
  2
HEADER
  9
$ACADVER
  1
AC1015
  9
$ACADMAINTVER
 70
     6
  9
$DWGCODEPAGE
  3
DOS932
  9
$INSBASE
 10
0.0
 20
0.0
 30
0.0
  9
$EXTMIN
 10
-278.862069
 20
0.0
 30
0.0
  9
$EXTMAX
 10
739.637931
 20
297.0
 30
5.0
  9
$LIMMIN
 10
-278.862069
 20
0.0
  9
$LIMMAX
 10
739.637931
 20
297.0
  9
$ORTHOMODE
 70
     0
  9
$REGENMODE
 70
     1
  9
$FILLMODE
 70
     1
  9
$QTEXTMODE
 70
     0
  9
$MIRRTEXT
 70
     1
  9
$LTSCALE
 40
10.0
  9
$ATTMODE
 70
     1
  9
$TEXTSIZE
 40
0.2
  9
$TRACEWID
 40
0.05
  9
$TEXTSTYLE
  7
Standard
  9
$CLAYER
  8
0
  9
$CELTYPE
  6
Continuous
  9
$CECOLOR
 62
   256
  9
$CELTSCALE
 40
1.0
  9
$DISPSILH
 70
     0
  9
$DIMSCALE
 40
1.0
  9
$DIMASZ
 40
1.8
  9
$DIMEXO
 40
1.8
  9
$DIMDLI
 40
0.38
  9
$DIMRND
 40
0.0
  9
$DIMDLE
 40
0.0
  9
$DIMEXE
 40
1.8
  9
$DIMTP
 40
0.0
  9
$DIMTM
 40
0.0
  9
$DIMTXT
 40
6.0
  9
$DIMCEN
 40
0.09
  9
$DIMTSZ
 40
0.0
  9
$DIMTOL
 70
     0
  9
$DIMLIM
 70
     0
  9
$DIMTIH
 70
     0
  9
$DIMTOH
 70
     0
  9
$DIMSE1
 70
     0
  9
$DIMSE2
 70
     0
  9
$DIMTAD
 70
     1
  9
$DIMZIN
 70
     0
  9
$DIMBLK
  1

  9
$DIMASO
 70
     1
  9
$DIMSHO
 70
     1
  9
$DIMPOST
  1

  9
$DIMAPOST
  1

  9
$DIMALT
 70
     0
  9
$DIMALTD
 70
     2
  9
$DIMALTF
 40
25.4
  9
$DIMLFAC
 40
1.0
  9
$DIMTOFL
 70
     0
  9
$DIMTVP
 40
0.0
  9
$DIMTIX
 70
     0
  9
$DIMSOXD
 70
     0
  9
$DIMSAH
 70
     0
  9
$DIMBLK1
  1

  9
$DIMBLK2
  1

  9
$DIMSTYLE
  2
Standard
  9
$DIMCLRD
 70
     7
  9
$DIMCLRE
 70
     7
  9
$DIMCLRT
 70
     7
  9
$DIMTFAC
 40
0.7
  9
$DIMGAP
 40
1.2
  9
$DIMJUST
 70
     0
  9
$DIMSD1
 70
     0
  9
$DIMSD2
 70
     0
  9
$DIMTOLJ
 70
     1
  9
$DIMTZIN
 70
     0
  9
$DIMALTZ
 70
     0
  9
$DIMALTTZ
 70
     0
  9
$DIMUPT
 70
     0
  9
$DIMDEC
 70
     7
  9
$DIMTDEC
 70
     4
  9
$DIMALTU
 70
     2
  9
$DIMALTTD
 70
     2
  9
$DIMTXSTY
  7
Standard
  9
$DIMAUNIT
 70
     0
  9
$DIMADEC
 70
     0
  9
$DIMALTRND
 40
0.0
  9
$DIMAZIN
 70
     0
  9
$DIMDSEP
 70
     0
  9
$DIMATFIT
 70
     3
  9
$DIMFRAC
 70
     0
  9
$DIMLDRBLK
  1

  9
$DIMLUNIT
 70
     2
  9
$DIMLWD
 70
     0
  9
$DIMLWE
 70
     0
  9
$DIMTMOVE
 70
     0
  9
$LUNITS
 70
     2
  9
$LUPREC
 70
     4
  9
$SKETCHINC
 40
0.1
  9
$FILLETRAD
 40
0.0
  9
$AUNITS
 70
     0
  9
$AUPREC
 70
     0
  9
$MENU
  1
acad
  9
$ELEVATION
 40
0.0
  9
$PELEVATION
 40
0.0
  9
$THICKNESS
 40
0.0
  9
$LIMCHECK
 70
     0
  9
$CHAMFERA
 40
0.0
  9
$CHAMFERB
 40
0.0
  9
$CHAMFERC
 40
0.0
  9
$CHAMFERD
 40
0.0
  9
$SKPOLY
 70
     0
  9
$TDCREATE
 40
2459772.409155093
  9
$TDUCREATE
 40
0.000000000
  9
$TDUPDATE
 40
2459772.033912037
  9
$TDUUPDATE
 40
0.000000000
  9
$TDINDWG
 40
0.0000000000
  9
$TDUSRTIMER
 40
0.0000000000
  9
$USRTIMER
 70
     1
  9
$ANGBASE
 50
0.0
  9
$ANGDIR
 70
     0
  9
$PDMODE
 70
     0
  9
$PDSIZE
 40
0.0
  9
$PLINEWID
 40
0.0
  9
$SPLFRAME
 70
     0
  9
$SPLINETYPE
 70
     6
  9
$SPLINESEGS
 70
     8
  9
$HANDSEED
  5
559
  9
$SURFTAB1
 70
     6
  9
$SURFTAB2
 70
     6
  9
$SURFTYPE
 70
     6
  9
$SURFU
 70
     6
  9
$SURFV
 70
     6
  9
$UCSBASE
  2

  9
$UCSNAME
  2

  9
$UCSORG
 10
0.0
 20
0.0
 30
0.0
  9
$UCSXDIR
 10
1.0
 20
0.0
 30
0.0
  9
$UCSYDIR
 10
0.0
 20
1.0
 30
0.0
  9
$UCSORTHOREF
  2

  9
$UCSORTHOVIEW
 70
     0
  9
$UCSORGTOP
 10
0.0
 20
0.0
 30
0.0
  9
$UCSORGBOTTOM
 10
0.0
 20
0.0
 30
0.0
  9
$UCSORGLEFT
 10
0.0
 20
0.0
 30
0.0
  9
$UCSORGRIGHT
 10
0.0
 20
0.0
 30
0.0
  9
$UCSORGFRONT
 10
0.0
 20
0.0
 30
0.0
  9
$UCSORGBACK
 10
0.0
 20
0.0
 30
0.0
  9
$PUCSBASE
  2

  9
$PUCSNAME
  2

  9
$PUCSORG
 10
0.0
 20
0.0
 30
0.0
  9
$PUCSXDIR
 10
1.0
 20
0.0
 30
0.0
  9
$PUCSYDIR
 10
0.0
 20
1.0
 30
0.0
  9
$PUCSORTHOREF
  2

  9
$PUCSORTHOVIEW
 70
     0
  9
$PUCSORGTOP
 10
0.0
 20
0.0
 30
0.0
  9
$PUCSORGBOTTOM
 10
0.0
 20
0.0
 30
0.0
  9
$PUCSORGLEFT
 10
0.0
 20
0.0
 30
0.0
  9
$PUCSORGRIGHT
 10
0.0
 20
0.0
 30
0.0
  9
$PUCSORGFRONT
 10
0.0
 20
0.0
 30
0.0
  9
$PUCSORGBACK
 10
0.0
 20
0.0
 30
0.0
  9
$USERI1
 70
     0
  9
$USERI2
 70
     0
  9
$USERI3
 70
     0
  9
$USERI4
 70
     0
  9
$USERI5
 70
     0
  9
$USERR1
 40
0.0
  9
$USERR2
 40
0.0
  9
$USERR3
 40
0.0
  9
$USERR4
 40
0.0
  9
$USERR5
 40
0.0
  9
$WORLDVIEW
 70
     1
  9
$SHADEDGE
 70
     3
  9
$SHADEDIF
 70
    70
  9
$TILEMODE
 70
     1
  9
$MAXACTVP
 70
    16
  9
$PINSBASE
 10
0.0
 20
0.0
 30
0.0
  9
$PLIMCHECK
 70
     0
  9
$PEXTMIN
 10
1.000000E+20
 20
1.000000E+20
 30
1.000000E+20
  9
$PEXTMAX
 10
-1.000000E+20
 20
-1.000000E+20
 30
-1.000000E+20
  9
$PLIMMIN
 10
0.0
 20
0.0
  9
$PLIMMAX
 10
12.0
 20
9.0
  9
$UNITMODE
 70
     0
  9
$VISRETAIN
 70
     0
  9
$PLINEGEN
 70
     1
  9
$PSLTSCALE
 70
     0
  9
$TREEDEPTH
 70
  3020
  9
$CMLSTYLE
  2
Standard
  9
$CMLJUST
 70
     0
  9
$CMLSCALE
 40
1.0
  9
$PROXYGRAPHICS
 70
     0
  9
$MEASUREMENT
 70
     0
  9
$CELWEIGHT
370
     0
  9
$ENDCAPS
280
     0
  9
$JOINSTYLE
280
     0
  9
$LWDISPLAY
290
     0
  9
$INSUNITS
 70
     0
  9
$HYPERLINKBASE
  1

  9
$STYLESHEET
  1

  9
$XEDIT
290
     1
  9
$CEPSNTYPE
380
     0
  9
$PSTYLEMODE
290
     1
  9
$FINGERPRINTGUID
  2

  9
$VERSIONGUID
  2

  9
$EXTNAMES
290
     1
  9
$PSVPSCALE
 40
0.0
  0
ENDSEC
  0
SECTION
  2
CLASSES
  0
CLASS
  1
LWPOLYLINE
  2
AcDbPolyline
  3
AutoCAD 2000
 90
        0
280
     0
281
     1
  0
CLASS
  1
IMAGE
  2
AcDbRasterImage
  3
ISM
 90
      127
280
     0
281
     1
  0
CLASS
  1
OLE2FRAME
  2
AcDbOle2Frame
  3
AutoCAD 2000
 90
        0
280
     0
281
     1
  0
CLASS
  1
HATCH
  2
AcDbHatch
  3
AutoCAD 2000
 90
        0
280
     0
281
     1
  0
CLASS
  1
DICTIONARYVAR
  2
AcDbDictionaryVar
  3
AutoCAD 2000
 90
        0
280
     0
281
     0
  0
CLASS
  1
RASTERVARIABLES
  2
AcDbRasterVariables
  3
ISM
 90
        0
280
     0
281
     0
  0
CLASS
  1
IMAGEDEF
  2
AcDbRasterImageDef
  3
ISM
 90
        0
280
     0
281
     0
  0
CLASS
  1
IMAGEDEF_REACTOR
  2
AcDbRasterImageDefReactor
  3
ISM
 90
        1
280
     0
281
     0
  0
CLASS
  1
IDBUFFER
  2
AcDbIdBuffer
  3
AutoCAD 2000
 90
        0
280
     0
281
     0
  0
CLASS
  1
SPATIAL_FILTER
  2
AcDbSpatialFilter
  3
AutoCAD 2000
 90
        0
280
     0
281
     0
  0
CLASS
  1
XRECORD
  2
AcDbXrecord
  3
AutoCAD 2000
 90
        0
280
     0
281
     0
  0
CLASS
  1
SORTENTSTABLE
  2
AcDbSortentsTable
  3
AutoCAD 2000
 90
        0
280
     0
281
     0
  0
CLASS
  1
LAYER_INDEX
  2
AcDbLayerIndex
  3
AutoCAD 2000
 90
        0
280
     0
281
     0
  0
CLASS
  1
SPATIAL_INDEX
  2
AcDbSpatialIndex
  3
AutoCAD 2000
 90
        0
280
     0
281
     0
  0
CLASS
  1
OBJECT_PTR
  2
CAseDLPNTableRecord
  3
"ASE-LPNTableRecord"
 90
        1
280
     0
281
     0
  0
CLASS
  1
LAYOUT
  2
AcDbLayout
  3
AutoCAD 2000
 90
        0
280
     0
281
     0
  0
CLASS
  1
PLOTSETTINGS
  2
AcDbPlotSettings
  3
AutoCAD 2000
 90
        0
280
     0
281
     0
  0
CLASS
  1
ACDBDICTIONARYWDFLT
  2
AcDbDictionaryWithDefault
  3
AutoCAD 2000
 90
        0
280
     0
281
     0
  0
CLASS
  1
ACDBPLACEHOLDER
  2
AcDbPlaceHolder
  3
AutoCAD 2000
 90
        0
280
     0
281
     0
  0
CLASS
  1
VBA_PROJECT
  2
AcDbVbaProject
  3
acadvba
 90
        0
280
     0
281
     0
  0
CLASS
  1
WIPEOUT
  2
AcDbWipeout
  3
WipeOut|AutoCAD Express Tool|expresstools@autodesk.com
 90
      127
280
     0
281
     1
  0
CLASS
  1
WIPEOUTVARIABLES
  2
AcDbWipeoutVariables
  3
WipeOut|AutoCAD Express Tool|expresstools@autodesk.com
 90
        0
280
     0
281
     0
  0
CLASS
  1
RTEXT
  2
RText
  3
RText|AutoCAD Express Tool|expresstools@autodesk.com
 90
        0
280
     0
281
     1
  0
CLASS
  1
ARCALIGNEDTEXT
  2
AcDbArcAlignedText
  3
ATEXT|AutoCAD Express Tool|expresstools@autodesk.com
 90
        0
280
     0
281
     1
  0
ENDSEC
  0
SECTION
  2
TABLES
  0
TABLE
  2
VPORT
  5
7
100
AcDbSymbolTable
 70
     1
  0
VPORT
  5
15
100
AcDbSymbolTableRecord
100
AcDbViewportTableRecord
  2
*ACTIVE
 70
     0
 10
0.0
 20
0.0
 11
1.0
 21
1.0
 12
6.591288
 22
4.579184
 13
0.0
 23
0.0
 14
1.0
 24
1.0
 15
0.0
 25
0.0
 16
0.0
 26
0.0
 36
1.0
 17
0.0
 27
0.0
 37
0.0
 40
9.158369
 41
0.688564
 42
50.0
 43
0.0
 44
0.0
 50
0.0
 51
0.0
 71
     0
 72
   100
 73
     1
 74
     1
 75
     0
 76
     0
 77
     0
 78
     0
281
     0
 65
     0
110
0.0
120
0.0
130
0.0
111
1.0
121
0.0
131
0.0
112
0.0
122
1.0
132
0.0
345
0
346
0
 79
     0
146
0.0
  0
ENDTAB
  0
TABLE
  2
LTYPE
  5
4
100
AcDbSymbolTable
 70
     5
  0
LTYPE
  5
11
100
AcDbSymbolTableRecord
100
AcDbLinetypeTableRecord
  2
ByBlock
 70
    64
  3

 72
    65
 73
     0
 40
0.0
  0
LTYPE
  5
12
100
AcDbSymbolTableRecord
100
AcDbLinetypeTableRecord
  2
ByLayer
 70
    64
  3

 72
    65
 73
     0
 40
0.0
  0
LTYPE
  5
13
100
AcDbSymbolTableRecord
100
AcDbLinetypeTableRecord
  2
Continuous
 70
    64
  3
Solid line
 72
    65
 73
     0
 40
0.0
  0
LTYPE
  5
187
100
AcDbSymbolTableRecord
100
AcDbLinetypeTableRecord
  2
DOT
 70
    64
  3
..............................................
 72
    65
 73
     2
 40
0.5
 49
0.25
 74
     0
 49
-0.25
 74
     0
  0
LTYPE
  5
22B
100
AcDbSymbolTableRecord
100
AcDbLinetypeTableRecord
  2
CENTER
 70
    64
  3
____ _ ____ _ ____ _ ____ _ ____ _ ____ _ ____
 72
    65
 73
     4
 40
2.0
 49
1.25
 74
     0
 49
-0.25
 74
     0
 49
0.25
 74
     0
 49
-0.25
 74
     0
  0
ENDTAB
  0
TABLE
  2
LAYER
  5
2
100
AcDbSymbolTable
 70
     4
  0
LAYER
  5
14
100
AcDbSymbolTableRecord
100
AcDbLayerTableRecord
  2
0
 70
     0
 62
     7
  6
Continuous
290
     1
370
    -3
390
1D
  0
LAYER
  5
2B
100
AcDbSymbolTableRecord
100
AcDbLayerTableRecord
  2
256
 70
     0
 62
     7
  6
Continuous
290
     1
370
    -3
390
1D
  0
LAYER
  5
BC
100
AcDbSymbolTableRecord
100
AcDbLayerTableRecord
  2
1
 70
     0
 62
     7
  6
Continuous
290
     1
370
    -3
390
1D
  0
LAYER
  5
228
100
AcDbSymbolTableRecord
100
AcDbLayerTableRecord
  2
5
 70
     0
 62
    -7
  6
Continuous
290
     1
370
    -3
390
1D
  0
ENDTAB
  0
TABLE
  2
STYLE
  5
3
100
AcDbSymbolTable
 70
     1
  0
STYLE
  5
17
100
AcDbSymbolTableRecord
100
AcDbTextStyleTableRecord
  2
Standard
 70
     0
 40
0.0
 41
1.0
 50
0.0
 71
     0
 42
0.0
  3
ＭＳ Ｐゴシック
  4

1001
ACAD
1000
ＭＳ Ｐゴシック
1071
        0
  0
ENDTAB
  0
TABLE
  2
VIEW
  5
5
100
AcDbSymbolTable
 70
     0
  0
ENDTAB
  0
TABLE
  2
UCS
  5
6
100
AcDbSymbolTable
 70
     0
  0
ENDTAB
  0
TABLE
  2
APPID
  5
8
100
AcDbSymbolTable
 70
     2
  0
APPID
  5
16
100
AcDbSymbolTableRecord
100
AcDbRegAppTableRecord
  2
ACAD
 70
     0
  0
APPID
  5
26
100
AcDbSymbolTableRecord
100
AcDbRegAppTableRecord
  2
TOPsolid_Draft
 70
     0
  0
ENDTAB
  0
TABLE
  2
DIMSTYLE
  5
9
100
AcDbSymbolTable
 70
     1
100
AcDbDimStyleTable
 71
     0
  0
DIMSTYLE
105
18
100
AcDbSymbolTableRecord
100
AcDbDimStyleTableRecord
  2
Standard
 70
     0
  3

  4

 40
1.0
 41
1.8
 42
1.8
 43
0.38
 44
1.8
 45
0.0
 46
0.0
 47
0.0
 48
0.0
 71
     0
 72
     0
 73
     0
 74
     0
 75
     0
 76
     0
 77
     1
 78
     0
 79
     0
140
6.0
141
0.09
142
0.0
143
25.4
144
1.0
145
0.0
146
0.7
147
1.2
148
0.0
170
     0
171
     2
172
     0
173
     0
174
     0
175
     0
176
     7
177
     7
178
     7
179
     0
271
     7
272
     4
273
     2
274
     2
275
     0
276
     0
277
     2
278
    46
279
     0
280
     0
281
     0
282
     0
283
     1
284
     0
285
     0
286
     0
288
     0
289
     3
340
17
341
0
342
0
343
0
344
0
371
    -2
372
    -2
  0
ENDTAB
  0
TABLE
  2
BLOCK_RECORD
  5
1
100
AcDbSymbolTable
 70
    22
  0
BLOCK_RECORD
  5
A
100
AcDbSymbolTableRecord
100
AcDbBlockTableRecord
  2
*MODEL_SPACE
340
20
  0
BLOCK_RECORD
  5
B
100
AcDbSymbolTableRecord
100
AcDbBlockTableRecord
  2
*PAPER_SPACE
340
21
  0
BLOCK_RECORD
  5
B7
100
AcDbSymbolTableRecord
100
AcDbBlockTableRecord
  2
AID287
340
0
102
{BLKREFS
331
BB
102
}
  0
BLOCK_RECORD
  5
3FC
100
AcDbSymbolTableRecord
100
AcDbBlockTableRecord
  2
AID2203
340
0
102
{BLKREFS
331
413
102
}
  0
BLOCK_RECORD
  5
414
100
AcDbSymbolTableRecord
100
AcDbBlockTableRecord
  2
AID2217
340
0
102
{BLKREFS
331
427
102
}
  0
BLOCK_RECORD
  5
428
100
AcDbSymbolTableRecord
100
AcDbBlockTableRecord
  2
AID2227
340
0
102
{BLKREFS
331
43D
102
}
  0
BLOCK_RECORD
  5
43E
100
AcDbSymbolTableRecord
100
AcDbBlockTableRecord
  2
AID2239
340
0
102
{BLKREFS
331
452
102
}
  0
BLOCK_RECORD
  5
453
100
AcDbSymbolTableRecord
100
AcDbBlockTableRecord
  2
AID2250
340
0
102
{BLKREFS
331
465
102
}
  0
BLOCK_RECORD
  5
468
100
AcDbSymbolTableRecord
100
AcDbBlockTableRecord
  2
AID2265
340
0
102
{BLKREFS
331
479
102
}
  0
BLOCK_RECORD
  5
47A
100
AcDbSymbolTableRecord
100
AcDbBlockTableRecord
  2
AID2273
340
0
102
{BLKREFS
331
48B
102
}
  0
BLOCK_RECORD
  5
48C
100
AcDbSymbolTableRecord
100
AcDbBlockTableRecord
  2
AID2281
340
0
102
{BLKREFS
331
49B
102
}
  0
BLOCK_RECORD
  5
49C
100
AcDbSymbolTableRecord
100
AcDbBlockTableRecord
  2
AID2291
340
0
102
{BLKREFS
331
4AD
102
}
  0
BLOCK_RECORD
  5
4AE
100
AcDbSymbolTableRecord
100
AcDbBlockTableRecord
  2
AID2299
340
0
102
{BLKREFS
331
4BB
102
}
  0
BLOCK_RECORD
  5
4BD
100
AcDbSymbolTableRecord
100
AcDbBlockTableRecord
  2
AID2309
340
0
102
{BLKREFS
331
4D0
102
}
  0
BLOCK_RECORD
  5
4D2
100
AcDbSymbolTableRecord
100
AcDbBlockTableRecord
  2
AID2321
340
0
102
{BLKREFS
331
4E3
102
}
  0
BLOCK_RECORD
  5
4E4
100
AcDbSymbolTableRecord
100
AcDbBlockTableRecord
  2
AID2329
340
0
102
{BLKREFS
331
4F5
102
}
  0
BLOCK_RECORD
  5
4F7
100
AcDbSymbolTableRecord
100
AcDbBlockTableRecord
  2
AID2339
340
0
102
{BLKREFS
331
508
102
}
  0
BLOCK_RECORD
  5
509
100
AcDbSymbolTableRecord
100
AcDbBlockTableRecord
  2
AID2347
340
0
102
{BLKREFS
331
51A
102
}
  0
BLOCK_RECORD
  5
51B
100
AcDbSymbolTableRecord
100
AcDbBlockTableRecord
  2
AID2355
340
0
102
{BLKREFS
331
52C
102
}
  0
BLOCK_RECORD
  5
52D
100
AcDbSymbolTableRecord
100
AcDbBlockTableRecord
  2
AID2363
340
0
102
{BLKREFS
331
538
102
}
  0
BLOCK_RECORD
  5
539
100
AcDbSymbolTableRecord
100
AcDbBlockTableRecord
  2
AID2373
340
0
102
{BLKREFS
331
549
102
}
  0
BLOCK_RECORD
  5
54A
100
AcDbSymbolTableRecord
100
AcDbBlockTableRecord
  2
AID2380
340
0
102
{BLKREFS
331
54E
102
}
  0
BLOCK_RECORD
  5
54F
100
AcDbSymbolTableRecord
100
AcDbBlockTableRecord
  2
AID2384
340
0
102
{BLKREFS
331
553
102
}
  0
BLOCK_RECORD
  5
554
100
AcDbSymbolTableRecord
100
AcDbBlockTableRecord
  2
AID2388
340
0
102
{BLKREFS
331
558
102
}
  0
ENDTAB
  0
ENDSEC
  0
SECTION
  2
BLOCKS
  0
BLOCK
  5
D
100
AcDbEntity
  8
0
390
0
100
AcDbBlockBegin
  2
*MODEL_SPACE
 70
     0
 10
0.0
 20
0.0
 30
0.0
  3
*MODEL_SPACE
  1

  0
ENDBLK
  5
E
100
AcDbEntity
  8
0
390
0
100
AcDbBlockEnd
  0
BLOCK
  5
F
100
AcDbEntity
 67
     1
  8
0
390
0
100
AcDbBlockBegin
  2
*PAPER_SPACE
 70
     0
 10
0.0
 20
0.0
 30
0.0
  3
*PAPER_SPACE
  1

  0
ENDBLK
  5
10
100
AcDbEntity
 67
     1
  8
0
390
0
100
AcDbBlockEnd
  0
BLOCK
  5
B8
100
AcDbEntity
  8
0
390
0
100
AcDbBlockBegin
  2
AID287
 70
     0
 10
0.0
 20
0.0
 30
0.0
  3
DNote#note referencing elements
  1

  0
MTEXT
  5
B9
100
AcDbEntity
  8
256
390
0
 62
     7
100
AcDbMText
 10
406.171318
 20
6.951938
 30
0.0
 40
3.0
 41
7.472727
 71
     7
 72
     1
  1
A3
210
0.0
220
0.0
230
1.0
 73
     1
 44
1.0
  0
ENDBLK
  5
BA
100
AcDbEntity
  8
0
390
0
100
AcDbBlockEnd
  0
BLOCK
  5
3FD
100
AcDbEntity
  8
0
390
0
100
AcDbBlockBegin
  2
AID2203
 70
     0
 10
0.0
 20
0.0
 30
0.0
  3
DIMENS
  1

  0
MTEXT
  5
3FE
100
AcDbEntity
  8
1
390
0
 62
     2
100
AcDbMText
 10
138.235135
 20
203.300847
 30
0.0
 40
6.0
 41
9.490909
 71
     7
 72
     1
  1
Φ
210
0.0
220
0.0
230
1.0
 11
0.0
 21
1.0
 31
0.0
 73
     1
 44
1.0
  0
MTEXT
  5
3FF
100
AcDbEntity
  8
1
390
0
 62
     2
100
AcDbMText
 10
138.235135
 20
209.246301
 30
0.0
 40
6.0
 41
2.890909
 71
     7
 72
     1
  1
1
210
0.0
220
0.0
230
1.0
 11
0.0
 21
1.0
 31
0.0
 73
     1
 44
1.0
  0
MTEXT
  5
400
100
AcDbEntity
  8
1
390
0
 62
     2
100
AcDbMText
 10
138.235135
 20
214.42812
 30
0.0
 40
6.0
 41
12.381818
 71
     7
 72
     1
  1
h9
210
0.0
220
0.0
230
1.0
 11
0.0
 21
1.0
 31
0.0
 73
     1
 44
1.0
  0
MTEXT
  5
401
100
AcDbEntity
  8
1
390
0
 62
     2
100
AcDbMText
 10
139.435135
 20
224.02812
 30
0.0
 40
6.0
 41
3.327273
 71
     7
 72
     1
  1
(
210
0.0
220
0.0
230
1.0
 11
0.0
 21
1.0
 31
0.0
 73
     1
 44
1.0
  0
MTEXT
  5
402
100
AcDbEntity
  8
1
390
0
 62
     2
100
AcDbMText
 10
139.435135
 20
225.93721
 30
0.0
 40
4.2
 41
25.658182
 71
     7
 72
     1
  1
-0.025
210
0.0
220
0.0
230
1.0
 11
0.0
 21
1.0
 31
0.0
 73
     1
 44
1.0
  0
MTEXT
  5
403
100
AcDbEntity
  8
1
390
0
 62
     2
100
AcDbMText
 10
134.547862
 20
225.93721
 30
0.0
 40
4.2
 41
4.2
 71
     7
 72
     1
  1
 0
210
0.0
220
0.0
230
1.0
 11
0.0
 21
1.0
 31
0.0
 73
     1
 44
1.0
  0
MTEXT
  5
404
100
AcDbEntity
  8
1
390
0
 62
     2
100
AcDbMText
 10
139.435135
 20
238.899938
 30
0.0
 40
6.0
 41
3.327273
 71
     7
 72
     1
  1
)
210
0.0
220
0.0
230
1.0
 11
0.0
 21
1.0
 31
0.0
 73
     1
 44
1.0
  0
LINE
  5
405
100
AcDbEntity
  8
1
390
0
  6
Continuous
 62
    11
100
AcDbLine
 10
141.180589
 20
241.354483
 30
0.0
 11
141.180589
 21
188.091756
 31
0.0
  0
LINE
  5
406
100
AcDbEntity
  8
1
390
0
  6
Continuous
 62
    11
100
AcDbLine
 10
160.246158
 20
198.091756
 30
0.0
 11
139.380589
 21
198.091756
 31
0.0
  0
LINE
  5
407
100
AcDbEntity
  8
1
390
0
  6
Continuous
 62
    11
100
AcDbLine
 10
160.246158
 20
197.091756
 30
0.0
 11
139.380589
 21
197.091756
 31
0.0
  0
POLYLINE
  5
408
100
AcDbEntity
  8
1
390
0
  6
Continuous
 62
    11
100
AcDb2dPolyline
 66
     1
 10
0.0
 20
0.0
 30
0.0
 40
1.0
 41
1.0
  0
VERTEX
  5
409
100
AcDbEntity
  8
1
390
0
 62
    11
100
AcDbVertex
100
AcDb2dVertex
 10
140.280589
 20
202.591756
 30
0.0
  0
VERTEX
  5
40A
100
AcDbEntity
  8
1
390
0
 62
    11
100
AcDbVertex
100
AcDb2dVertex
 10
141.180589
 20
198.091756
 30
0.0
  0
VERTEX
  5
40B
100
AcDbEntity
  8
1
390
0
 62
    11
100
AcDbVertex
100
AcDb2dVertex
 10
142.080589
 20
202.591756
 30
0.0
  0
SEQEND
  5
40C
100
AcDbEntity
  8
0
390
0
  0
POLYLINE
  5
40D
100
AcDbEntity
  8
1
390
0
  6
Continuous
 62
    11
100
AcDb2dPolyline
 66
     1
 10
0.0
 20
0.0
 30
0.0
 40
1.0
 41
1.0
  0
VERTEX
  5
40E
100
AcDbEntity
  8
1
390
0
 62
    11
100
AcDbVertex
100
AcDb2dVertex
 10
142.080589
 20
192.591756
 30
0.0
  0
VERTEX
  5
40F
100
AcDbEntity
  8
1
390
0
 62
    11
100
AcDbVertex
100
AcDb2dVertex
 10
141.180589
 20
197.091756
 30
0.0
  0
VERTEX
  5
410
100
AcDbEntity
  8
1
390
0
 62
    11
100
AcDbVertex
100
AcDb2dVertex
 10
140.280589
 20
192.591756
 30
0.0
  0
SEQEND
  5
411
100
AcDbEntity
  8
0
390
0
  0
ENDBLK
  5
412
100
AcDbEntity
  8
0
390
0
100
AcDbBlockEnd
  0
BLOCK
  5
415
100
AcDbEntity
  8
0
390
0
100
AcDbBlockBegin
  2
AID2217
 70
     0
 10
0.0
 20
0.0
 30
0.0
  3
DIMENS
  1

  0
MTEXT
  5
416
100
AcDbEntity
  8
1
390
0
 62
     2
100
AcDbMText
 10
127.713217
 20
204.000847
 30
0.0
 40
6.0
 41
9.490909
 71
     7
 72
     1
  1
Φ
210
0.0
220
0.0
230
1.0
 11
0.0
 21
1.0
 31
0.0
 73
     1
 44
1.0
  0
MTEXT
  5
417
100
AcDbEntity
  8
1
390
0
 62
     2
100
AcDbMText
 10
127.713217
 20
209.946301
 30
0.0
 40
6.0
 41
15.654545
 71
     7
 72
     1
  1
2.4
210
0.0
220
0.0
230
1.0
 11
0.0
 21
1.0
 31
0.0
 73
     1
 44
1.0
  0
MTEXT
  5
418
100
AcDbEntity
  8
1
390
0
 62
     2
100
AcDbMText
 10
124.025945
 20
221.12812
 30
0.0
 40
4.2
 41
24.627273
 71
     7
 72
     1
  1
%%p0.05
210
0.0
220
0.0
230
1.0
 11
0.0
 21
1.0
 31
0.0
 73
     1
 44
1.0
  0
LINE
  5
419
100
AcDbEntity
  8
1
390
0
  6
Continuous
 62
    11
100
AcDbLine
 10
128.858672
 20
234.690847
 30
0.0
 11
128.858672
 21
187.391756
 31
0.0
  0
LINE
  5
41A
100
AcDbEntity
  8
1
390
0
  6
Continuous
 62
    11
100
AcDbLine
 10
163.746158
 20
198.791756
 30
0.0
 11
127.058672
 21
198.791756
 31
0.0
  0
LINE
  5
41B
100
AcDbEntity
  8
1
390
0
  6
Continuous
 62
    11
100
AcDbLine
 10
163.746158
 20
196.391756
 30
0.0
 11
127.058672
 21
196.391756
 31
0.0
  0
POLYLINE
  5
41C
100
AcDbEntity
  8
1
390
0
  6
Continuous
 62
    11
100
AcDb2dPolyline
 66
     1
 10
0.0
 20
0.0
 30
0.0
 40
1.0
 41
1.0
  0
VERTEX
  5
41D
100
AcDbEntity
  8
1
390
0
 62
    11
100
AcDbVertex
100
AcDb2dVertex
 10
127.958672
 20
203.291756
 30
0.0
  0
VERTEX
  5
41E
100
AcDbEntity
  8
1
390
0
 62
    11
100
AcDbVertex
100
AcDb2dVertex
 10
128.858672
 20
198.791756
 30
0.0
  0
VERTEX
  5
41F
100
AcDbEntity
  8
1
390
0
 62
    11
100
AcDbVertex
100
AcDb2dVertex
 10
129.758672
 20
203.291756
 30
0.0
  0
SEQEND
  5
420
100
AcDbEntity
  8
0
390
0
  0
POLYLINE
  5
421
100
AcDbEntity
  8
1
390
0
  6
Continuous
 62
    11
100
AcDb2dPolyline
 66
     1
 10
0.0
 20
0.0
 30
0.0
 40
1.0
 41
1.0
  0
VERTEX
  5
422
100
AcDbEntity
  8
1
390
0
 62
    11
100
AcDbVertex
100
AcDb2dVertex
 10
129.758672
 20
191.891756
 30
0.0
  0
VERTEX
  5
423
100
AcDbEntity
  8
1
390
0
 62
    11
100
AcDbVertex
100
AcDb2dVertex
 10
128.858672
 20
196.391756
 30
0.0
  0
VERTEX
  5
424
100
AcDbEntity
  8
1
390
0
 62
    11
100
AcDbVertex
100
AcDb2dVertex
 10
127.958672
 20
191.891756
 30
0.0
  0
SEQEND
  5
425
100
AcDbEntity
  8
0
390
0
  0
ENDBLK
  5
426
100
AcDbEntity
  8
0
390
0
100
AcDbBlockEnd
  0
BLOCK
  5
429
100
AcDbEntity
  8
0
390
0
100
AcDbBlockBegin
  2
AID2227
 70
     0
 10
0.0
 20
0.0
 30
0.0
  3
DIMENS
  1

  0
MTEXT
  5
42A
100
AcDbEntity
  8
1
390
0
 62
     2
100
AcDbMText
 10
169.618942
 20
210.476972
 30
0.0
 40
6.0
 41
9.490909
 71
     7
 72
     1
  1
Φ
210
0.0
220
0.0
230
1.0
 11
0.0
 21
1.0
 31
0.0
 73
     1
 44
1.0
  0
MTEXT
  5
42B
100
AcDbEntity
  8
1
390
0
 62
     2
100
AcDbMText
 10
169.618942
 20
216.422427
 30
0.0
 40
6.0
 41
15.381818
 71
     7
 72
     1
  1
2.5
210
0.0
220
0.0
230
1.0
 11
0.0
 21
1.0
 31
0.0
 73
     1
 44
1.0
  0
MTEXT
  5
42C
100
AcDbEntity
  8
1
390
0
 62
     2
100
AcDbMText
 10
169.618942
 20
227.467882
 30
0.0
 40
6.0
 41
12.381818
 71
     7
 72
     1
  1
h9
210
0.0
220
0.0
230
1.0
 11
0.0
 21
1.0
 31
0.0
 73
     1
 44
1.0
  0
MTEXT
  5
42D
100
AcDbEntity
  8
1
390
0
 62
     2
100
AcDbMText
 10
170.818942
 20
237.067882
 30
0.0
 40
6.0
 41
3.327273
 71
     7
 72
     1
  1
(
210
0.0
220
0.0
230
1.0
 11
0.0
 21
1.0
 31
0.0
 73
     1
 44
1.0
  0
MTEXT
  5
42E
100
AcDbEntity
  8
1
390
0
 62
     2
100
AcDbMText
 10
170.818942
 20
238.976972
 30
0.0
 40
4.2
 41
25.658182
 71
     7
 72
     1
  1
-0.025
210
0.0
220
0.0
230
1.0
 11
0.0
 21
1.0
 31
0.0
 73
     1
 44
1.0
  0
MTEXT
  5
42F
100
AcDbEntity
  8
1
390
0
 62
     2
100
AcDbMText
 10
165.931669
 20
238.976972
 30
0.0
 40
4.2
 41
4.2
 71
     7
 72
     1
  1
 0
210
0.0
220
0.0
230
1.0
 11
0.0
 21
1.0
 31
0.0
 73
     1
 44
1.0
  0
MTEXT
  5
430
100
AcDbEntity
  8
1
390
0
 62
     2
100
AcDbMText
 10
170.818942
 20
251.9397
 30
0.0
 40
6.0
 41
3.327273
 71
     7
 72
     1
  1
)
210
0.0
220
0.0
230
1.0
 11
0.0
 21
1.0
 31
0.0
 73
     1
 44
1.0
  0
LINE
  5
431
100
AcDbEntity
  8
1
390
0
  6
Continuous
 62
    11
100
AcDbLine
 10
172.564397
 20
187.341756
 30
0.0
 11
172.564397
 21
254.394245
 31
0.0
  0
POLYLINE
  5
432
100
AcDbEntity
  8
1
390
0
  6
Continuous
 62
    11
100
AcDb2dPolyline
 66
     1
 10
0.0
 20
0.0
 30
0.0
 40
1.0
 41
1.0
  0
VERTEX
  5
433
100
AcDbEntity
  8
1
390
0
 62
    11
100
AcDbVertex
100
AcDb2dVertex
 10
173.464397
 20
191.841756
 30
0.0
  0
VERTEX
  5
434
100
AcDbEntity
  8
1
390
0
 62
    11
100
AcDbVertex
100
AcDb2dVertex
 10
172.564397
 20
196.341756
 30
0.0
  0
VERTEX
  5
435
100
AcDbEntity
  8
1
390
0
 62
    11
100
AcDbVertex
100
AcDb2dVertex
 10
171.664397
 20
191.841756
 30
0.0
  0
SEQEND
  5
436
100
AcDbEntity
  8
0
390
0
  0
POLYLINE
  5
437
100
AcDbEntity
  8
1
390
0
  6
Continuous
 62
    11
100
AcDb2dPolyline
 66
     1
 10
0.0
 20
0.0
 30
0.0
 40
1.0
 41
1.0
  0
VERTEX
  5
438
100
AcDbEntity
  8
1
390
0
 62
    11
100
AcDbVertex
100
AcDb2dVertex
 10
171.664397
 20
203.341756
 30
0.0
  0
VERTEX
  5
439
100
AcDbEntity
  8
1
390
0
 62
    11
100
AcDbVertex
100
AcDb2dVertex
 10
172.564397
 20
198.841756
 30
0.0
  0
VERTEX
  5
43A
100
AcDbEntity
  8
1
390
0
 62
    11
100
AcDbVertex
100
AcDb2dVertex
 10
173.464397
 20
203.341756
 30
0.0
  0
SEQEND
  5
43B
100
AcDbEntity
  8
0
390
0
  0
ENDBLK
  5
43C
100
AcDbEntity
  8
0
390
0
100
AcDbBlockEnd
  0
BLOCK
  5
43F
100
AcDbEntity
  8
0
390
0
100
AcDbBlockBegin
  2
AID2239
 70
     0
 10
0.0
 20
0.0
 30
0.0
  3
DIMENS
  1

  0
MTEXT
  5
440
100
AcDbEntity
  8
1
390
0
 62
     2
100
AcDbMText
 10
192.688069
 20
204.800847
 30
0.0
 40
6.0
 41
9.490909
 71
     7
 72
     1
  1
Φ
210
0.0
220
0.0
230
1.0
 11
0.0
 21
1.0
 31
0.0
 73
     1
 44
1.0
  0
MTEXT
  5
441
100
AcDbEntity
  8
1
390
0
 62
     2
100
AcDbMText
 10
192.688069
 20
210.746301
 30
0.0
 40
6.0
 41
6.054545
 71
     7
 72
     1
  1
4
210
0.0
220
0.0
230
1.0
 11
0.0
 21
1.0
 31
0.0
 73
     1
 44
1.0
  0
MTEXT
  5
442
100
AcDbEntity
  8
1
390
0
 62
     2
100
AcDbMText
 10
193.888069
 20
217.019029
 30
0.0
 40
4.2
 41
20.770909
 71
     7
 72
     1
  1
-0.05
210
0.0
220
0.0
230
1.0
 11
0.0
 21
1.0
 31
0.0
 73
     1
 44
1.0
  0
MTEXT
  5
443
100
AcDbEntity
  8
1
390
0
 62
     2
100
AcDbMText
 10
189.000796
 20
217.019029
 30
0.0
 40
4.2
 41
4.2
 71
     7
 72
     1
  1
  0
210
0.0
220
0.0
230
1.0
 11
0.0
 21
1.0
 31
0.0
 73
     1
 44
1.0
  0
LINE
  5
444
100
AcDbEntity
  8
1
390
0
  6
Continuous
 62
    11
100
AcDbLine
 10
195.068978
 20
228.13812
 30
0.0
 11
195.068978
 21
186.591756
 31
0.0
  0
LINE
  5
445
100
AcDbEntity
  8
1
390
0
  6
Continuous
 62
    11
100
AcDbLine
 10
177.346158
 20
199.591756
 30
0.0
 11
196.868978
 21
199.591756
 31
0.0
  0
LINE
  5
446
100
AcDbEntity
  8
1
390
0
  6
Continuous
 62
    11
100
AcDbLine
 10
177.346158
 20
195.591756
 30
0.0
 11
196.868978
 21
195.591756
 31
0.0
  0
POLYLINE
  5
447
100
AcDbEntity
  8
1
390
0
  6
Continuous
 62
    11
100
AcDb2dPolyline
 66
     1
 10
0.0
 20
0.0
 30
0.0
 40
1.0
 41
1.0
  0
VERTEX
  5
448
100
AcDbEntity
  8
1
390
0
 62
    11
100
AcDbVertex
100
AcDb2dVertex
 10
194.168978
 20
204.091756
 30
0.0
  0
VERTEX
  5
449
100
AcDbEntity
  8
1
390
0
 62
    11
100
AcDbVertex
100
AcDb2dVertex
 10
195.068978
 20
199.591756
 30
0.0
  0
VERTEX
  5
44A
100
AcDbEntity
  8
1
390
0
 62
    11
100
AcDbVertex
100
AcDb2dVertex
 10
195.968978
 20
204.091756
 30
0.0
  0
SEQEND
  5
44B
100
AcDbEntity
  8
0
390
0
  0
POLYLINE
  5
44C
100
AcDbEntity
  8
1
390
0
  6
Continuous
 62
    11
100
AcDb2dPolyline
 66
     1
 10
0.0
 20
0.0
 30
0.0
 40
1.0
 41
1.0
  0
VERTEX
  5
44D
100
AcDbEntity
  8
1
390
0
 62
    11
100
AcDbVertex
100
AcDb2dVertex
 10
195.968978
 20
191.091756
 30
0.0
  0
VERTEX
  5
44E
100
AcDbEntity
  8
1
390
0
 62
    11
100
AcDbVertex
100
AcDb2dVertex
 10
195.068978
 20
195.591756
 30
0.0
  0
VERTEX
  5
44F
100
AcDbEntity
  8
1
390
0
 62
    11
100
AcDbVertex
100
AcDb2dVertex
 10
194.168978
 20
191.091756
 30
0.0
  0
SEQEND
  5
450
100
AcDbEntity
  8
0
390
0
  0
ENDBLK
  5
451
100
AcDbEntity
  8
0
390
0
100
AcDbBlockEnd
  0
BLOCK
  5
454
100
AcDbEntity
  8
0
390
0
100
AcDbBlockBegin
  2
AID2250
 70
     0
 10
0.0
 20
0.0
 30
0.0
  3
DIMENS
  1

  0
MTEXT
  5
455
100
AcDbEntity
  8
1
390
0
 62
     2
100
AcDbMText
 10
185.493211
 20
204.900847
 30
0.0
 40
6.0
 41
8.4
 71
     7
 72
     1
  1
M
210
0.0
220
0.0
230
0.9999999999999999
 11
0.0
 21
1.0
 31
0.0
 73
     1
 44
1.0
  0
MTEXT
  5
456
100
AcDbEntity
  8
1
390
0
 62
     2
100
AcDbMText
 10
185.493211
 20
210.300847
 30
0.0
 40
6.0
 41
5.563636
 71
     7
 72
     1
  1
3
210
0.0
220
0.0
230
0.9999999999999999
 11
0.0
 21
1.0
 31
0.0
 73
     1
 44
1.0
  0
LINE
  5
457
100
AcDbEntity
  8
1
390
0
  6
Continuous
 62
    11
100
AcDbLine
 10
186.665938
 20
187.091756
 30
0.0
 11
186.665938
 21
214.03721
 31
0.0
  0
LINE
  5
458
100
AcDbEntity
  8
1
390
0
  6
Continuous
 62
    11
100
AcDbLine
 10
182.346158
 20
196.091756
 30
0.0
 11
188.465938
 21
196.091756
 31
0.0
  0
LINE
  5
459
100
AcDbEntity
  8
1
390
0
  6
Continuous
 62
    11
100
AcDbLine
 10
182.346158
 20
199.091756
 30
0.0
 11
188.465938
 21
199.091756
 31
0.0
  0
POLYLINE
  5
45A
100
AcDbEntity
  8
1
390
0
  6
Continuous
 62
    11
100
AcDb2dPolyline
 66
     1
 10
0.0
 20
0.0
 30
0.0
 40
1.0
 41
1.0
  0
VERTEX
  5
45B
100
AcDbEntity
  8
1
390
0
 62
    11
100
AcDbVertex
100
AcDb2dVertex
 10
187.565938
 20
191.591756
 30
0.0
  0
VERTEX
  5
45C
100
AcDbEntity
  8
1
390
0
 62
    11
100
AcDbVertex
100
AcDb2dVertex
 10
186.665938
 20
196.091756
 30
0.0
  0
VERTEX
  5
45D
100
AcDbEntity
  8
1
390
0
 62
    11
100
AcDbVertex
100
AcDb2dVertex
 10
185.765938
 20
191.591756
 30
0.0
  0
SEQEND
  5
45E
100
AcDbEntity
  8
0
390
0
  0
POLYLINE
  5
45F
100
AcDbEntity
  8
1
390
0
  6
Continuous
 62
    11
100
AcDb2dPolyline
 66
     1
 10
0.0
 20
0.0
 30
0.0
 40
1.0
 41
1.0
  0
VERTEX
  5
460
100
AcDbEntity
  8
1
390
0
 62
    11
100
AcDbVertex
100
AcDb2dVertex
 10
185.765938
 20
203.591756
 30
0.0
  0
VERTEX
  5
461
100
AcDbEntity
  8
1
390
0
 62
    11
100
AcDbVertex
100
AcDb2dVertex
 10
186.665938
 20
199.091756
 30
0.0
  0
VERTEX
  5
462
100
AcDbEntity
  8
1
390
0
 62
    11
100
AcDbVertex
100
AcDb2dVertex
 10
187.565938
 20
203.591756
 30
0.0
  0
SEQEND
  5
463
100
AcDbEntity
  8
0
390
0
  0
ENDBLK
  5
464
100
AcDbEntity
  8
0
390
0
100
AcDbBlockEnd
  0
BLOCK
  5
469
100
AcDbEntity
  8
0
390
0
100
AcDbBlockBegin
  2
AID2265
 70
     0
 10
0.0
 20
0.0
 30
0.0
  3
DIMENS
  1

  0
MTEXT
  5
46A
100
AcDbEntity
  8
1
390
0
 62
     2
100
AcDbMText
 10
144.209794
 20
206.436672
 30
0.0
 40
6.0
 41
22.581818
 71
     7
 72
     1
  1
0.85
210
0.0
220
0.0
230
1.0
 73
     1
 44
1.0
  0
LINE
  5
46B
100
AcDbEntity
  8
1
390
0
  6
Continuous
 62
    11
100
AcDbLine
 10
143.855249
 20
205.263945
 30
0.0
 11
171.896158
 21
205.263945
 31
0.0
  0
LINE
  5
46C
100
AcDbEntity
  8
1
390
0
  6
Continuous
 62
    11
100
AcDbLine
 10
162.046158
 20
199.891756
 30
0.0
 11
162.046158
 21
207.063945
 31
0.0
  0
LINE
  5
46D
100
AcDbEntity
  8
1
390
0
  6
Continuous
 62
    11
100
AcDbLine
 10
162.896158
 20
199.891756
 30
0.0
 11
162.896158
 21
207.063945
 31
0.0
  0
POLYLINE
  5
46E
100
AcDbEntity
  8
1
390
0
  6
Continuous
 62
    11
100
AcDb2dPolyline
 66
     1
 10
0.0
 20
0.0
 30
0.0
 40
1.0
 41
1.0
  0
VERTEX
  5
46F
100
AcDbEntity
  8
1
390
0
 62
    11
100
AcDbVertex
100
AcDb2dVertex
 10
157.546158
 20
204.363945
 30
0.0
  0
VERTEX
  5
470
100
AcDbEntity
  8
1
390
0
 62
    11
100
AcDbVertex
100
AcDb2dVertex
 10
162.046158
 20
205.263945
 30
0.0
  0
VERTEX
  5
471
100
AcDbEntity
  8
1
390
0
 62
    11
100
AcDbVertex
100
AcDb2dVertex
 10
157.546158
 20
206.163945
 30
0.0
  0
SEQEND
  5
472
100
AcDbEntity
  8
0
390
0
  0
POLYLINE
  5
473
100
AcDbEntity
  8
1
390
0
  6
Continuous
 62
    11
100
AcDb2dPolyline
 66
     1
 10
0.0
 20
0.0
 30
0.0
 40
1.0
 41
1.0
  0
VERTEX
  5
474
100
AcDbEntity
  8
1
390
0
 62
    11
100
AcDbVertex
100
AcDb2dVertex
 10
167.396158
 20
206.163945
 30
0.0
  0
VERTEX
  5
475
100
AcDbEntity
  8
1
390
0
 62
    11
100
AcDbVertex
100
AcDb2dVertex
 10
162.896158
 20
205.263945
 30
0.0
  0
VERTEX
  5
476
100
AcDbEntity
  8
1
390
0
 62
    11
100
AcDbVertex
100
AcDb2dVertex
 10
167.396158
 20
204.363945
 30
0.0
  0
SEQEND
  5
477
100
AcDbEntity
  8
0
390
0
  0
ENDBLK
  5
478
100
AcDbEntity
  8
0
390
0
100
AcDbBlockEnd
  0
BLOCK
  5
47B
100
AcDbEntity
  8
0
390
0
100
AcDbBlockBegin
  2
AID2273
 70
     0
 10
0.0
 20
0.0
 30
0.0
  3
DIMENS
  1

  0
MTEXT
  5
47C
100
AcDbEntity
  8
1
390
0
 62
     2
100
AcDbMText
 10
147.700703
 20
187.421017
 30
0.0
 40
6.0
 41
15.381818
 71
     7
 72
     1
  1
3.5
210
0.0
220
0.0
230
0.9999999999999999
 11
1.0
 21
0.0
 31
0.0
 73
     1
 44
1.0
  0
LINE
  5
47D
100
AcDbEntity
  8
1
390
0
  6
Continuous
 62
    11
100
AcDbLine
 10
147.455249
 20
186.24829
 30
0.0
 11
174.546158
 21
186.24829
 31
0.0
  0
LINE
  5
47E
100
AcDbEntity
  8
1
390
0
  6
Continuous
 62
    11
100
AcDbLine
 10
162.046158
 20
195.291756
 30
0.0
 11
162.046158
 21
184.44829
 31
0.0
  0
LINE
  5
47F
100
AcDbEntity
  8
1
390
0
  6
Continuous
 62
    11
100
AcDbLine
 10
165.546158
 20
194.591756
 30
0.0
 11
165.546158
 21
184.44829
 31
0.0
  0
POLYLINE
  5
480
100
AcDbEntity
  8
1
390
0
  6
Continuous
 62
    11
100
AcDb2dPolyline
 66
     1
 10
0.0
 20
0.0
 30
0.0
 40
1.0
 41
1.0
  0
VERTEX
  5
481
100
AcDbEntity
  8
1
390
0
 62
    11
100
AcDbVertex
100
AcDb2dVertex
 10
157.546158
 20
185.34829
 30
0.0
  0
VERTEX
  5
482
100
AcDbEntity
  8
1
390
0
 62
    11
100
AcDbVertex
100
AcDb2dVertex
 10
162.046158
 20
186.24829
 30
0.0
  0
VERTEX
  5
483
100
AcDbEntity
  8
1
390
0
 62
    11
100
AcDbVertex
100
AcDb2dVertex
 10
157.546158
 20
187.14829
 30
0.0
  0
SEQEND
  5
484
100
AcDbEntity
  8
0
390
0
  0
POLYLINE
  5
485
100
AcDbEntity
  8
1
390
0
  6
Continuous
 62
    11
100
AcDb2dPolyline
 66
     1
 10
0.0
 20
0.0
 30
0.0
 40
1.0
 41
1.0
  0
VERTEX
  5
486
100
AcDbEntity
  8
1
390
0
 62
    11
100
AcDbVertex
100
AcDb2dVertex
 10
170.046158
 20
187.14829
 30
0.0
  0
VERTEX
  5
487
100
AcDbEntity
  8
1
390
0
 62
    11
100
AcDbVertex
100
AcDb2dVertex
 10
165.546158
 20
186.24829
 30
0.0
  0
VERTEX
  5
488
100
AcDbEntity
  8
1
390
0
 62
    11
100
AcDbVertex
100
AcDb2dVertex
 10
170.046158
 20
185.34829
 30
0.0
  0
SEQEND
  5
489
100
AcDbEntity
  8
0
390
0
  0
ENDBLK
  5
48A
100
AcDbEntity
  8
0
390
0
100
AcDbBlockEnd
  0
BLOCK
  5
48D
100
AcDbEntity
  8
0
390
0
100
AcDbBlockBegin
  2
AID2281
 70
     0
 10
0.0
 20
0.0
 30
0.0
  3
DIMENS
  1

  0
MTEXT
  5
48E
100
AcDbEntity
  8
1
390
0
 62
     2
100
AcDbMText
 10
130.690703
 20
177.156346
 30
0.0
 40
6.0
 41
21.6
 71
     7
 72
     1
  1
11.5
210
0.0
220
0.0
230
0.9999999999999999
 11
1.0
 21
0.0
 31
0.0
 73
     1
 44
1.0
  0
MTEXT
  5
48F
100
AcDbEntity
  8
1
390
0
 62
     2
100
AcDbMText
 10
145.227067
 20
175.956346
 30
0.0
 40
4.2
 41
20.770909
 71
     7
 72
     1
  1
-0.05
210
0.0
220
0.0
230
0.9999999999999999
 11
1.0
 21
0.0
 31
0.0
 73
     1
 44
1.0
  0
MTEXT
  5
490
100
AcDbEntity
  8
1
390
0
 62
     2
100
AcDbMText
 10
145.227067
 20
180.843618
 30
0.0
 40
4.2
 41
4.2
 71
     7
 72
     1
  1
  0
210
0.0
220
0.0
230
0.9999999999999999
 11
1.0
 21
0.0
 31
0.0
 73
     1
 44
1.0
  0
LINE
  5
491
100
AcDbEntity
  8
1
390
0
  6
Continuous
 62
    11
100
AcDbLine
 10
130.827067
 20
174.775437
 30
0.0
 11
173.546158
 21
174.775437
 31
0.0
  0
LINE
  5
492
100
AcDbEntity
  8
1
390
0
  6
Continuous
 62
    11
100
AcDbLine
 10
162.046158
 20
195.291756
 30
0.0
 11
162.046158
 21
172.975437
 31
0.0
  0
LINE
  5
493
100
AcDbEntity
  8
1
390
0
  6
Continuous
 62
    11
100
AcDbLine
 10
173.546158
 20
193.991756
 30
0.0
 11
173.546158
 21
172.975437
 31
0.0
  0
POLYLINE
  5
494
100
AcDbEntity
  8
1
390
0
  6
Continuous
 62
    11
100
AcDb2dPolyline
 66
     1
 10
0.0
 20
0.0
 30
0.0
 40
1.0
 41
1.0
  0
VERTEX
  5
495
100
AcDbEntity
  8
1
390
0
 62
    11
100
AcDbVertex
100
AcDb2dVertex
 10
157.546158
 20
173.875437
 30
0.0
  0
VERTEX
  5
496
100
AcDbEntity
  8
1
390
0
 62
    11
100
AcDbVertex
100
AcDb2dVertex
 10
162.046158
 20
174.775437
 30
0.0
  0
VERTEX
  5
497
100
AcDbEntity
  8
1
390
0
 62
    11
100
AcDbVertex
100
AcDb2dVertex
 10
157.546158
 20
175.675437
 30
0.0
  0
SEQEND
  5
498
100
AcDbEntity
  8
0
390
0
  0
HATCH
  5
499
100
AcDbEntity
  8
1
390
0
 62
    11
100
AcDbHatch
 10
173.5461578175051
 20
174.77543656571743
 30
0.0
210
0.0
220
0.0
230
1.0
  2
SOLID
 70
     1
 71
     1
 91
        1
 92
        1
 93
       72
 72
     1
 10
174.67115781750508
 20
174.77543656571743
 11
174.66687685285831
 21
174.87348677630854
 72
     1
 10
174.66687685285831
 20
174.87348677630854
 11
174.65406653964382
 21
174.97079076559271
 72
     1
 10
174.65406653964382
 20
174.97079076559271
 11
174.63282437208031
 21
175.06660799145777
 72
     1
 10
174.63282437208031
 20
175.06660799145777
 11
174.60331201588926
 21
175.16020922695878
 72
     1
 10
174.60331201588926
 20
175.16020922695878
 11
174.56575407792133
 21
175.2508821101757
 72
     1
 10
174.56575407792133
 20
175.2508821101757
 11
174.52043639676259
 21
175.33793656571743
 72
     1
 10
174.52043639676259
 20
175.33793656571743
 11
174.46770386733021
 21
175.42071005661236
 72
     1
 10
174.46770386733021
 20
175.42071005661236
 11
174.40795781601395
 21
175.49857262661479
 72
     1
 10
174.40795781601395
 20
175.49857262661479
 11
174.34165294633996
 21
175.57093169455229
 72
     1
 10
174.34165294633996
 20
175.57093169455229
 11
174.26929387840246
 21
175.63723656422627
 72
     1
 10
174.26929387840246
 20
175.63723656422627
 11
174.19143130840004
 21
175.69698261554254
 72
     1
 10
174.19143130840004
 20
175.69698261554254
 11
174.1086578175051
 21
175.74971514497491
 72
     1
 10
174.1086578175051
 20
175.74971514497491
 11
174.02160336196337
 21
175.79503282613365
 72
     1
 10
174.02160336196337
 20
175.79503282613365
 11
173.93093047874646
 21
175.83259076410158
 72
     1
 10
173.93093047874646
 20
175.83259076410158
 11
173.83732924324545
 21
175.86210312029263
 72
     1
 10
173.83732924324545
 20
175.86210312029263
 11
173.74151201738039
 21
175.88334528785614
 72
     1
 10
173.74151201738039
 20
175.88334528785614
 11
173.64420802809622
 21
175.89615560107063
 72
     1
 10
173.64420802809622
 20
175.89615560107063
 11
173.5461578175051
 21
175.9004365657174
 72
     1
 10
173.5461578175051
 20
175.9004365657174
 11
173.44810760691399
 21
175.89615560107063
 72
     1
 10
173.44810760691399
 20
175.89615560107063
 11
173.35080361762979
 21
175.88334528785614
 72
     1
 10
173.35080361762979
 20
175.88334528785614
 11
173.25498639176476
 21
175.86210312029263
 72
     1
 10
173.25498639176476
 20
175.86210312029263
 11
173.16138515626372
 21
175.83259076410158
 72
     1
 10
173.16138515626372
 20
175.83259076410158
 11
173.07071227304681
 21
175.79503282613365
 72
     1
 10
173.07071227304681
 20
175.79503282613365
 11
172.9836578175051
 21
175.74971514497491
 72
     1
 10
172.9836578175051
 20
175.74971514497491
 11
172.90088432661017
 21
175.69698261554254
 72
     1
 10
172.90088432661017
 20
175.69698261554254
 11
172.82302175660774
 21
175.63723656422627
 72
     1
 10
172.82302175660774
 20
175.63723656422627
 11
172.75066268867022
 21
175.57093169455229
 72
     1
 10
172.75066268867022
 20
175.57093169455229
 11
172.68435781899623
 21
175.49857262661479
 72
     1
 10
172.68435781899623
 20
175.49857262661479
 11
172.62461176767999
 21
175.42071005661236
 72
     1
 10
172.62461176767999
 20
175.42071005661236
 11
172.57187923824759
 21
175.33793656571743
 72
     1
 10
172.57187923824759
 20
175.33793656571743
 11
172.52656155708888
 21
175.2508821101757
 72
     1
 10
172.52656155708888
 20
175.2508821101757
 11
172.48900361912095
 21
175.16020922695878
 72
     1
 10
172.48900361912095
 20
175.16020922695878
 11
172.4594912629299
 21
175.06660799145777
 72
     1
 10
172.4594912629299
 20
175.06660799145777
 11
172.43824909536636
 21
174.97079076559271
 72
     1
 10
172.43824909536636
 20
174.97079076559271
 11
172.42543878215187
 21
174.87348677630854
 72
     1
 10
172.42543878215187
 20
174.87348677630854
 11
172.4211578175051
 21
174.77543656571743
 72
     1
 10
172.4211578175051
 20
174.77543656571743
 11
172.42543878215187
 21
174.67738635512632
 72
     1
 10
172.42543878215187
 20
174.67738635512632
 11
172.43824909536636
 21
174.58008236584215
 72
     1
 10
172.43824909536636
 20
174.58008236584215
 11
172.4594912629299
 21
174.48426513997708
 72
     1
 10
172.4594912629299
 20
174.48426513997708
 11
172.48900361912095
 21
174.39066390447604
 72
     1
 10
172.48900361912095
 20
174.39066390447604
 11
172.52656155708888
 21
174.29999102125916
 72
     1
 10
172.52656155708888
 20
174.29999102125916
 11
172.57187923824759
 21
174.21293656571743
 72
     1
 10
172.57187923824759
 20
174.21293656571743
 11
172.62461176767999
 21
174.13016307482249
 72
     1
 10
172.62461176767999
 20
174.13016307482249
 11
172.68435781899623
 21
174.05230050482007
 72
     1
 10
172.68435781899623
 20
174.05230050482007
 11
172.75066268867022
 21
173.97994143688257
 72
     1
 10
172.75066268867022
 20
173.97994143688257
 11
172.82302175660774
 21
173.91363656720856
 72
     1
 10
172.82302175660774
 20
173.91363656720856
 11
172.90088432661017
 21
173.85389051589232
 72
     1
 10
172.90088432661017
 20
173.85389051589232
 11
172.9836578175051
 21
173.80115798645991
 72
     1
 10
172.9836578175051
 20
173.80115798645991
 11
173.07071227304681
 21
173.75584030530121
 72
     1
 10
173.07071227304681
 20
173.75584030530121
 11
173.16138515626372
 21
173.71828236733327
 72
     1
 10
173.16138515626372
 20
173.71828236733327
 11
173.25498639176476
 21
173.68877001114222
 72
     1
 10
173.25498639176476
 20
173.68877001114222
 11
173.35080361762979
 21
173.66752784357868
 72
     1
 10
173.35080361762979
 20
173.66752784357868
 11
173.44810760691399
 21
173.65471753036422
 72
     1
 10
173.44810760691399
 20
173.65471753036422
 11
173.5461578175051
 21
173.65043656571743
 72
     1
 10
173.5461578175051
 20
173.65043656571743
 11
173.64420802809622
 21
173.65471753036422
 72
     1
 10
173.64420802809622
 20
173.65471753036422
 11
173.74151201738039
 21
173.66752784357868
 72
     1
 10
173.74151201738039
 20
173.66752784357868
 11
173.83732924324545
 21
173.68877001114222
 72
     1
 10
173.83732924324545
 20
173.68877001114222
 11
173.93093047874646
 21
173.71828236733327
 72
     1
 10
173.93093047874646
 20
173.71828236733327
 11
174.02160336196337
 21
173.75584030530121
 72
     1
 10
174.02160336196337
 20
173.75584030530121
 11
174.1086578175051
 21
173.80115798645991
 72
     1
 10
174.1086578175051
 20
173.80115798645991
 11
174.19143130840004
 21
173.85389051589232
 72
     1
 10
174.19143130840004
 20
173.85389051589232
 11
174.26929387840246
 21
173.91363656720856
 72
     1
 10
174.26929387840246
 20
173.91363656720856
 11
174.34165294633996
 21
173.97994143688257
 72
     1
 10
174.34165294633996
 20
173.97994143688257
 11
174.40795781601395
 21
174.05230050482007
 72
     1
 10
174.40795781601395
 20
174.05230050482007
 11
174.46770386733021
 21
174.13016307482249
 72
     1
 10
174.46770386733021
 20
174.13016307482249
 11
174.52043639676259
 21
174.21293656571743
 72
     1
 10
174.52043639676259
 20
174.21293656571743
 11
174.56575407792133
 21
174.29999102125916
 72
     1
 10
174.56575407792133
 20
174.29999102125916
 11
174.60331201588926
 21
174.39066390447604
 72
     1
 10
174.60331201588926
 20
174.39066390447604
 11
174.63282437208031
 21
174.48426513997708
 72
     1
 10
174.63282437208031
 20
174.48426513997708
 11
174.65406653964382
 21
174.58008236584215
 72
     1
 10
174.65406653964382
 20
174.58008236584215
 11
174.66687685285831
 21
174.67738635512632
 72
     1
 10
174.66687685285831
 20
174.67738635512632
 11
174.67115781750508
 21
174.77543656571743
 97
        0
 75
     0
 76
     1
 98
        1
 10
0.0
 20
0.0
  0
ENDBLK
  5
49A
100
AcDbEntity
  8
0
390
0
100
AcDbBlockEnd
  0
BLOCK
  5
49D
100
AcDbEntity
  8
0
390
0
100
AcDbBlockBegin
  2
AID2291
 70
     0
 10
0.0
 20
0.0
 30
0.0
  3
DIMENS
  1

  0
MTEXT
  5
49E
100
AcDbEntity
  8
1
390
0
 62
     2
100
AcDbMText
 10
165.159794
 20
162.582881
 30
0.0
 40
6.0
 41
21.6
 71
     7
 72
     1
  1
18.5
210
0.0
220
0.0
230
1.0
 73
     1
 44
1.0
  0
LINE
  5
49F
100
AcDbEntity
  8
1
390
0
  6
Continuous
 62
    11
100
AcDbLine
 10
162.046158
 20
161.410154
 30
0.0
 11
180.546158
 21
161.410154
 31
0.0
  0
LINE
  5
4A0
100
AcDbEntity
  8
1
390
0
  6
Continuous
 62
    11
100
AcDbLine
 10
162.046158
 20
195.291756
 30
0.0
 11
162.046158
 21
159.610154
 31
0.0
  0
LINE
  5
4A1
100
AcDbEntity
  8
1
390
0
  6
Continuous
 62
    11
100
AcDbLine
 10
180.546158
 20
194.291756
 30
0.0
 11
180.546158
 21
159.610154
 31
0.0
  0
POLYLINE
  5
4A2
100
AcDbEntity
  8
1
390
0
  6
Continuous
 62
    11
100
AcDb2dPolyline
 66
     1
 10
0.0
 20
0.0
 30
0.0
 40
1.0
 41
1.0
  0
VERTEX
  5
4A3
100
AcDbEntity
  8
1
390
0
 62
    11
100
AcDbVertex
100
AcDb2dVertex
 10
166.546158
 20
160.510154
 30
0.0
  0
VERTEX
  5
4A4
100
AcDbEntity
  8
1
390
0
 62
    11
100
AcDbVertex
100
AcDb2dVertex
 10
162.046158
 20
161.410154
 30
0.0
  0
VERTEX
  5
4A5
100
AcDbEntity
  8
1
390
0
 62
    11
100
AcDbVertex
100
AcDb2dVertex
 10
166.546158
 20
162.310154
 30
0.0
  0
SEQEND
  5
4A6
100
AcDbEntity
  8
0
390
0
  0
POLYLINE
  5
4A7
100
AcDbEntity
  8
1
390
0
  6
Continuous
 62
    11
100
AcDb2dPolyline
 66
     1
 10
0.0
 20
0.0
 30
0.0
 40
1.0
 41
1.0
  0
VERTEX
  5
4A8
100
AcDbEntity
  8
1
390
0
 62
    11
100
AcDbVertex
100
AcDb2dVertex
 10
176.046158
 20
162.310154
 30
0.0
  0
VERTEX
  5
4A9
100
AcDbEntity
  8
1
390
0
 62
    11
100
AcDbVertex
100
AcDb2dVertex
 10
180.546158
 20
161.410154
 30
0.0
  0
VERTEX
  5
4AA
100
AcDbEntity
  8
1
390
0
 62
    11
100
AcDbVertex
100
AcDb2dVertex
 10
176.046158
 20
160.510154
 30
0.0
  0
SEQEND
  5
4AB
100
AcDbEntity
  8
0
390
0
  0
ENDBLK
  5
4AC
100
AcDbEntity
  8
0
390
0
100
AcDbBlockEnd
  0
BLOCK
  5
4AF
100
AcDbEntity
  8
0
390
0
100
AcDbBlockBegin
  2
AID2299
 70
     0
 10
0.0
 20
0.0
 30
0.0
  3
DIMENS
  1

  0
MTEXT
  5
4B0
100
AcDbEntity
  8
1
390
0
 62
     2
100
AcDbMText
 10
181.491612
 20
175.893618
 30
0.0
 40
6.0
 41
5.563636
 71
     7
 72
     1
  1
2
210
0.0
220
0.0
230
1.0
 73
     1
 44
1.0
  0
LINE
  5
4B1
100
AcDbEntity
  8
1
390
0
  6
Continuous
 62
    11
100
AcDbLine
 10
173.546158
 20
174.775437
 30
0.0
 11
185.227976
 21
174.775437
 31
0.0
  0
LINE
  5
4B2
100
AcDbEntity
  8
1
390
0
  6
Continuous
 62
    11
100
AcDbLine
 10
173.546158
 20
193.991756
 30
0.0
 11
173.546158
 21
172.975437
 31
0.0
  0
LINE
  5
4B3
100
AcDbEntity
  8
1
390
0
  6
Continuous
 62
    11
100
AcDbLine
 10
175.546158
 20
193.791756
 30
0.0
 11
175.546158
 21
172.975437
 31
0.0
  0
HATCH
  5
4B4
100
AcDbEntity
  8
1
390
0
 62
    11
100
AcDbHatch
 10
173.5461578175051
 20
174.77543656571743
 30
0.0
210
0.0
220
0.0
230
1.0
  2
SOLID
 70
     1
 71
     1
 91
        1
 92
        1
 93
       72
 72
     1
 10
172.4211578175051
 20
174.77543656571743
 11
172.42543878215187
 21
174.67738635512632
 72
     1
 10
172.42543878215187
 20
174.67738635512632
 11
172.43824909536636
 21
174.58008236584215
 72
     1
 10
172.43824909536636
 20
174.58008236584215
 11
172.4594912629299
 21
174.48426513997708
 72
     1
 10
172.4594912629299
 20
174.48426513997708
 11
172.48900361912095
 21
174.39066390447604
 72
     1
 10
172.48900361912095
 20
174.39066390447604
 11
172.52656155708888
 21
174.29999102125916
 72
     1
 10
172.52656155708888
 20
174.29999102125916
 11
172.57187923824759
 21
174.21293656571743
 72
     1
 10
172.57187923824759
 20
174.21293656571743
 11
172.62461176767999
 21
174.13016307482249
 72
     1
 10
172.62461176767999
 20
174.13016307482249
 11
172.68435781899623
 21
174.05230050482007
 72
     1
 10
172.68435781899623
 20
174.05230050482007
 11
172.75066268867022
 21
173.97994143688257
 72
     1
 10
172.75066268867022
 20
173.97994143688257
 11
172.82302175660774
 21
173.91363656720856
 72
     1
 10
172.82302175660774
 20
173.91363656720856
 11
172.90088432661017
 21
173.85389051589232
 72
     1
 10
172.90088432661017
 20
173.85389051589232
 11
172.9836578175051
 21
173.80115798645991
 72
     1
 10
172.9836578175051
 20
173.80115798645991
 11
173.07071227304681
 21
173.75584030530121
 72
     1
 10
173.07071227304681
 20
173.75584030530121
 11
173.16138515626372
 21
173.71828236733327
 72
     1
 10
173.16138515626372
 20
173.71828236733327
 11
173.25498639176476
 21
173.68877001114222
 72
     1
 10
173.25498639176476
 20
173.68877001114222
 11
173.35080361762979
 21
173.66752784357868
 72
     1
 10
173.35080361762979
 20
173.66752784357868
 11
173.44810760691399
 21
173.65471753036422
 72
     1
 10
173.44810760691399
 20
173.65471753036422
 11
173.5461578175051
 21
173.65043656571743
 72
     1
 10
173.5461578175051
 20
173.65043656571743
 11
173.64420802809622
 21
173.65471753036422
 72
     1
 10
173.64420802809622
 20
173.65471753036422
 11
173.74151201738039
 21
173.66752784357868
 72
     1
 10
173.74151201738039
 20
173.66752784357868
 11
173.83732924324545
 21
173.68877001114222
 72
     1
 10
173.83732924324545
 20
173.68877001114222
 11
173.93093047874646
 21
173.71828236733327
 72
     1
 10
173.93093047874646
 20
173.71828236733327
 11
174.02160336196337
 21
173.75584030530121
 72
     1
 10
174.02160336196337
 20
173.75584030530121
 11
174.1086578175051
 21
173.80115798645991
 72
     1
 10
174.1086578175051
 20
173.80115798645991
 11
174.19143130840004
 21
173.85389051589232
 72
     1
 10
174.19143130840004
 20
173.85389051589232
 11
174.26929387840246
 21
173.91363656720856
 72
     1
 10
174.26929387840246
 20
173.91363656720856
 11
174.34165294633996
 21
173.97994143688257
 72
     1
 10
174.34165294633996
 20
173.97994143688257
 11
174.40795781601395
 21
174.05230050482007
 72
     1
 10
174.40795781601395
 20
174.05230050482007
 11
174.46770386733021
 21
174.13016307482249
 72
     1
 10
174.46770386733021
 20
174.13016307482249
 11
174.52043639676259
 21
174.21293656571743
 72
     1
 10
174.52043639676259
 20
174.21293656571743
 11
174.56575407792133
 21
174.29999102125916
 72
     1
 10
174.56575407792133
 20
174.29999102125916
 11
174.60331201588926
 21
174.39066390447604
 72
     1
 10
174.60331201588926
 20
174.39066390447604
 11
174.63282437208031
 21
174.48426513997708
 72
     1
 10
174.63282437208031
 20
174.48426513997708
 11
174.65406653964382
 21
174.58008236584215
 72
     1
 10
174.65406653964382
 20
174.58008236584215
 11
174.66687685285831
 21
174.67738635512632
 72
     1
 10
174.66687685285831
 20
174.67738635512632
 11
174.67115781750508
 21
174.77543656571743
 72
     1
 10
174.67115781750508
 20
174.77543656571743
 11
174.66687685285831
 21
174.87348677630854
 72
     1
 10
174.66687685285831
 20
174.87348677630854
 11
174.65406653964382
 21
174.97079076559271
 72
     1
 10
174.65406653964382
 20
174.97079076559271
 11
174.63282437208031
 21
175.06660799145777
 72
     1
 10
174.63282437208031
 20
175.06660799145777
 11
174.60331201588926
 21
175.16020922695878
 72
     1
 10
174.60331201588926
 20
175.16020922695878
 11
174.56575407792133
 21
175.2508821101757
 72
     1
 10
174.56575407792133
 20
175.2508821101757
 11
174.52043639676259
 21
175.33793656571743
 72
     1
 10
174.52043639676259
 20
175.33793656571743
 11
174.46770386733021
 21
175.42071005661236
 72
     1
 10
174.46770386733021
 20
175.42071005661236
 11
174.40795781601395
 21
175.49857262661479
 72
     1
 10
174.40795781601395
 20
175.49857262661479
 11
174.34165294633996
 21
175.57093169455229
 72
     1
 10
174.34165294633996
 20
175.57093169455229
 11
174.26929387840246
 21
175.63723656422627
 72
     1
 10
174.26929387840246
 20
175.63723656422627
 11
174.19143130840004
 21
175.69698261554254
 72
     1
 10
174.19143130840004
 20
175.69698261554254
 11
174.1086578175051
 21
175.74971514497491
 72
     1
 10
174.1086578175051
 20
175.74971514497491
 11
174.02160336196337
 21
175.79503282613365
 72
     1
 10
174.02160336196337
 20
175.79503282613365
 11
173.93093047874646
 21
175.83259076410158
 72
     1
 10
173.93093047874646
 20
175.83259076410158
 11
173.83732924324545
 21
175.86210312029263
 72
     1
 10
173.83732924324545
 20
175.86210312029263
 11
173.74151201738039
 21
175.88334528785614
 72
     1
 10
173.74151201738039
 20
175.88334528785614
 11
173.64420802809622
 21
175.89615560107063
 72
     1
 10
173.64420802809622
 20
175.89615560107063
 11
173.5461578175051
 21
175.9004365657174
 72
     1
 10
173.5461578175051
 20
175.9004365657174
 11
173.44810760691399
 21
175.89615560107063
 72
     1
 10
173.44810760691399
 20
175.89615560107063
 11
173.35080361762979
 21
175.88334528785614
 72
     1
 10
173.35080361762979
 20
175.88334528785614
 11
173.25498639176476
 21
175.86210312029263
 72
     1
 10
173.25498639176476
 20
175.86210312029263
 11
173.16138515626372
 21
175.83259076410158
 72
     1
 10
173.16138515626372
 20
175.83259076410158
 11
173.07071227304681
 21
175.79503282613365
 72
     1
 10
173.07071227304681
 20
175.79503282613365
 11
172.9836578175051
 21
175.74971514497491
 72
     1
 10
172.9836578175051
 20
175.74971514497491
 11
172.90088432661017
 21
175.69698261554254
 72
     1
 10
172.90088432661017
 20
175.69698261554254
 11
172.82302175660774
 21
175.63723656422627
 72
     1
 10
172.82302175660774
 20
175.63723656422627
 11
172.75066268867022
 21
175.57093169455229
 72
     1
 10
172.75066268867022
 20
175.57093169455229
 11
172.68435781899623
 21
175.49857262661479
 72
     1
 10
172.68435781899623
 20
175.49857262661479
 11
172.62461176767999
 21
175.42071005661236
 72
     1
 10
172.62461176767999
 20
175.42071005661236
 11
172.57187923824759
 21
175.33793656571743
 72
     1
 10
172.57187923824759
 20
175.33793656571743
 11
172.52656155708888
 21
175.2508821101757
 72
     1
 10
172.52656155708888
 20
175.2508821101757
 11
172.48900361912095
 21
175.16020922695878
 72
     1
 10
172.48900361912095
 20
175.16020922695878
 11
172.4594912629299
 21
175.06660799145777
 72
     1
 10
172.4594912629299
 20
175.06660799145777
 11
172.43824909536636
 21
174.97079076559271
 72
     1
 10
172.43824909536636
 20
174.97079076559271
 11
172.42543878215187
 21
174.87348677630854
 72
     1
 10
172.42543878215187
 20
174.87348677630854
 11
172.4211578175051
 21
174.77543656571743
 97
        0
 75
     0
 76
     1
 98
        1
 10
0.0
 20
0.0
  0
POLYLINE
  5
4B5
100
AcDbEntity
  8
1
390
0
  6
Continuous
 62
    11
100
AcDb2dPolyline
 66
     1
 10
0.0
 20
0.0
 30
0.0
 40
1.0
 41
1.0
  0
VERTEX
  5
4B6
100
AcDbEntity
  8
1
390
0
 62
    11
100
AcDbVertex
100
AcDb2dVertex
 10
180.046158
 20
175.675437
 30
0.0
  0
VERTEX
  5
4B7
100
AcDbEntity
  8
1
390
0
 62
    11
100
AcDbVertex
100
AcDb2dVertex
 10
175.546158
 20
174.775437
 30
0.0
  0
VERTEX
  5
4B8
100
AcDbEntity
  8
1
390
0
 62
    11
100
AcDbVertex
100
AcDb2dVertex
 10
180.046158
 20
173.875437
 30
0.0
  0
SEQEND
  5
4B9
100
AcDbEntity
  8
0
390
0
  0
ENDBLK
  5
4BA
100
AcDbEntity
  8
0
390
0
100
AcDbBlockEnd
  0
BLOCK
  5
4BE
100
AcDbEntity
  8
0
390
0
100
AcDbBlockBegin
  2
AID2309
 70
     0
 10
0.0
 20
0.0
 30
0.0
  3
DIMENS
  1

  0
MTEXT
  5
4BF
100
AcDbEntity
  8
1
390
0
 62
     2
100
AcDbMText
 10
227.331113
 20
163.771972
 30
0.0
 40
6.0
 41
25.963636
 71
     7
 72
     1
  1
1000
210
0.0
220
0.0
230
0.9999999999999999
 11
1.0
 21
0.0
 31
0.0
 73
     1
 44
1.0
  0
MTEXT
  5
4C0
100
AcDbEntity
  8
1
390
0
 62
     2
100
AcDbMText
 10
244.049295
 20
162.571972
 30
0.0
 40
4.2
 41
4.2
 71
     7
 72
     1
  1
  0
210
0.0
220
0.0
230
0.9999999999999999
 11
1.0
 21
0.0
 31
0.0
 73
     1
 44
1.0
  0
MTEXT
  5
4C1
100
AcDbEntity
  8
1
390
0
 62
     2
100
AcDbMText
 10
244.049295
 20
167.459245
 30
0.0
 40
4.2
 41
14.050909
 71
     7
 72
     1
  1
+50
210
0.0
220
0.0
230
0.9999999999999999
 11
1.0
 21
0.0
 31
0.0
 73
     1
 44
1.0
  0
LINE
  5
4C2
100
AcDbEntity
  8
1
390
0
  6
Continuous
 62
    11
100
AcDbLine
 10
180.546158
 20
161.410154
 30
0.0
 11
298.729704
 21
161.410154
 31
0.0
  0
LINE
  5
4C3
100
AcDbEntity
  8
1
390
0
  6
Continuous
 62
    11
100
AcDbLine
 10
180.546158
 20
194.291756
 30
0.0
 11
180.546158
 21
159.610154
 31
0.0
  0
LINE
  5
4C4
100
AcDbEntity
  8
1
390
0
  6
Continuous
 62
    11
100
AcDbLine
 10
298.729704
 20
191.666756
 30
0.0
 11
298.729704
 21
159.610154
 31
0.0
  0
POLYLINE
  5
4C5
100
AcDbEntity
  8
1
390
0
  6
Continuous
 62
    11
100
AcDb2dPolyline
 66
     1
 10
0.0
 20
0.0
 30
0.0
 40
1.0
 41
1.0
  0
VERTEX
  5
4C6
100
AcDbEntity
  8
1
390
0
 62
    11
100
AcDbVertex
100
AcDb2dVertex
 10
185.046158
 20
160.510154
 30
0.0
  0
VERTEX
  5
4C7
100
AcDbEntity
  8
1
390
0
 62
    11
100
AcDbVertex
100
AcDb2dVertex
 10
180.546158
 20
161.410154
 30
0.0
  0
VERTEX
  5
4C8
100
AcDbEntity
  8
1
390
0
 62
    11
100
AcDbVertex
100
AcDb2dVertex
 10
185.046158
 20
162.310154
 30
0.0
  0
SEQEND
  5
4C9
100
AcDbEntity
  8
0
390
0
  0
POLYLINE
  5
4CA
100
AcDbEntity
  8
1
390
0
  6
Continuous
 62
    11
100
AcDb2dPolyline
 66
     1
 10
0.0
 20
0.0
 30
0.0
 40
1.0
 41
1.0
  0
VERTEX
  5
4CB
100
AcDbEntity
  8
1
390
0
 62
    11
100
AcDbVertex
100
AcDb2dVertex
 10
294.229704
 20
162.310154
 30
0.0
  0
VERTEX
  5
4CC
100
AcDbEntity
  8
1
390
0
 62
    11
100
AcDbVertex
100
AcDb2dVertex
 10
298.729704
 20
161.410154
 30
0.0
  0
VERTEX
  5
4CD
100
AcDbEntity
  8
1
390
0
 62
    11
100
AcDbVertex
100
AcDb2dVertex
 10
294.229704
 20
160.510154
 30
0.0
  0
SEQEND
  5
4CE
100
AcDbEntity
  8
0
390
0
  0
ENDBLK
  5
4CF
100
AcDbEntity
  8
0
390
0
100
AcDbBlockEnd
  0
BLOCK
  5
4D3
100
AcDbEntity
  8
0
390
0
100
AcDbBlockBegin
  2
AID2321
 70
     0
 10
0.0
 20
0.0
 30
0.0
  3
DIMENS
  1

  0
MTEXT
  5
4D4
100
AcDbEntity
  8
1
390
0
 62
     2
100
AcDbMText
 10
289.047886
 20
217.380154
 30
0.0
 40
6.0
 41
11.781818
 71
     7
 72
     1
  1
12
210
0.0
220
0.0
230
1.0
 11
1.0
 21
0.0
 31
0.0
 73
     1
 44
1.0
  0
LINE
  5
4D5
100
AcDbEntity
  8
1
390
0
  6
Continuous
 62
    11
100
AcDbLine
 10
286.729704
 20
216.261972
 30
0.0
 11
298.729704
 21
216.261972
 31
0.0
  0
LINE
  5
4D6
100
AcDbEntity
  8
1
390
0
  6
Continuous
 62
    11
100
AcDbLine
 10
286.729704
 20
206.391756
 30
0.0
 11
286.729704
 21
218.061972
 31
0.0
  0
LINE
  5
4D7
100
AcDbEntity
  8
1
390
0
  6
Continuous
 62
    11
100
AcDbLine
 10
298.729704
 20
203.891756
 30
0.0
 11
298.729704
 21
218.061972
 31
0.0
  0
POLYLINE
  5
4D8
100
AcDbEntity
  8
1
390
0
  6
Continuous
 62
    11
100
AcDb2dPolyline
 66
     1
 10
0.0
 20
0.0
 30
0.0
 40
1.0
 41
1.0
  0
VERTEX
  5
4D9
100
AcDbEntity
  8
1
390
0
 62
    11
100
AcDbVertex
100
AcDb2dVertex
 10
291.229704
 20
215.361972
 30
0.0
  0
VERTEX
  5
4DA
100
AcDbEntity
  8
1
390
0
 62
    11
100
AcDbVertex
100
AcDb2dVertex
 10
286.729704
 20
216.261972
 30
0.0
  0
VERTEX
  5
4DB
100
AcDbEntity
  8
1
390
0
 62
    11
100
AcDbVertex
100
AcDb2dVertex
 10
291.229704
 20
217.161972
 30
0.0
  0
SEQEND
  5
4DC
100
AcDbEntity
  8
0
390
0
  0
POLYLINE
  5
4DD
100
AcDbEntity
  8
1
390
0
  6
Continuous
 62
    11
100
AcDb2dPolyline
 66
     1
 10
0.0
 20
0.0
 30
0.0
 40
1.0
 41
1.0
  0
VERTEX
  5
4DE
100
AcDbEntity
  8
1
390
0
 62
    11
100
AcDbVertex
100
AcDb2dVertex
 10
294.229704
 20
217.161972
 30
0.0
  0
VERTEX
  5
4DF
100
AcDbEntity
  8
1
390
0
 62
    11
100
AcDbVertex
100
AcDb2dVertex
 10
298.729704
 20
216.261972
 30
0.0
  0
VERTEX
  5
4E0
100
AcDbEntity
  8
1
390
0
 62
    11
100
AcDbVertex
100
AcDb2dVertex
 10
294.229704
 20
215.361972
 30
0.0
  0
SEQEND
  5
4E1
100
AcDbEntity
  8
0
390
0
  0
ENDBLK
  5
4E2
100
AcDbEntity
  8
0
390
0
100
AcDbBlockEnd
  0
BLOCK
  5
4E5
100
AcDbEntity
  8
0
390
0
100
AcDbBlockBegin
  2
AID2329
 70
     0
 10
0.0
 20
0.0
 30
0.0
  3
DIMENS
  1

  0
MTEXT
  5
4E6
100
AcDbEntity
  8
1
390
0
 62
     2
100
AcDbMText
 10
273.561522
 20
217.65838
 30
0.0
 40
6.0
 41
11.727273
 71
     7
 72
     1
  1
19
210
0.0
220
0.0
230
1.0
 73
     1
 44
1.0
  0
LINE
  5
4E7
100
AcDbEntity
  8
1
390
0
  6
Continuous
 62
    11
100
AcDbLine
 10
286.729704
 20
216.485653
 30
0.0
 11
267.729704
 21
216.485653
 31
0.0
  0
LINE
  5
4E8
100
AcDbEntity
  8
1
390
0
  6
Continuous
 62
    11
100
AcDbLine
 10
286.729704
 20
206.391756
 30
0.0
 11
286.729704
 21
218.285653
 31
0.0
  0
LINE
  5
4E9
100
AcDbEntity
  8
1
390
0
  6
Continuous
 62
    11
100
AcDbLine
 10
267.729704
 20
206.391756
 30
0.0
 11
267.729704
 21
218.285653
 31
0.0
  0
POLYLINE
  5
4EA
100
AcDbEntity
  8
1
390
0
  6
Continuous
 62
    11
100
AcDb2dPolyline
 66
     1
 10
0.0
 20
0.0
 30
0.0
 40
1.0
 41
1.0
  0
VERTEX
  5
4EB
100
AcDbEntity
  8
1
390
0
 62
    11
100
AcDbVertex
100
AcDb2dVertex
 10
282.229704
 20
217.385653
 30
0.0
  0
VERTEX
  5
4EC
100
AcDbEntity
  8
1
390
0
 62
    11
100
AcDbVertex
100
AcDb2dVertex
 10
286.729704
 20
216.485653
 30
0.0
  0
VERTEX
  5
4ED
100
AcDbEntity
  8
1
390
0
 62
    11
100
AcDbVertex
100
AcDb2dVertex
 10
282.229704
 20
215.585653
 30
0.0
  0
SEQEND
  5
4EE
100
AcDbEntity
  8
0
390
0
  0
POLYLINE
  5
4EF
100
AcDbEntity
  8
1
390
0
  6
Continuous
 62
    11
100
AcDb2dPolyline
 66
     1
 10
0.0
 20
0.0
 30
0.0
 40
1.0
 41
1.0
  0
VERTEX
  5
4F0
100
AcDbEntity
  8
1
390
0
 62
    11
100
AcDbVertex
100
AcDb2dVertex
 10
272.229704
 20
215.585653
 30
0.0
  0
VERTEX
  5
4F1
100
AcDbEntity
  8
1
390
0
 62
    11
100
AcDbVertex
100
AcDb2dVertex
 10
267.729704
 20
216.485653
 30
0.0
  0
VERTEX
  5
4F2
100
AcDbEntity
  8
1
390
0
 62
    11
100
AcDbVertex
100
AcDb2dVertex
 10
272.229704
 20
217.385653
 30
0.0
  0
SEQEND
  5
4F3
100
AcDbEntity
  8
0
390
0
  0
ENDBLK
  5
4F4
100
AcDbEntity
  8
0
390
0
100
AcDbBlockEnd
  0
BLOCK
  5
4F8
100
AcDbEntity
  8
0
390
0
100
AcDbBlockBegin
  2
AID2339
 70
     0
 10
0.0
 20
0.0
 30
0.0
  3
DIMENS
  1

  0
MTEXT
  5
4F9
100
AcDbEntity
  8
1
390
0
 62
     2
100
AcDbMText
 10
275.752431
 20
229.100633
 30
0.0
 40
6.0
 41
12.490909
 71
     7
 72
     1
  1
39
210
0.0
220
0.0
230
1.0
 73
     1
 44
1.0
  0
LINE
  5
4FA
100
AcDbEntity
  8
1
390
0
  6
Continuous
 62
    11
100
AcDbLine
 10
259.729704
 20
227.927906
 30
0.0
 11
298.729704
 21
227.927906
 31
0.0
  0
LINE
  5
4FB
100
AcDbEntity
  8
1
390
0
  6
Continuous
 62
    11
100
AcDbLine
 10
259.729704
 20
204.891756
 30
0.0
 11
259.729704
 21
229.727906
 31
0.0
  0
LINE
  5
4FC
100
AcDbEntity
  8
1
390
0
  6
Continuous
 62
    11
100
AcDbLine
 10
298.729704
 20
203.891756
 30
0.0
 11
298.729704
 21
229.727906
 31
0.0
  0
POLYLINE
  5
4FD
100
AcDbEntity
  8
1
390
0
  6
Continuous
 62
    11
100
AcDb2dPolyline
 66
     1
 10
0.0
 20
0.0
 30
0.0
 40
1.0
 41
1.0
  0
VERTEX
  5
4FE
100
AcDbEntity
  8
1
390
0
 62
    11
100
AcDbVertex
100
AcDb2dVertex
 10
264.229704
 20
227.027906
 30
0.0
  0
VERTEX
  5
4FF
100
AcDbEntity
  8
1
390
0
 62
    11
100
AcDbVertex
100
AcDb2dVertex
 10
259.729704
 20
227.927906
 30
0.0
  0
VERTEX
  5
500
100
AcDbEntity
  8
1
390
0
 62
    11
100
AcDbVertex
100
AcDb2dVertex
 10
264.229704
 20
228.827906
 30
0.0
  0
SEQEND
  5
501
100
AcDbEntity
  8
0
390
0
  0
POLYLINE
  5
502
100
AcDbEntity
  8
1
390
0
  6
Continuous
 62
    11
100
AcDb2dPolyline
 66
     1
 10
0.0
 20
0.0
 30
0.0
 40
1.0
 41
1.0
  0
VERTEX
  5
503
100
AcDbEntity
  8
1
390
0
 62
    11
100
AcDbVertex
100
AcDb2dVertex
 10
294.229704
 20
228.827906
 30
0.0
  0
VERTEX
  5
504
100
AcDbEntity
  8
1
390
0
 62
    11
100
AcDbVertex
100
AcDb2dVertex
 10
298.729704
 20
227.927906
 30
0.0
  0
VERTEX
  5
505
100
AcDbEntity
  8
1
390
0
 62
    11
100
AcDbVertex
100
AcDb2dVertex
 10
294.229704
 20
227.027906
 30
0.0
  0
SEQEND
  5
506
100
AcDbEntity
  8
0
390
0
  0
ENDBLK
  5
507
100
AcDbEntity
  8
0
390
0
100
AcDbBlockEnd
  0
BLOCK
  5
50A
100
AcDbEntity
  8
0
390
0
100
AcDbBlockBegin
  2
AID2347
 70
     0
 10
0.0
 20
0.0
 30
0.0
  3
DIMENS
  1

  0
MTEXT
  5
50B
100
AcDbEntity
  8
1
390
0
 62
     2
100
AcDbMText
 10
313.95058
 20
130.497274
 30
0.0
 40
6.0
 41
5.672727
 71
     7
 72
     1
  1
8
210
0.0
220
0.0
230
1.0
 11
0.0
 21
1.0
 31
0.0
 73
     1
 44
1.0
  0
LINE
  5
50C
100
AcDbEntity
  8
1
390
0
  6
Continuous
 62
    11
100
AcDbLine
 10
315.123307
 20
134.26091
 30
0.0
 11
315.123307
 21
107.504502
 31
0.0
  0
LINE
  5
50D
100
AcDbEntity
  8
1
390
0
  6
Continuous
 62
    11
100
AcDbLine
 10
287.529704
 20
124.504502
 30
0.0
 11
316.923307
 21
124.504502
 31
0.0
  0
LINE
  5
50E
100
AcDbEntity
  8
1
390
0
  6
Continuous
 62
    11
100
AcDbLine
 10
288.329704
 20
116.504502
 30
0.0
 11
316.923307
 21
116.504502
 31
0.0
  0
POLYLINE
  5
50F
100
AcDbEntity
  8
1
390
0
  6
Continuous
 62
    11
100
AcDb2dPolyline
 66
     1
 10
0.0
 20
0.0
 30
0.0
 40
1.0
 41
1.0
  0
VERTEX
  5
510
100
AcDbEntity
  8
1
390
0
 62
    11
100
AcDbVertex
100
AcDb2dVertex
 10
314.223307
 20
129.004502
 30
0.0
  0
VERTEX
  5
511
100
AcDbEntity
  8
1
390
0
 62
    11
100
AcDbVertex
100
AcDb2dVertex
 10
315.123307
 20
124.504502
 30
0.0
  0
VERTEX
  5
512
100
AcDbEntity
  8
1
390
0
 62
    11
100
AcDbVertex
100
AcDb2dVertex
 10
316.023307
 20
129.004502
 30
0.0
  0
SEQEND
  5
513
100
AcDbEntity
  8
0
390
0
  0
POLYLINE
  5
514
100
AcDbEntity
  8
1
390
0
  6
Continuous
 62
    11
100
AcDb2dPolyline
 66
     1
 10
0.0
 20
0.0
 30
0.0
 40
1.0
 41
1.0
  0
VERTEX
  5
515
100
AcDbEntity
  8
1
390
0
 62
    11
100
AcDbVertex
100
AcDb2dVertex
 10
316.023307
 20
112.004502
 30
0.0
  0
VERTEX
  5
516
100
AcDbEntity
  8
1
390
0
 62
    11
100
AcDbVertex
100
AcDb2dVertex
 10
315.123307
 20
116.504502
 30
0.0
  0
VERTEX
  5
517
100
AcDbEntity
  8
1
390
0
 62
    11
100
AcDbVertex
100
AcDb2dVertex
 10
314.223307
 20
112.004502
 30
0.0
  0
SEQEND
  5
518
100
AcDbEntity
  8
0
390
0
  0
ENDBLK
  5
519
100
AcDbEntity
  8
0
390
0
100
AcDbBlockEnd
  0
BLOCK
  5
51C
100
AcDbEntity
  8
0
390
0
100
AcDbBlockBegin
  2
AID2355
 70
     0
 10
0.0
 20
0.0
 30
0.0
  3
DIMENS
  1

  0
MTEXT
  5
51D
100
AcDbEntity
  8
1
390
0
 62
     2
100
AcDbMText
 10
324.567579
 20
130.422683
 30
0.0
 40
6.0
 41
5.454545
 71
     7
 72
     1
  1
9
210
0.0
220
0.0
230
1.0
 11
0.0
 21
1.0
 31
0.0
 73
     1
 44
1.0
  0
LINE
  5
51E
100
AcDbEntity
  8
1
390
0
  6
Continuous
 62
    11
100
AcDbLine
 10
325.740306
 20
134.131774
 30
0.0
 11
325.740306
 21
106.504502
 31
0.0
  0
LINE
  5
51F
100
AcDbEntity
  8
1
390
0
  6
Continuous
 62
    11
100
AcDbLine
 10
288.329704
 20
124.504502
 30
0.0
 11
327.540306
 21
124.504502
 31
0.0
  0
LINE
  5
520
100
AcDbEntity
  8
1
390
0
  6
Continuous
 62
    11
100
AcDbLine
 10
287.529704
 20
115.504502
 30
0.0
 11
327.540306
 21
115.504502
 31
0.0
  0
POLYLINE
  5
521
100
AcDbEntity
  8
1
390
0
  6
Continuous
 62
    11
100
AcDb2dPolyline
 66
     1
 10
0.0
 20
0.0
 30
0.0
 40
1.0
 41
1.0
  0
VERTEX
  5
522
100
AcDbEntity
  8
1
390
0
 62
    11
100
AcDbVertex
100
AcDb2dVertex
 10
324.840306
 20
129.004502
 30
0.0
  0
VERTEX
  5
523
100
AcDbEntity
  8
1
390
0
 62
    11
100
AcDbVertex
100
AcDb2dVertex
 10
325.740306
 20
124.504502
 30
0.0
  0
VERTEX
  5
524
100
AcDbEntity
  8
1
390
0
 62
    11
100
AcDbVertex
100
AcDb2dVertex
 10
326.640306
 20
129.004502
 30
0.0
  0
SEQEND
  5
525
100
AcDbEntity
  8
0
390
0
  0
POLYLINE
  5
526
100
AcDbEntity
  8
1
390
0
  6
Continuous
 62
    11
100
AcDb2dPolyline
 66
     1
 10
0.0
 20
0.0
 30
0.0
 40
1.0
 41
1.0
  0
VERTEX
  5
527
100
AcDbEntity
  8
1
390
0
 62
    11
100
AcDbVertex
100
AcDb2dVertex
 10
326.640306
 20
111.004502
 30
0.0
  0
VERTEX
  5
528
100
AcDbEntity
  8
1
390
0
 62
    11
100
AcDbVertex
100
AcDb2dVertex
 10
325.740306
 20
115.504502
 30
0.0
  0
VERTEX
  5
529
100
AcDbEntity
  8
1
390
0
 62
    11
100
AcDbVertex
100
AcDb2dVertex
 10
324.840306
 20
111.004502
 30
0.0
  0
SEQEND
  5
52A
100
AcDbEntity
  8
0
390
0
  0
ENDBLK
  5
52B
100
AcDbEntity
  8
0
390
0
100
AcDbBlockEnd
  0
BLOCK
  5
52E
100
AcDbEntity
  8
0
390
0
100
AcDbBlockBegin
  2
AID2363
 70
     0
 10
0.0
 20
0.0
 30
0.0
  3
DNote#note referencing elements
  1

  0
MTEXT
  5
52F
100
AcDbEntity
  8
1
390
0
 62
     7
100
AcDbMText
 10
183.386207
 20
232.138805
 30
0.0
 40
6.0
 41
83.018182
 71
     7
 72
     1
  1
M5×0.5(細目)
210
0.0
220
0.0
230
1.0
 73
     1
 44
1.0
  0
LINE
  5
530
100
AcDbEntity
  8
1
390
0
  6
Continuous
 62
     9
100
AcDbLine
 10
183.877116
 20
230.538805
 30
0.0
 11
225.386207
 21
230.538805
 31
0.0
  0
POLYLINE
  5
531
100
AcDbEntity
  8
1
390
0
  6
Continuous
 62
     9
100
AcDb2dPolyline
 66
     1
 10
0.0
 20
0.0
 30
0.0
 40
1.0
 41
1.0
  0
VERTEX
  5
532
100
AcDbEntity
  8
1
390
0
 62
     9
100
AcDbVertex
100
AcDb2dVertex
 10
179.635121
 20
203.636396
 30
0.0
  0
VERTEX
  5
533
100
AcDbEntity
  8
1
390
0
 62
     9
100
AcDbVertex
100
AcDb2dVertex
 10
177.847316
 20
199.091756
 30
0.0
  0
VERTEX
  5
534
100
AcDbEntity
  8
1
390
0
 62
     9
100
AcDbVertex
100
AcDb2dVertex
 10
177.867325
 20
203.975361
 30
0.0
  0
SEQEND
  5
535
100
AcDbEntity
  8
0
390
0
  0
LINE
  5
536
100
AcDbEntity
  8
1
390
0
  6
Continuous
 62
     9
100
AcDbLine
 10
177.847316
 20
199.091756
 30
0.0
 11
183.877116
 21
230.538805
 31
0.0
  0
ENDBLK
  5
537
100
AcDbEntity
  8
0
390
0
100
AcDbBlockEnd
  0
BLOCK
  5
53A
100
AcDbEntity
  8
0
390
0
100
AcDbBlockBegin
  2
AID2373
 70
     0
 10
0.0
 20
0.0
 30
0.0
  3
DIMENS
  1

  0
MTEXT
  5
53B
100
AcDbEntity
  8
1
390
0
 62
     2
100
AcDbMText
 10
218.828337
 20
203.580847
 30
0.0
 40
6.0
 41
9.490909
 71
     7
 72
     1
  1
Φ
210
0.0
220
0.0
230
1.0
 11
0.0
 21
1.0
 31
0.0
 73
     1
 44
1.0
  0
MTEXT
  5
53C
100
AcDbEntity
  8
1
390
0
 62
     2
100
AcDbMText
 10
218.828337
 20
209.526301
 30
0.0
 40
6.0
 41
14.563636
 71
     7
 72
     1
  1
1.6
210
0.0
220
0.0
230
1.0
 11
0.0
 21
1.0
 31
0.0
 73
     1
 44
1.0
  0
LINE
  5
53D
100
AcDbEntity
  8
1
390
0
  6
Continuous
 62
    11
100
AcDbLine
 10
220.001065
 20
187.811756
 30
0.0
 11
220.001065
 21
218.144483
 31
0.0
  0
POLYLINE
  5
53E
100
AcDbEntity
  8
1
390
0
  6
Continuous
 62
    11
100
AcDb2dPolyline
 66
     1
 10
0.0
 20
0.0
 30
0.0
 40
1.0
 41
1.0
  0
VERTEX
  5
53F
100
AcDbEntity
  8
1
390
0
 62
    11
100
AcDbVertex
100
AcDb2dVertex
 10
220.901065
 20
192.311756
 30
0.0
  0
VERTEX
  5
540
100
AcDbEntity
  8
1
390
0
 62
    11
100
AcDbVertex
100
AcDb2dVertex
 10
220.001065
 20
196.811756
 30
0.0
  0
VERTEX
  5
541
100
AcDbEntity
  8
1
390
0
 62
    11
100
AcDbVertex
100
AcDb2dVertex
 10
219.101065
 20
192.311756
 30
0.0
  0
SEQEND
  5
542
100
AcDbEntity
  8
0
390
0
  0
POLYLINE
  5
543
100
AcDbEntity
  8
1
390
0
  6
Continuous
 62
    11
100
AcDb2dPolyline
 66
     1
 10
0.0
 20
0.0
 30
0.0
 40
1.0
 41
1.0
  0
VERTEX
  5
544
100
AcDbEntity
  8
1
390
0
 62
    11
100
AcDbVertex
100
AcDb2dVertex
 10
219.101065
 20
202.871756
 30
0.0
  0
VERTEX
  5
545
100
AcDbEntity
  8
1
390
0
 62
    11
100
AcDbVertex
100
AcDb2dVertex
 10
220.001065
 20
198.371756
 30
0.0
  0
VERTEX
  5
546
100
AcDbEntity
  8
1
390
0
 62
    11
100
AcDbVertex
100
AcDb2dVertex
 10
220.901065
 20
202.871756
 30
0.0
  0
SEQEND
  5
547
100
AcDbEntity
  8
0
390
0
  0
ENDBLK
  5
548
100
AcDbEntity
  8
0
390
0
100
AcDbBlockEnd
  0
BLOCK
  5
54B
100
AcDbEntity
  8
0
390
0
100
AcDbBlockBegin
  2
AID2380
 70
     0
 10
0.0
 20
0.0
 30
0.0
  3
DNote#note referencing elements
  1

  0
MTEXT
  5
54C
100
AcDbEntity
  8
1
390
0
 62
     7
100
AcDbMText
 10
354.223036
 20
39.905262
 30
0.0
 40
4.0
 41
99.163636
 71
     7
 72
     1
  1
小径金型表面温度センサ
210
0.0
220
0.0
230
1.0
 73
     1
 44
1.0
  0
ENDBLK
  5
54D
100
AcDbEntity
  8
0
390
0
100
AcDbBlockEnd
  0
BLOCK
  5
550
100
AcDbEntity
  8
0
390
0
100
AcDbBlockBegin
  2
AID2384
 70
     0
 10
0.0
 20
0.0
 30
0.0
  3
DNote#note referencing elements
  1

  0
MTEXT
  5
551
100
AcDbEntity
  8
1
390
0
 62
     7
100
AcDbMText
 10
353.310843
 20
28.42575
 30
0.0
 40
5.0
 41
101.727273
 71
     7
 72
     1
  1
STF01.0×11.5×18.5
210
0.0
220
0.0
230
1.0
 73
     1
 44
1.0
  0
ENDBLK
  5
552
100
AcDbEntity
  8
0
390
0
100
AcDbBlockEnd
  0
BLOCK
  5
555
100
AcDbEntity
  8
0
390
0
100
AcDbBlockBegin
  2
AID2388
 70
     0
 10
0.0
 20
0.0
 30
0.0
  3
DNote#note referencing elements
  1

  0
MTEXT
  5
556
100
AcDbEntity
  8
1
390
0
 62
     7
100
AcDbMText
 10
323.459836
 20
31.428545
 30
0.0
 40
5.0
 41
15.363636
 71
     7
 72
     1
  1
1：１
210
0.0
220
0.0
230
1.0
 73
     1
 44
1.0
  0
ENDBLK
  5
557
100
AcDbEntity
  8
0
390
0
100
AcDbBlockEnd
  0
ENDSEC
  0
SECTION
  2
ENTITIES
  0
LINE
  5
2C
100
AcDbEntity
  8
256
390
0
  6
Continuous
 62
     8
100
AcDbLine
 10
222.0
 20
34.5
 30
0.0
 11
271.0
 21
34.5
 31
0.0
  0
LINE
  5
2D
100
AcDbEntity
  8
256
390
0
  6
Continuous
 62
     8
100
AcDbLine
 10
390.25
 20
277.0
 30
0.0
 11
390.25
 21
287.0
 31
0.0
  0
LINE
  5
2E
100
AcDbEntity
  8
256
390
0
  6
Continuous
 62
     8
100
AcDbLine
 10
229.511017
 20
262.368011
 30
0.0
 11
234.511017
 21
262.368011
 31
0.0
  0
LINE
  5
2F
100
AcDbEntity
  8
256
390
0
  6
Continuous
 62
     8
100
AcDbLine
 10
222.0
 20
38.0
 30
0.0
 11
271.0
 21
38.0
 31
0.0
  0
LINE
  5
30
100
AcDbEntity
  8
256
390
0
  6
Continuous
 62
     8
100
AcDbLine
 10
237.0
 20
287.0
 30
0.0
 11
237.0
 21
257.0
 31
0.0
  0
LINE
  5
31
100
AcDbEntity
  8
256
390
0
  6
Continuous
 62
     8
100
AcDbLine
 10
303.8
 20
48.0
 30
0.0
 11
303.8
 21
10.0
 31
0.0
  0
LINE
  5
32
100
AcDbEntity
  8
256
390
0
  6
Continuous
 62
     8
100
AcDbLine
 10
385.25
 20
277.0
 30
0.0
 11
385.25
 21
287.0
 31
0.0
  0
LINE
  5
33
100
AcDbEntity
  8
256
390
0
  6
Continuous
 62
     8
100
AcDbLine
 10
287.4
 20
31.0
 30
0.0
 11
287.4
 21
10.0
 31
0.0
  0
LINE
  5
34
100
AcDbEntity
  8
256
390
0
  6
Continuous
 62
     8
100
AcDbLine
 10
253.750031
 20
44.0
 30
0.0
 11
253.750031
 21
10.0
 31
0.0
  0
LINE
  5
35
100
AcDbEntity
  8
256
390
0
  6
Continuous
 62
     8
100
AcDbLine
 10
410.0
 20
10.0
 30
0.0
 11
410.0
 21
287.0
 31
0.0
  0
LINE
  5
36
100
AcDbEntity
  8
256
390
0
  6
Continuous
 62
     8
100
AcDbLine
 10
335.25
 20
15.666667
 30
0.0
 11
335.25
 21
48.0
 31
0.0
  0
LINE
  5
37
100
AcDbEntity
  8
256
390
0
  6
Continuous
 62
     8
100
AcDbLine
 10
410.0
 20
287.0
 30
0.0
 11
10.0
 21
287.0
 31
0.0
  0
LINE
  5
38
100
AcDbEntity
  8
256
390
0
  6
Continuous
 62
     8
100
AcDbLine
 10
362.0
 20
287.0
 30
0.0
 11
362.0
 21
257.0
 31
0.0
  0
LINE
  5
39
100
AcDbEntity
  8
256
390
0
  6
Continuous
 62
     8
100
AcDbLine
 10
410.0
 20
267.0
 30
0.0
 11
227.0
 21
267.0
 31
0.0
  0
LINE
  5
3A
100
AcDbEntity
  8
256
390
0
  6
Continuous
 62
     8
100
AcDbLine
 10
410.0
 20
277.0
 30
0.0
 11
227.0
 21
277.0
 31
0.0
  0
LINE
  5
3B
100
AcDbEntity
  8
256
390
0
  6
Continuous
 62
     8
100
AcDbLine
 10
271.0
 20
41.0
 30
0.0
 11
335.25
 21
41.0
 31
0.0
  0
LINE
  5
3C
100
AcDbEntity
  8
256
390
0
  6
Continuous
 62
     8
100
AcDbLine
 10
222.0
 20
44.0
 30
0.0
 11
271.0
 21
44.0
 31
0.0
  0
LINE
  5
3D
100
AcDbEntity
  8
256
390
0
  6
Continuous
 62
     8
100
AcDbLine
 10
232.011017
 20
261.664886
 30
0.0
 11
229.511017
 21
257.368011
 31
0.0
  0
LINE
  5
3E
100
AcDbEntity
  8
256
390
0
  6
Continuous
 62
     8
100
AcDbLine
 10
248.000031
 20
38.0
 30
0.0
 11
222.0
 21
44.0
 31
0.0
  0
LINE
  5
3F
100
AcDbEntity
  8
256
390
0
  6
Continuous
 62
     8
100
AcDbLine
 10
357.0
 20
262.0
 30
0.0
 11
227.0
 21
262.0
 31
0.0
  0
LINE
  5
40
100
AcDbEntity
  8
256
390
0
  6
Continuous
 62
     8
100
AcDbLine
 10
222.0
 20
31.0
 30
0.0
 11
320.25
 21
31.0
 31
0.0
  0
LINE
  5
41
100
AcDbEntity
  8
256
390
0
  6
Continuous
 62
     8
100
AcDbLine
 10
234.511017
 20
267.368011
 30
0.0
 11
232.011017
 21
271.664886
 31
0.0
  0
LINE
  5
42
100
AcDbEntity
  8
256
390
0
  6
Continuous
 62
     8
100
AcDbLine
 10
385.25
 20
282.0
 30
0.0
 11
362.0
 21
282.0
 31
0.0
  0
LINE
  5
43
100
AcDbEntity
  8
256
390
0
  6
Continuous
 62
     8
100
AcDbLine
 10
10.0
 20
10.0
 30
0.0
 11
410.0
 21
10.0
 31
0.0
  0
LINE
  5
44
100
AcDbEntity
  8
256
390
0
  6
Continuous
 62
     8
100
AcDbLine
 10
222.0
 20
48.0
 30
0.0
 11
410.0
 21
48.0
 31
0.0
  0
LINE
  5
45
100
AcDbEntity
  8
256
390
0
  6
Continuous
 62
     8
100
AcDbLine
 10
227.000031
 20
10.0
 30
0.0
 11
410.0
 21
10.0
 31
0.0
  0
LINE
  5
46
100
AcDbEntity
  8
256
390
0
  6
Continuous
 62
     8
100
AcDbLine
 10
342.0
 20
287.0
 30
0.0
 11
342.0
 21
257.0
 31
0.0
  0
LINE
  5
47
100
AcDbEntity
  8
256
390
0
  6
Continuous
 62
     8
100
AcDbLine
 10
222.0
 20
13.5
 30
0.0
 11
271.000031
 21
13.5
 31
0.0
  0
LINE
  5
48
100
AcDbEntity
  8
256
390
0
  6
Continuous
 62
     8
100
AcDbLine
 10
222.0
 20
20.5
 30
0.0
 11
271.0
 21
20.5
 31
0.0
  0
LINE
  5
49
100
AcDbEntity
  8
256
390
0
  6
Continuous
 62
     8
100
AcDbLine
 10
222.0
 20
27.5
 30
0.0
 11
271.0
 21
27.5
 31
0.0
  0
LINE
  5
4A
100
AcDbEntity
  8
256
390
0
  6
Continuous
 62
     8
100
AcDbLine
 10
248.000031
 20
44.0
 30
0.0
 11
248.000031
 21
10.0
 31
0.0
  0
LINE
  5
4B
100
AcDbEntity
  8
256
390
0
  6
Continuous
 62
     8
100
AcDbLine
 10
222.0
 20
48.0
 30
0.0
 11
222.0
 21
10.0
 31
0.0
  0
LINE
  5
4C
100
AcDbEntity
  8
256
390
0
  6
Continuous
 62
     8
100
AcDbLine
 10
232.011017
 20
276.664886
 30
0.0
 11
229.511017
 21
272.368011
 31
0.0
  0
LINE
  5
4D
100
AcDbEntity
  8
256
390
0
  6
Continuous
 62
     8
100
AcDbLine
 10
357.0
 20
282.0
 30
0.0
 11
227.0
 21
282.0
 31
0.0
  0
LINE
  5
4E
100
AcDbEntity
  8
256
390
0
  6
Continuous
 62
     8
100
AcDbLine
 10
229.511017
 20
267.368011
 30
0.0
 11
234.511017
 21
267.368011
 31
0.0
  0
LINE
  5
4F
100
AcDbEntity
  8
256
390
0
  6
Continuous
 62
     8
100
AcDbLine
 10
222.0
 20
24.0
 30
0.0
 11
271.0
 21
24.0
 31
0.0
  0
LINE
  5
50
100
AcDbEntity
  8
256
390
0
  6
Continuous
 62
     8
100
AcDbLine
 10
232.011017
 20
281.664886
 30
0.0
 11
229.511017
 21
277.368011
 31
0.0
  0
LINE
  5
51
100
AcDbEntity
  8
256
390
0
  6
Continuous
 62
     8
100
AcDbLine
 10
265.250031
 20
44.0
 30
0.0
 11
265.250031
 21
10.0
 31
0.0
  0
LINE
  5
52
100
AcDbEntity
  8
256
390
0
  6
Continuous
 62
     8
100
AcDbLine
 10
229.511017
 20
277.368011
 30
0.0
 11
234.511017
 21
277.368011
 31
0.0
  0
LINE
  5
53
100
AcDbEntity
  8
256
390
0
  6
Continuous
 62
     8
100
AcDbLine
 10
320.25
 20
10.0
 30
0.0
 11
320.25
 21
48.0
 31
0.0
  0
LINE
  5
54
100
AcDbEntity
  8
256
390
0
  6
Continuous
 62
     8
100
AcDbLine
 10
232.011017
 20
271.664886
 30
0.0
 11
229.511017
 21
267.368011
 31
0.0
  0
LINE
  5
55
100
AcDbEntity
  8
256
390
0
  6
Continuous
 62
     8
100
AcDbLine
 10
234.511017
 20
277.368011
 30
0.0
 11
232.011017
 21
281.664886
 31
0.0
  0
LINE
  5
56
100
AcDbEntity
  8
256
390
0
  6
Continuous
 62
     8
100
AcDbLine
 10
222.0
 20
17.0
 30
0.0
 11
271.0
 21
17.0
 31
0.0
  0
LINE
  5
57
100
AcDbEntity
  8
256
390
0
  6
Continuous
 62
     8
100
AcDbLine
 10
271.0
 20
48.0
 30
0.0
 11
271.0
 21
10.0
 31
0.0
  0
LINE
  5
58
100
AcDbEntity
  8
256
390
0
  6
Continuous
 62
     8
100
AcDbLine
 10
357.0
 20
287.0
 30
0.0
 11
357.0
 21
257.0
 31
0.0
  0
LINE
  5
59
100
AcDbEntity
  8
256
390
0
  6
Continuous
 62
     8
100
AcDbLine
 10
335.25
 20
35.0
 30
0.0
 11
410.0
 21
35.0
 31
0.0
  0
LINE
  5
5A
100
AcDbEntity
  8
256
390
0
  6
Continuous
 62
     8
100
AcDbLine
 10
227.0
 20
287.0
 30
0.0
 11
227.0
 21
257.0
 31
0.0
  0
LINE
  5
5B
100
AcDbEntity
  8
256
390
0
  6
Continuous
 62
     8
100
AcDbLine
 10
327.0
 20
287.0
 30
0.0
 11
327.0
 21
257.0
 31
0.0
  0
LINE
  5
5C
100
AcDbEntity
  8
256
390
0
  6
Continuous
 62
     8
100
AcDbLine
 10
229.511017
 20
272.368011
 30
0.0
 11
234.511017
 21
272.368011
 31
0.0
  0
LINE
  5
5D
100
AcDbEntity
  8
256
390
0
  6
Continuous
 62
     8
100
AcDbLine
 10
259.500031
 20
44.0
 30
0.0
 11
259.500031
 21
10.0
 31
0.0
  0
LINE
  5
5E
100
AcDbEntity
  8
256
390
0
  6
Continuous
 62
     8
100
AcDbLine
 10
320.25
 20
15.666667
 30
0.0
 11
410.0
 21
15.666667
 31
0.0
  0
LINE
  5
5F
100
AcDbEntity
  8
256
390
0
  6
Continuous
 62
     8
100
AcDbLine
 10
229.511017
 20
257.368011
 30
0.0
 11
234.511017
 21
257.368011
 31
0.0
  0
LINE
  5
60
100
AcDbEntity
  8
256
390
0
  6
Continuous
 62
     8
100
AcDbLine
 10
232.011017
 20
266.664886
 30
0.0
 11
229.511017
 21
262.368011
 31
0.0
  0
LINE
  5
61
100
AcDbEntity
  8
256
390
0
  6
Continuous
 62
     8
100
AcDbLine
 10
410.0
 20
257.0
 30
0.0
 11
227.0
 21
257.0
 31
0.0
  0
LINE
  5
62
100
AcDbEntity
  8
256
390
0
  6
Continuous
 62
     8
100
AcDbLine
 10
234.511017
 20
257.368011
 30
0.0
 11
232.011017
 21
261.664886
 31
0.0
  0
LINE
  5
63
100
AcDbEntity
  8
256
390
0
  6
Continuous
 62
     8
100
AcDbLine
 10
271.0
 20
26.5
 30
0.0
 11
410.0
 21
26.5
 31
0.0
  0
LINE
  5
64
100
AcDbEntity
  8
256
390
0
  6
Continuous
 62
     8
100
AcDbLine
 10
10.0
 20
10.0
 30
0.0
 11
10.0
 21
287.0
 31
0.0
  0
LINE
  5
65
100
AcDbEntity
  8
256
390
0
  6
Continuous
 62
     8
100
AcDbLine
 10
234.511017
 20
262.368011
 30
0.0
 11
232.011017
 21
266.664886
 31
0.0
  0
LINE
  5
66
100
AcDbEntity
  8
256
390
0
  6
Continuous
 62
     8
100
AcDbLine
 10
350.25
 20
15.666667
 30
0.0
 11
350.25
 21
48.0
 31
0.0
  0
LINE
  5
67
100
AcDbEntity
  8
256
390
0
  6
Continuous
 62
     8
100
AcDbLine
 10
307.164695
 20
32.573373
 30
0.0
 11
314.235801
 21
39.644442
 31
0.0
  0
LINE
  5
68
100
AcDbEntity
  8
256
390
0
  6
Continuous
 62
     8
100
AcDbLine
 10
357.0
 20
272.0
 30
0.0
 11
227.0
 21
272.0
 31
0.0
  0
LINE
  5
69
100
AcDbEntity
  8
256
390
0
  6
Continuous
 62
     8
100
AcDbLine
 10
234.511017
 20
272.368011
 30
0.0
 11
232.011017
 21
276.664886
 31
0.0
  0
MTEXT
  5
6A
100
AcDbEntity
  8
256
390
0
 62
     8
100
AcDbMText
 10
262.375031
 20
28.244792
 30
0.0
 40
1.75
 41
4.55
 71
     8
 72
     1
  1
0.5  
210
0.0
220
0.0
230
1.0
 73
     1
 44
1.0
  0
MTEXT
  5
6B
100
AcDbEntity
  8
256
390
0
 62
     8
100
AcDbMText
 10
250.875031
 20
21.244792
 30
0.0
 40
1.75
 41
4.55
 71
     8
 72
     1
  1
0.2  
210
0.0
220
0.0
230
1.0
 73
     1
 44
1.0
  0
MTEXT
  5
6C
100
AcDbEntity
  8
256
390
0
 62
     8
100
AcDbMText
 10
250.875031
 20
28.244792
 30
0.0
 40
1.75
 41
3.993182
 71
     8
 72
     1
  1
0.1  
210
0.0
220
0.0
230
1.0
 73
     1
 44
1.0
  0
MTEXT
  5
6D
100
AcDbEntity
  8
256
390
0
 62
     8
100
AcDbMText
 10
250.875031
 20
17.744792
 30
0.0
 40
1.75
 41
4.55
 71
     8
 72
     1
  1
0.3  
210
0.0
220
0.0
230
1.0
 73
     1
 44
1.0
  0
MTEXT
  5
6E
100
AcDbEntity
  8
256
390
0
 62
     8
100
AcDbMText
 10
287.02719
 20
42.856306
 30
0.0
 40
3.386667
 41
24.56873
 71
     8
 72
     1
  1
材    質  
210
0.0
220
0.0
230
1.0
 73
     1
 44
1.0
  0
MTEXT
  5
6F
100
AcDbEntity
  8
256
390
0
 62
     8
100
AcDbMText
 10
256.625031
 20
35.244792
 30
0.0
 40
1.75
 41
3.993182
 71
     8
 72
     1
  1
0.1  
210
0.0
220
0.0
230
1.0
 73
     1
 44
1.0
  0
MTEXT
  5
70
100
AcDbEntity
  8
256
390
0
 62
     8
100
AcDbMText
 10
268.125015
 20
14.244792
 30
0.0
 40
1.75
 41
1.590909
 71
     8
 72
     1
  1
6  
210
0.0
220
0.0
230
1.0
 73
     1
 44
1.0
  0
MTEXT
  5
71
100
AcDbEntity
  8
256
390
0
 62
     8
100
AcDbMText
 10
268.125015
 20
21.244792
 30
0.0
 40
1.75
 41
4.486364
 71
     8
 72
     1
  1
2.5  
210
0.0
220
0.0
230
1.0
 73
     1
 44
1.0
  0
MTEXT
  5
72
100
AcDbEntity
  8
256
390
0
 62
     8
100
AcDbMText
 10
312.52208
 20
42.980576
 30
0.0
 40
3.386667
 41
17.518305
 71
     8
 72
     1
  1
個 数  
210
0.0
220
0.0
230
1.0
 73
     1
 44
1.0
  0
MTEXT
  5
73
100
AcDbEntity
  8
256
390
0
 62
     8
100
AcDbMText
 10
360.130196
 20
257.742347
 30
0.0
 40
2.822222
 41
5.926666
 71
     8
 72
     1
  1
理  
210
0.0
220
0.0
230
1.0
 73
     1
 44
1.0
  0
MTEXT
  5
74
100
AcDbEntity
  8
256
390
0
 62
     8
100
AcDbMText
 10
257.063488
 20
41.133356
 30
0.0
 40
1.7952
 41
7.6704
 71
     8
 72
     1
  1
中級  
210
0.0
220
0.0
230
1.0
 73
     1
 44
1.0
  0
MTEXT
  5
75
100
AcDbEntity
  8
256
390
0
 62
     8
100
AcDbMText
 10
268.763424
 20
39.076539
 30
0.0
 40
2.0
 41
7.581818
 71
     8
 72
     1
  1
v %%p  
210
0.0
220
0.0
230
1.0
 73
     1
 44
1.0
  0
MTEXT
  5
76
100
AcDbEntity
  8
256
390
0
 62
     8
100
AcDbMText
 10
246.361108
 20
10.744792
 30
0.0
 40
1.75
 41
35.111364
 71
     9
 72
     1
  1
2000を超え4000以下  
210
0.0
220
0.0
230
1.0
 73
     1
 44
1.0
  0
MTEXT
  5
77
100
AcDbEntity
  8
256
390
0
 62
     8
100
AcDbMText
 10
315.229673
 20
32.880846
 30
0.0
 40
3.386667
 41
10.375516
 71
     8
 72
     1
  1
1台  
210
0.0
220
0.0
230
1.0
 73
     1
 44
1.0
  0
MTEXT
  5
78
100
AcDbEntity
  8
256
390
0
 62
     8
100
AcDbMText
 10
246.383663
 20
21.244792
 30
0.0
 40
1.75
 41
32.056818
 71
     9
 72
     1
  1
 120を超え 400以下  
210
0.0
220
0.0
230
1.0
 73
     1
 44
1.0
  0
MTEXT
  5
79
100
AcDbEntity
  8
256
390
0
 62
     8
100
AcDbMText
 10
388.380196
 20
278.047566
 30
0.0
 40
3.386667
 41
6.958061
 71
     8
 72
     1
  1
取  
210
0.0
220
0.0
230
1.0
 73
     1
 44
1.0
  0
MTEXT
  5
7A
100
AcDbEntity
  8
256
390
0
 62
     8
100
AcDbMText
 10
388.380196
 20
282.575181
 30
0.0
 40
3.386667
 41
6.68097
 71
     8
 72
     1
  1
面  
210
0.0
220
0.0
230
1.0
 73
     1
 44
1.0
  0
MTEXT
  5
7B
100
AcDbEntity
  8
256
390
0
 62
     8
100
AcDbMText
 10
230.223858
 20
38.623908
 30
0.0
 40
1.5
 41
24.272727
 71
     8
 72
     1
  1
寸法の区分(mm)  
210
0.0
220
0.0
230
1.0
 73
     1
 44
1.0
  0
MTEXT
  5
7C
100
AcDbEntity
  8
256
390
0
 62
     8
100
AcDbMText
 10
343.211504
 20
19.692223
 30
0.0
 40
3.386667
 41
16.902547
 71
     8
 72
     1
  1
図 番  
210
0.0
220
0.0
230
1.0
 73
     1
 44
1.0
  0
MTEXT
  5
7D
100
AcDbEntity
  8
256
390
0
 62
     8
100
AcDbMText
 10
262.375031
 20
31.744792
 30
0.0
 40
1.75
 41
4.55
 71
     8
 72
     1
  1
0.3  
210
0.0
220
0.0
230
1.0
 73
     1
 44
1.0
  0
MTEXT
  5
7E
100
AcDbEntity
  8
256
390
0
 62
     8
100
AcDbMText
 10
360.130196
 20
268.089407
 30
0.0
 40
3.386667
 41
7.112001
 71
     8
 72
     1
  1
理  
210
0.0
220
0.0
230
1.0
 73
     1
 44
1.0
  0
MTEXT
  5
7F
100
AcDbEntity
  8
256
390
0
 62
     8
100
AcDbMText
 10
246.369552
 20
14.244792
 30
0.0
 40
1.75
 41
34.888636
 71
     9
 72
     1
  1
1000を超え2000以下  
210
0.0
220
0.0
230
1.0
 73
     1
 44
1.0
  0
MTEXT
  5
80
100
AcDbEntity
  8
256
390
0
 62
     8
100
AcDbMText
 10
268.125015
 20
24.744792
 30
0.0
 40
1.75
 41
4.263636
 71
     8
 72
     1
  1
1.5  
210
0.0
220
0.0
230
1.0
 73
     1
 44
1.0
  0
MTEXT
  5
81
100
AcDbEntity
  8
256
390
0
 62
     8
100
AcDbMText
 10
262.375031
 20
35.244792
 30
0.0
 40
1.75
 41
4.55
 71
     8
 72
     1
  1
0.2  
210
0.0
220
0.0
230
1.0
 73
     1
 44
1.0
  0
MTEXT
  5
82
100
AcDbEntity
  8
256
390
0
 62
     8
100
AcDbMText
 10
351.983257
 20
283.013492
 30
0.0
 40
3.386667
 41
21.551517
 71
     8
 72
     1
  1
年月日     
210
0.0
220
0.0
230
1.0
 73
     1
 44
1.0
  0
MTEXT
  5
83
100
AcDbEntity
  8
256
390
0
 62
     8
100
AcDbMText
 10
250.875031
 20
31.744792
 30
0.0
 40
1.75
 41
6.586364
 71
     8
 72
     1
  1
0.05  
210
0.0
220
0.0
230
1.0
 73
     1
 44
1.0
  0
MTEXT
  5
84
100
AcDbEntity
  8
256
390
0
 62
     8
100
AcDbMText
 10
250.875031
 20
35.244792
 30
0.0
 40
1.75
 41
6.586364
 71
     8
 72
     1
  1
0.05  
210
0.0
220
0.0
230
1.0
 73
     1
 44
1.0
  0
MTEXT
  5
85
100
AcDbEntity
  8
256
390
0
 62
     8
100
AcDbMText
 10
262.375031
 20
10.744792
 30
0.0
 40
1.75
 41
1.765909
 71
     8
 72
     1
  1
4  
210
0.0
220
0.0
230
1.0
 73
     1
 44
1.0
  0
MTEXT
  5
86
100
AcDbEntity
  8
256
390
0
 62
     8
100
AcDbMText
 10
343.259623
 20
40.051182
 30
0.0
 40
3.386667
 41
17.210426
 71
     8
 72
     1
  1
名 称  
210
0.0
220
0.0
230
1.0
 73
     1
 44
1.0
  0
MTEXT
  5
87
100
AcDbEntity
  8
256
390
0
 62
     8
100
AcDbMText
 10
280.042689
 20
27.073014
 30
0.0
 40
3.386667
 41
17.241214
 71
     8
 72
     1
  1
設 計  
210
0.0
220
0.0
230
1.0
 73
     1
 44
1.0
  0
MTEXT
  5
88
100
AcDbEntity
  8
256
390
0
 62
     8
100
AcDbMText
 10
268.125015
 20
17.744792
 30
0.0
 40
1.75
 41
1.765909
 71
     8
 72
     1
  1
4  
210
0.0
220
0.0
230
1.0
 73
     1
 44
1.0
  0
MTEXT
  5
89
100
AcDbEntity
  8
256
390
0
 62
     8
100
AcDbMText
 10
256.625031
 20
28.244792
 30
0.0
 40
1.75
 41
4.55
 71
     8
 72
     1
  1
0.2  
210
0.0
220
0.0
230
1.0
 73
     1
 44
1.0
  0
MTEXT
  5
8A
100
AcDbEntity
  8
256
390
0
 62
     8
100
AcDbMText
 10
246.368174
 20
17.744792
 30
0.0
 40
1.75
 41
33.138636
 71
     9
 72
     1
  1
 400を超え1000以下  
210
0.0
220
0.0
230
1.0
 73
     1
 44
1.0
  0
MTEXT
  5
8B
100
AcDbEntity
  8
256
390
0
 62
     8
100
AcDbMText
 10
250.875031
 20
14.244792
 30
0.0
 40
1.75
 41
4.55
 71
     8
 72
     1
  1
0.5  
210
0.0
220
0.0
230
1.0
 73
     1
 44
1.0
  0
MTEXT
  5
8C
100
AcDbEntity
  8
256
390
0
 62
     8
100
AcDbMText
 10
257.26344
 20
39.076539
 30
0.0
 40
2.0
 41
8.563636
 71
     8
 72
     1
  1
m %%p  
210
0.0
220
0.0
230
1.0
 73
     1
 44
1.0
  0
MTEXT
  5
8D
100
AcDbEntity
  8
256
390
0
 62
     8
100
AcDbMText
 10
246.444454
 20
35.244792
 30
0.0
 40
1.75
 41
29.543182
 71
     9
 72
     1
  1
 0.5を超え   3以下  
210
0.0
220
0.0
230
1.0
 73
     1
 44
1.0
  0
MTEXT
  5
8E
100
AcDbEntity
  8
256
390
0
 62
     8
100
AcDbMText
 10
246.445896
 20
31.744792
 30
0.0
 40
1.75
 41
26.615909
 71
     9
 72
     1
  1
   3を超え   6以下  
210
0.0
220
0.0
230
1.0
 73
     1
 44
1.0
  0
MTEXT
  5
8F
100
AcDbEntity
  8
256
390
0
 62
     8
100
AcDbMText
 10
343.228244
 20
29.512776
 30
0.0
 40
2.54
 41
22.998545
 71
     8
 72
     1
  1
部品番号  
210
0.0
220
0.0
230
1.0
 73
     1
 44
1.0
  0
MTEXT
  5
90
100
AcDbEntity
  8
256
390
0
 62
     8
100
AcDbMText
 10
251.19527
 20
41.133356
 30
0.0
 40
1.7952
 41
8.04576
 71
     8
 72
     1
  1
精級  
210
0.0
220
0.0
230
1.0
 73
     1
 44
1.0
  0
MTEXT
  5
91
100
AcDbEntity
  8
256
390
0
 62
     8
100
AcDbMText
 10
246.399214
 20
24.744792
 30
0.0
 40
1.75
 41
30.243182
 71
     9
 72
     1
  1
  30を超え 120以下  
210
0.0
220
0.0
230
1.0
 73
     1
 44
1.0
  0
MTEXT
  5
92
100
AcDbEntity
  8
256
390
0
 62
     8
100
AcDbMText
 10
262.375031
 20
24.744792
 30
0.0
 40
1.75
 41
4.565909
 71
     8
 72
     1
  1
0.8  
210
0.0
220
0.0
230
1.0
 73
     1
 44
1.0
  0
MTEXT
  5
93
100
AcDbEntity
  8
256
390
0
 62
     8
100
AcDbMText
 10
242.4153
 20
40.925781
 30
0.0
 40
1.5
 41
13.636364
 71
     8
 72
     1
  1
公差等級  
210
0.0
220
0.0
230
1.0
 73
     1
 44
1.0
  0
MTEXT
  5
94
100
AcDbEntity
  8
256
390
0
 62
     8
100
AcDbMText
 10
246.430153
 20
28.244792
 30
0.0
 40
1.75
 41
27.395455
 71
     9
 72
     1
  1
   6を超え  30以下  
210
0.0
220
0.0
230
1.0
 73
     1
 44
1.0
  0
MTEXT
  5
95
100
AcDbEntity
  8
256
390
0
 62
     8
100
AcDbMText
 10
285.330511
 20
282.942152
 30
0.0
 40
3.386667
 41
59.482188
 71
     8
 72
     1
  1
訂    正    内    容  
210
0.0
220
0.0
230
1.0
 73
     1
 44
1.0
  0
MTEXT
  5
96
100
AcDbEntity
  8
256
390
0
 62
     8
100
AcDbMText
 10
256.625031
 20
24.744792
 30
0.0
 40
1.75
 41
4.55
 71
     8
 72
     1
  1
0.3  
210
0.0
220
0.0
230
1.0
 73
     1
 44
1.0
  0
MTEXT
  5
97
100
AcDbEntity
  8
256
390
0
 62
     8
100
AcDbMText
 10
262.375031
 20
17.744792
 30
0.0
 40
1.75
 41
1.622727
 71
     8
 72
     1
  1
2  
210
0.0
220
0.0
230
1.0
 73
     1
 44
1.0
  0
MTEXT
  5
98
100
AcDbEntity
  8
256
390
0
 62
     8
100
AcDbMText
 10
262.375031
 20
14.244792
 30
0.0
 40
1.75
 41
1.622727
 71
     8
 72
     1
  1
3  
210
0.0
220
0.0
230
1.0
 73
     1
 44
1.0
  0
MTEXT
  5
99
100
AcDbEntity
  8
256
390
0
 62
     8
100
AcDbMText
 10
328.687321
 20
19.668163
 30
0.0
 40
3.386667
 41
22.536729
 71
     8
 72
     1
  1
三角法  
210
0.0
220
0.0
230
1.0
 73
     1
 44
1.0
  0
MTEXT
  5
9A
100
AcDbEntity
  8
256
390
0
 62
     8
100
AcDbMText
 10
365.92539
 20
11.0735
 30
0.0
 40
3.386667
 41
99.506434
 71
     8
 72
     1
  1
双 葉 電 子 工 業 株 式 会 社  
210
0.0
220
0.0
230
1.0
 73
     1
 44
1.0
  0
MTEXT
  5
9B
100
AcDbEntity
  8
256
390
0
 62
     8
100
AcDbMText
 10
256.625031
 20
17.744792
 30
0.0
 40
1.75
 41
4.565909
 71
     8
 72
     1
  1
0.8  
210
0.0
220
0.0
230
1.0
 73
     1
 44
1.0
  0
MTEXT
  5
9C
100
AcDbEntity
  8
256
390
0
 62
     8
100
AcDbMText
 10
312.769883
 20
27.273035
 30
0.0
 40
3.386667
 41
17.518305
 71
     8
 72
     1
  1
承 認  
210
0.0
220
0.0
230
1.0
 73
     1
 44
1.0
  0
MTEXT
  5
9D
100
AcDbEntity
  8
256
390
0
 62
     8
100
AcDbMText
 10
268.125015
 20
28.244792
 30
0.0
 40
1.75
 41
0.843182
 71
     8
 72
     1
  1
1  
210
0.0
220
0.0
230
1.0
 73
     1
 44
1.0
  0
MTEXT
  5
9E
100
AcDbEntity
  8
256
390
0
 62
     8
100
AcDbMText
 10
247.07562
 20
45.235875
 30
0.0
 40
1.7
 41
74.846364
 71
     8
 72
     1
  1
削り加工寸法の普通許容差 JIS B 0405-1991  
210
0.0
220
0.0
230
1.0
 73
     1
 44
1.0
  0
MTEXT
  5
9F
100
AcDbEntity
  8
256
390
0
 62
     8
100
AcDbMText
 10
250.875031
 20
24.744792
 30
0.0
 40
1.75
 41
6.586364
 71
     8
 72
     1
  1
0.15  
210
0.0
220
0.0
230
1.0
 73
     1
 44
1.0
  0
MTEXT
  5
A0
100
AcDbEntity
  8
256
390
0
 62
     8
100
AcDbMText
 10
250.875031
 20
9.839584
 30
0.0
 40
2.54
 41
2.632364
 71
     8
 72
     1
  1
-  
210
0.0
220
0.0
230
1.0
 73
     1
 44
1.0
  0
MTEXT
  5
A1
100
AcDbEntity
  8
256
390
0
 62
     8
100
AcDbMText
 10
296.045235
 20
27.214792
 30
0.0
 40
3.386667
 41
17.025699
 71
     8
 72
     1
  1
検 図  
210
0.0
220
0.0
230
1.0
 73
     1
 44
1.0
  0
MTEXT
  5
A2
100
AcDbEntity
  8
256
390
0
 62
     8
100
AcDbMText
 10
268.125015
 20
34.339584
 30
0.0
 40
2.54
 41
2.632364
 71
     8
 72
     1
  1
-  
210
0.0
220
0.0
230
1.0
 73
     1
 44
1.0
  0
MTEXT
  5
A3
100
AcDbEntity
  8
256
390
0
 62
     8
100
AcDbMText
 10
256.625031
 20
31.744792
 30
0.0
 40
1.75
 41
3.993182
 71
     8
 72
     1
  1
0.1  
210
0.0
220
0.0
230
1.0
 73
     1
 44
1.0
  0
MTEXT
  5
A4
100
AcDbEntity
  8
256
390
0
 62
     8
100
AcDbMText
 10
263.01344
 20
39.076539
 30
0.0
 40
2.0
 41
7.527273
 71
     8
 72
     1
  1
c %%p  
210
0.0
220
0.0
230
1.0
 73
     1
 44
1.0
  0
MTEXT
  5
A5
100
AcDbEntity
  8
256
390
0
 62
     8
100
AcDbMText
 10
360.130196
 20
278.047566
 30
0.0
 40
3.386667
 41
6.68097
 71
     8
 72
     1
  1
上  
210
0.0
220
0.0
230
1.0
 73
     1
 44
1.0
  0
MTEXT
  5
A6
100
AcDbEntity
  8
256
390
0
 62
     8
100
AcDbMText
 10
232.748022
 20
282.92144
 30
0.0
 40
3.386667
 41
14.870547
 71
     8
 72
     1
  1
記号  
210
0.0
220
0.0
230
1.0
 73
     1
 44
1.0
  0
MTEXT
  5
A7
100
AcDbEntity
  8
256
390
0
 62
     8
100
AcDbMText
 10
256.625031
 20
21.244792
 30
0.0
 40
1.75
 41
4.55
 71
     8
 72
     1
  1
0.5  
210
0.0
220
0.0
230
1.0
 73
     1
 44
1.0
  0
MTEXT
  5
A8
100
AcDbEntity
  8
256
390
0
 62
     8
100
AcDbMText
 10
256.625031
 20
10.744792
 30
0.0
 40
1.75
 41
1.622727
 71
     8
 72
     1
  1
2  
210
0.0
220
0.0
230
1.0
 73
     1
 44
1.0
  0
MTEXT
  5
A9
100
AcDbEntity
  8
256
390
0
 62
     8
100
AcDbMText
 10
262.375031
 20
21.244792
 30
0.0
 40
1.75
 41
4.263636
 71
     8
 72
     1
  1
1.2  
210
0.0
220
0.0
230
1.0
 73
     1
 44
1.0
  0
MTEXT
  5
AA
100
AcDbEntity
  8
256
390
0
 62
     8
100
AcDbMText
 10
360.130196
 20
282.575181
 30
0.0
 40
3.386667
 41
7.050425
 71
     8
 72
     1
  1
仕  
210
0.0
220
0.0
230
1.0
 73
     1
 44
1.0
  0
MTEXT
  5
AB
100
AcDbEntity
  8
256
390
0
 62
     8
100
AcDbMText
 10
268.125015
 20
10.744792
 30
0.0
 40
1.75
 41
1.654545
 71
     8
 72
     1
  1
8  
210
0.0
220
0.0
230
1.0
 73
     1
 44
1.0
  0
MTEXT
  5
AC
100
AcDbEntity
  8
256
390
0
 62
     8
100
AcDbMText
 10
360.130196
 20
260.858133
 30
0.0
 40
2.822222
 41
5.875353
 71
     8
 72
     1
  1
処  
210
0.0
220
0.0
230
1.0
 73
     1
 44
1.0
  0
MTEXT
  5
AD
100
AcDbEntity
  8
256
390
0
 62
     8
100
AcDbMText
 10
336.870941
 20
283.013492
 30
0.0
 40
3.386667
 41
22.81382
 71
     8
 72
     1
  1
担当者     
210
0.0
220
0.0
230
1.0
 73
     1
 44
1.0
  0
MTEXT
  5
AE
100
AcDbEntity
  8
256
390
0
 62
     8
100
AcDbMText
 10
251.577735
 20
39.076539
 30
0.0
 40
2.0
 41
6.836364
 71
     8
 72
     1
  1
f %%p  
210
0.0
220
0.0
230
1.0
 73
     1
 44
1.0
  0
MTEXT
  5
AF
100
AcDbEntity
  8
256
390
0
 62
     8
100
AcDbMText
 10
360.130196
 20
263.973919
 30
0.0
 40
2.822222
 41
5.952323
 71
     8
 72
     1
  1
熱  
210
0.0
220
0.0
230
1.0
 73
     1
 44
1.0
  0
MTEXT
  5
B0
100
AcDbEntity
  8
256
390
0
 62
     8
100
AcDbMText
 10
268.125015
 20
31.744792
 30
0.0
 40
1.75
 41
4.55
 71
     8
 72
     1
  1
0.5  
210
0.0
220
0.0
230
1.0
 73
     1
 44
1.0
  0
MTEXT
  5
B1
100
AcDbEntity
  8
256
390
0
 62
     8
100
AcDbMText
 10
328.494219
 20
43.012096
 30
0.0
 40
3.386667
 41
17.30279
 71
     8
 72
     1
  1
尺 度  
210
0.0
220
0.0
230
1.0
 73
     1
 44
1.0
  0
MTEXT
  5
B2
100
AcDbEntity
  8
256
390
0
 62
     8
100
AcDbMText
 10
262.660189
 20
41.133356
 30
0.0
 40
1.7952
 41
7.9968
 71
     8
 72
     1
  1
粗級  
210
0.0
220
0.0
230
1.0
 73
     1
 44
1.0
  0
MTEXT
  5
B3
100
AcDbEntity
  8
256
390
0
 62
     8
100
AcDbMText
 10
225.086682
 20
40.357732
 30
0.0
 40
1.5
 41
6.640909
 71
     8
 72
     1
  1
基準  
210
0.0
220
0.0
230
1.0
 73
     1
 44
1.0
  0
MTEXT
  5
B4
100
AcDbEntity
  8
256
390
0
 62
     8
100
AcDbMText
 10
268.384088
 20
41.201556
 30
0.0
 40
1.584
 41
10.8
 71
     8
 72
     1
  1
極粗級  
210
0.0
220
0.0
230
1.0
 73
     1
 44
1.0
  0
MTEXT
  5
B5
100
AcDbEntity
  8
256
390
0
 62
     8
100
AcDbMText
 10
256.625031
 20
14.244792
 30
0.0
 40
1.75
 41
4.263636
 71
     8
 72
     1
  1
1.2  
210
0.0
220
0.0
230
1.0
 73
     1
 44
1.0
  0
MTEXT
  5
B6
100
AcDbEntity
  8
256
390
0
 62
     8
100
AcDbMText
 10
360.130196
 20
272.53334
 30
0.0
 40
3.386667
 41
7.050425
 71
     8
 72
     1
  1
処  
210
0.0
220
0.0
230
1.0
 73
     1
 44
1.0
  0
INSERT
  5
BB
100
AcDbEntity
  8
256
390
0
100
AcDbBlockReference
  2
AID287
 10
0.0
 20
0.0
 30
0.0
  0
LINE
  5
BD
100
AcDbEntity
  8
1
390
0
  6
Continuous
 62
     7
100
AcDbLine
 10
173.746158
 20
195.591756
 30
0.0
 11
173.746158
 21
197.591756
 31
0.0
  0
LINE
  5
BE
100
AcDbEntity
  8
1
390
0
  6
Continuous
 62
     7
100
AcDbLine
 10
175.546158
 20
195.591756
 30
0.0
 11
175.546158
 21
197.591756
 31
0.0
  0
LINE
  5
BF
100
AcDbEntity
  8
1
390
0
  6
Continuous
 62
     7
100
AcDbLine
 10
173.746158
 20
197.591756
 30
0.0
 11
173.746158
 21
199.591756
 31
0.0
  0
LINE
  5
C0
100
AcDbEntity
  8
1
390
0
  6
Continuous
 62
     7
100
AcDbLine
 10
175.546158
 20
197.591756
 30
0.0
 11
175.546158
 21
199.591756
 31
0.0
  0
LINE
  5
C1
100
AcDbEntity
  8
1
390
0
  6
Continuous
 62
     7
100
AcDbLine
 10
173.546158
 20
195.791756
 30
0.0
 11
173.546158
 21
197.591756
 31
0.0
  0
LINE
  5
C2
100
AcDbEntity
  8
1
390
0
  6
Continuous
 62
     7
100
AcDbLine
 10
173.546158
 20
197.591756
 30
0.0
 11
173.546158
 21
199.391756
 31
0.0
  0
LINE
  5
C3
100
AcDbEntity
  8
1
390
0
  6
Continuous
 62
     7
100
AcDbLine
 10
176.546158
 20
196.091756
 30
0.0
 11
176.546158
 21
197.591756
 31
0.0
  0
LINE
  5
C4
100
AcDbEntity
  8
1
390
0
  6
Continuous
 62
     7
100
AcDbLine
 10
180.546158
 20
196.091756
 30
0.0
 11
180.546158
 21
197.591756
 31
0.0
  0
LINE
  5
C5
100
AcDbEntity
  8
1
390
0
  6
Continuous
 62
     7
100
AcDbLine
 10
180.546158
 20
197.591756
 30
0.0
 11
180.546158
 21
199.091756
 31
0.0
  0
LINE
  5
C6
100
AcDbEntity
  8
1
390
0
  6
Continuous
 62
     7
100
AcDbLine
 10
176.546158
 20
197.591756
 30
0.0
 11
176.546158
 21
199.091756
 31
0.0
  0
LINE
  5
C7
100
AcDbEntity
  8
1
390
0
  6
Continuous
 62
     7
100
AcDbLine
 10
171.546158
 20
196.341756
 30
0.0
 11
171.546158
 21
197.591756
 31
0.0
  0
LINE
  5
C8
100
AcDbEntity
  8
1
390
0
  6
Continuous
 62
     7
100
AcDbLine
 10
171.546158
 20
197.591756
 30
0.0
 11
171.546158
 21
198.841756
 31
0.0
  0
LINE
  5
C9
100
AcDbEntity
  8
1
390
0
  6
Continuous
 62
     7
100
AcDbLine
 10
165.546158
 20
196.391756
 30
0.0
 11
165.546158
 21
197.591756
 31
0.0
  0
LINE
  5
CA
100
AcDbEntity
  8
1
390
0
  6
Continuous
 62
     7
100
AcDbLine
 10
165.546158
 20
197.591756
 30
0.0
 11
165.546158
 21
198.791756
 31
0.0
  0
LINE
  5
CB
100
AcDbEntity
  8
1
390
0
  6
Continuous
 62
     7
100
AcDbLine
 10
165.142013
 20
197.091756
 30
0.0
 11
165.142013
 21
197.591756
 31
0.0
  0
LINE
  5
CC
100
AcDbEntity
  8
1
390
0
  6
Continuous
 62
     7
100
AcDbLine
 10
165.142013
 20
197.591756
 30
0.0
 11
165.142013
 21
198.091756
 31
0.0
  0
LINE
  5
CD
100
AcDbEntity
  8
1
390
0
  6
Continuous
 62
     7
100
AcDbLine
 10
162.646158
 20
197.091756
 30
0.0
 11
162.646158
 21
197.591756
 31
0.0
  0
LINE
  5
CE
100
AcDbEntity
  8
1
390
0
  6
Continuous
 62
     7
100
AcDbLine
 10
162.046158
 20
197.091756
 30
0.0
 11
162.046158
 21
197.591756
 31
0.0
  0
LINE
  5
CF
100
AcDbEntity
  8
1
390
0
  6
Continuous
 62
     7
100
AcDbLine
 10
162.646158
 20
197.591756
 30
0.0
 11
162.646158
 21
198.091756
 31
0.0
  0
LINE
  5
D0
100
AcDbEntity
  8
1
390
0
  6
Continuous
 62
     7
100
AcDbLine
 10
162.046158
 20
197.591756
 30
0.0
 11
162.046158
 21
198.091756
 31
0.0
  0
LINE
  5
D1
100
AcDbEntity
  8
1
390
0
  6
Continuous
 62
     7
100
AcDbLine
 10
163.146158
 20
197.091756
 30
0.0
 11
163.146158
 21
197.591756
 31
0.0
  0
LINE
  5
D2
100
AcDbEntity
  8
1
390
0
  6
Continuous
 62
     7
100
AcDbLine
 10
163.146158
 20
197.591756
 30
0.0
 11
163.146158
 21
198.091756
 31
0.0
  0
LINE
  5
D3
100
AcDbEntity
  8
1
390
0
  6
Continuous
 62
     9
100
AcDbLine
 10
176.546158
 20
196.341756
 30
0.0
 11
180.546158
 21
196.341756
 31
0.0
  0
LINE
  5
D4
100
AcDbEntity
  8
1
390
0
  6
Continuous
 62
     9
100
AcDbLine
 10
180.546158
 20
198.841756
 30
0.0
 11
176.546158
 21
198.841756
 31
0.0
  0
LINE
  5
D5
100
AcDbEntity
  8
1
390
0
  6
Continuous
 62
     7
100
AcDbLine
 10
173.746158
 20
195.591756
 30
0.0
 11
175.546158
 21
195.591756
 31
0.0
  0
LINE
  5
D6
100
AcDbEntity
  8
1
390
0
  6
Continuous
 62
     7
100
AcDbLine
 10
175.546158
 20
199.591756
 30
0.0
 11
173.746158
 21
199.591756
 31
0.0
  0
LINE
  5
D7
100
AcDbEntity
  8
1
390
0
  6
Continuous
 62
     7
100
AcDbLine
 10
173.746158
 20
199.591756
 30
0.0
 11
173.546158
 21
199.391756
 31
0.0
  0
LINE
  5
D8
100
AcDbEntity
  8
1
390
0
  6
Continuous
 62
     7
100
AcDbLine
 10
173.546158
 20
195.791756
 30
0.0
 11
173.746158
 21
195.591756
 31
0.0
  0
LINE
  5
D9
100
AcDbEntity
  8
1
390
0
  6
Continuous
 62
     7
100
AcDbLine
 10
176.546158
 20
196.091756
 30
0.0
 11
180.546158
 21
196.091756
 31
0.0
  0
LINE
  5
DA
100
AcDbEntity
  8
1
390
0
  6
Continuous
 62
     7
100
AcDbLine
 10
180.546158
 20
199.091756
 30
0.0
 11
176.546158
 21
199.091756
 31
0.0
  0
LINE
  5
DB
100
AcDbEntity
  8
1
390
0
  6
Continuous
 62
     7
100
AcDbLine
 10
171.546158
 20
196.341756
 30
0.0
 11
173.546158
 21
196.341756
 31
0.0
  0
LINE
  5
DC
100
AcDbEntity
  8
1
390
0
  6
Continuous
 62
     7
100
AcDbLine
 10
173.546158
 20
198.841756
 30
0.0
 11
171.546158
 21
198.841756
 31
0.0
  0
LINE
  5
DD
100
AcDbEntity
  8
1
390
0
  6
Continuous
 62
     7
100
AcDbLine
 10
165.546158
 20
196.391756
 30
0.0
 11
171.546158
 21
196.391756
 31
0.0
  0
LINE
  5
DE
100
AcDbEntity
  8
1
390
0
  6
Continuous
 62
     7
100
AcDbLine
 10
171.546158
 20
198.791756
 30
0.0
 11
165.546158
 21
198.791756
 31
0.0
  0
LINE
  5
DF
100
AcDbEntity
  8
1
390
0
  6
Continuous
 62
     7
100
AcDbLine
 10
165.546158
 20
198.791756
 30
0.0
 11
165.142013
 21
198.091756
 31
0.0
  0
LINE
  5
E0
100
AcDbEntity
  8
1
390
0
  6
Continuous
 62
     7
100
AcDbLine
 10
165.142013
 20
197.091756
 30
0.0
 11
165.546158
 21
196.391756
 31
0.0
  0
LINE
  5
E1
100
AcDbEntity
  8
1
390
0
  6
Continuous
 62
     7
100
AcDbLine
 10
175.546158
 20
196.491756
 30
0.0
 11
176.546158
 21
196.491756
 31
0.0
  0
LINE
  5
E2
100
AcDbEntity
  8
1
390
0
  6
Continuous
 62
     7
100
AcDbLine
 10
176.546158
 20
198.691756
 30
0.0
 11
175.546158
 21
198.691756
 31
0.0
  0
LINE
  5
E3
100
AcDbEntity
  8
1
390
0
  6
Continuous
 62
     7
100
AcDbLine
 10
180.546158
 20
196.811756
 30
0.0
 11
209.589879
 21
196.811756
 31
0.0
  0
LINE
  5
E4
100
AcDbEntity
  8
1
390
0
  6
Continuous
 62
     7
100
AcDbLine
 10
210.257533
 20
198.371756
 30
0.0
 11
180.546158
 21
198.371756
 31
0.0
  0
LINE
  5
E5
100
AcDbEntity
  8
1
390
0
  6
Continuous
 62
     7
100
AcDbLine
 10
162.046158
 20
197.091756
 30
0.0
 11
162.646158
 21
197.091756
 31
0.0
  0
LINE
  5
E6
100
AcDbEntity
  8
1
390
0
  6
Continuous
 62
     7
100
AcDbLine
 10
162.646158
 20
198.091756
 30
0.0
 11
162.046158
 21
198.091756
 31
0.0
  0
LINE
  5
E7
100
AcDbEntity
  8
1
390
0
  6
Continuous
 62
     7
100
AcDbLine
 10
163.146158
 20
197.091756
 30
0.0
 11
165.142013
 21
197.091756
 31
0.0
  0
LINE
  5
E8
100
AcDbEntity
  8
1
390
0
  6
Continuous
 62
     7
100
AcDbLine
 10
165.142013
 20
198.091756
 30
0.0
 11
163.146158
 21
198.091756
 31
0.0
  0
LINE
  5
E9
100
AcDbEntity
  8
1
390
0
  6
Continuous
 62
     7
100
AcDbLine
 10
162.646158
 20
197.191756
 30
0.0
 11
163.146158
 21
197.191756
 31
0.0
  0
LINE
  5
EA
100
AcDbEntity
  8
1
390
0
  6
Continuous
 62
     7
100
AcDbLine
 10
163.146158
 20
197.991756
 30
0.0
 11
162.646158
 21
197.991756
 31
0.0
  0
ARC
  5
EB
100
AcDbEntity
  8
1
390
0
  6
Continuous
 62
     7
100
AcDbCircle
 10
277.479704
 20
205.962087
 30
0.0
 40
1.000469
210
0.0
220
0.0
230
1.0
100
AcDbArc
 50
270.0
 51
338.27464
  0
ARC
  5
EC
100
AcDbEntity
  8
1
390
0
  6
Continuous
 62
     7
100
AcDbCircle
 10
277.479704
 20
205.962087
 30
0.0
 40
1.000469
210
0.0
220
0.0
230
1.0
100
AcDbArc
 50
201.72536
 51
270.0
  0
POLYLINE
  5
ED
100
AcDbEntity
  8
1
390
0
  6
Continuous
 62
     7
100
AcDb2dPolyline
 66
     1
 10
0.0
 20
0.0
 30
0.0
 40
1.0
 41
1.0
  0
VERTEX
  5
EE
100
AcDbEntity
  8
1
390
0
 62
     7
100
AcDbVertex
100
AcDb2dVertex
 10
278.409108
 20
205.591756
 30
0.0
  0
VERTEX
  5
EF
100
AcDbEntity
  8
1
390
0
 62
     7
100
AcDbVertex
100
AcDb2dVertex
 10
278.464676
 20
205.507359
 30
0.0
  0
VERTEX
  5
F0
100
AcDbEntity
  8
1
390
0
 62
     7
100
AcDbVertex
100
AcDb2dVertex
 10
278.519619
 20
205.419182
 30
0.0
  0
VERTEX
  5
F1
100
AcDbEntity
  8
1
390
0
 62
     7
100
AcDbVertex
100
AcDb2dVertex
 10
278.536041
 20
205.391756
 30
0.0
  0
SEQEND
  5
F2
100
AcDbEntity
  8
0
390
0
  0
POLYLINE
  5
F3
100
AcDbEntity
  8
1
390
0
  6
Continuous
 62
     7
100
AcDb2dPolyline
 66
     1
 10
0.0
 20
0.0
 30
0.0
 40
1.0
 41
1.0
  0
VERTEX
  5
F4
100
AcDbEntity
  8
1
390
0
 62
     7
100
AcDbVertex
100
AcDb2dVertex
 10
276.5503
 20
205.591756
 30
0.0
  0
VERTEX
  5
F5
100
AcDbEntity
  8
1
390
0
 62
     7
100
AcDbVertex
100
AcDb2dVertex
 10
276.49309
 20
205.504683
 30
0.0
  0
VERTEX
  5
F6
100
AcDbEntity
  8
1
390
0
 62
     7
100
AcDbVertex
100
AcDb2dVertex
 10
276.438693
 20
205.417383
 30
0.0
  0
VERTEX
  5
F7
100
AcDbEntity
  8
1
390
0
 62
     7
100
AcDbVertex
100
AcDb2dVertex
 10
276.423368
 20
205.391756
 30
0.0
  0
SEQEND
  5
F8
100
AcDbEntity
  8
0
390
0
  0
LINE
  5
F9
100
AcDbEntity
  8
1
390
0
  6
Continuous
 62
     7
100
AcDbLine
 10
278.409108
 20
205.591756
 30
0.0
 11
279.300805
 21
205.591756
 31
0.0
  0
POLYLINE
  5
FA
100
AcDbEntity
  8
1
390
0
  6
Continuous
 62
     7
100
AcDb2dPolyline
 66
     1
 10
0.0
 20
0.0
 30
0.0
 40
1.0
 41
1.0
  0
VERTEX
  5
FB
100
AcDbEntity
  8
1
390
0
 62
     7
100
AcDbVertex
100
AcDb2dVertex
 10
279.300805
 20
205.591756
 30
0.0
  0
VERTEX
  5
FC
100
AcDbEntity
  8
1
390
0
 62
     7
100
AcDbVertex
100
AcDb2dVertex
 10
279.243609
 20
205.504687
 30
0.0
  0
VERTEX
  5
FD
100
AcDbEntity
  8
1
390
0
 62
     7
100
AcDbVertex
100
AcDb2dVertex
 10
279.189229
 20
205.417394
 30
0.0
  0
VERTEX
  5
FE
100
AcDbEntity
  8
1
390
0
 62
     7
100
AcDbVertex
100
AcDb2dVertex
 10
279.1739
 20
205.391756
 30
0.0
  0
SEQEND
  5
FF
100
AcDbEntity
  8
0
390
0
  0
ARC
  5
100
100
AcDbEntity
  8
1
390
0
  6
Continuous
 62
     7
100
AcDbCircle
 10
274.729236
 20
205.962087
 30
0.0
 40
1.000469
210
0.0
220
0.0
230
1.0
100
AcDbArc
 50
270.0
 51
338.27464
  0
ARC
  5
101
100
AcDbEntity
  8
1
390
0
  6
Continuous
 62
     7
100
AcDbCircle
 10
274.729236
 20
205.962087
 30
0.0
 40
1.000469
210
0.0
220
0.0
230
1.0
100
AcDbArc
 50
201.72536
 51
270.0
  0
POLYLINE
  5
102
100
AcDbEntity
  8
1
390
0
  6
Continuous
 62
     7
100
AcDb2dPolyline
 66
     1
 10
0.0
 20
0.0
 30
0.0
 40
1.0
 41
1.0
  0
VERTEX
  5
103
100
AcDbEntity
  8
1
390
0
 62
     7
100
AcDbVertex
100
AcDb2dVertex
 10
275.65864
 20
205.591756
 30
0.0
  0
VERTEX
  5
104
100
AcDbEntity
  8
1
390
0
 62
     7
100
AcDbVertex
100
AcDb2dVertex
 10
275.714207
 20
205.507359
 30
0.0
  0
VERTEX
  5
105
100
AcDbEntity
  8
1
390
0
 62
     7
100
AcDbVertex
100
AcDb2dVertex
 10
275.769151
 20
205.419182
 30
0.0
  0
VERTEX
  5
106
100
AcDbEntity
  8
1
390
0
 62
     7
100
AcDbVertex
100
AcDb2dVertex
 10
275.785572
 20
205.391756
 30
0.0
  0
SEQEND
  5
107
100
AcDbEntity
  8
0
390
0
  0
POLYLINE
  5
108
100
AcDbEntity
  8
1
390
0
  6
Continuous
 62
     7
100
AcDb2dPolyline
 66
     1
 10
0.0
 20
0.0
 30
0.0
 40
1.0
 41
1.0
  0
VERTEX
  5
109
100
AcDbEntity
  8
1
390
0
 62
     7
100
AcDbVertex
100
AcDb2dVertex
 10
273.799832
 20
205.591756
 30
0.0
  0
VERTEX
  5
10A
100
AcDbEntity
  8
1
390
0
 62
     7
100
AcDbVertex
100
AcDb2dVertex
 10
273.742622
 20
205.504683
 30
0.0
  0
VERTEX
  5
10B
100
AcDbEntity
  8
1
390
0
 62
     7
100
AcDbVertex
100
AcDb2dVertex
 10
273.688224
 20
205.417383
 30
0.0
  0
VERTEX
  5
10C
100
AcDbEntity
  8
1
390
0
 62
     7
100
AcDbVertex
100
AcDb2dVertex
 10
273.672899
 20
205.391756
 30
0.0
  0
SEQEND
  5
10D
100
AcDbEntity
  8
0
390
0
  0
LINE
  5
10E
100
AcDbEntity
  8
1
390
0
  6
Continuous
 62
     7
100
AcDbLine
 10
268.729704
 20
205.591756
 30
0.0
 11
273.799832
 21
205.591756
 31
0.0
  0
LINE
  5
10F
100
AcDbEntity
  8
1
390
0
  6
Continuous
 62
     7
100
AcDbLine
 10
275.65864
 20
205.591756
 30
0.0
 11
276.5503
 21
205.591756
 31
0.0
  0
ARC
  5
110
100
AcDbEntity
  8
1
390
0
  6
Continuous
 62
     7
100
AcDbCircle
 10
280.229704
 20
205.962087
 30
0.0
 40
1.0
210
0.0
220
0.0
230
1.0
100
AcDbArc
 50
270.0
 51
338.263944
  0
ARC
  5
111
100
AcDbEntity
  8
1
390
0
  6
Continuous
 62
     7
100
AcDbCircle
 10
280.229704
 20
205.962087
 30
0.0
 40
1.0
210
0.0
220
0.0
230
1.0
100
AcDbArc
 50
201.736056
 51
270.0
  0
POLYLINE
  5
112
100
AcDbEntity
  8
1
390
0
  6
Continuous
 62
     7
100
AcDb2dPolyline
 66
     1
 10
0.0
 20
0.0
 30
0.0
 40
1.0
 41
1.0
  0
VERTEX
  5
113
100
AcDbEntity
  8
1
390
0
 62
     7
100
AcDbVertex
100
AcDb2dVertex
 10
281.158604
 20
205.591756
 30
0.0
  0
VERTEX
  5
114
100
AcDbEntity
  8
1
390
0
 62
     7
100
AcDbVertex
100
AcDb2dVertex
 10
281.214158
 20
205.507362
 30
0.0
  0
VERTEX
  5
115
100
AcDbEntity
  8
1
390
0
 62
     7
100
AcDbVertex
100
AcDb2dVertex
 10
281.269088
 20
205.419187
 30
0.0
  0
VERTEX
  5
116
100
AcDbEntity
  8
1
390
0
 62
     7
100
AcDbVertex
100
AcDb2dVertex
 10
281.285508
 20
205.391756
 30
0.0
  0
SEQEND
  5
117
100
AcDbEntity
  8
0
390
0
  0
LINE
  5
118
100
AcDbEntity
  8
1
390
0
  6
Continuous
 62
     7
100
AcDbLine
 10
281.158604
 20
205.591756
 30
0.0
 11
285.729704
 21
205.591756
 31
0.0
  0
POLYLINE
  5
119
100
AcDbEntity
  8
1
390
0
  6
Continuous
 62
     7
100
AcDb2dPolyline
 66
     1
 10
0.0
 20
0.0
 30
0.0
 40
1.0
 41
1.0
  0
VERTEX
  5
11A
100
AcDbEntity
  8
1
390
0
 62
     7
100
AcDbVertex
100
AcDb2dVertex
 10
273.672899
 20
189.791756
 30
0.0
  0
VERTEX
  5
11B
100
AcDbEntity
  8
1
390
0
 62
     7
100
AcDbVertex
100
AcDb2dVertex
 10
273.729585
 20
189.699376
 30
0.0
  0
VERTEX
  5
11C
100
AcDbEntity
  8
1
390
0
 62
     7
100
AcDbVertex
100
AcDb2dVertex
 10
273.785899
 20
189.612695
 30
0.0
  0
VERTEX
  5
11D
100
AcDbEntity
  8
1
390
0
 62
     7
100
AcDbVertex
100
AcDb2dVertex
 10
273.799832
 20
189.591756
 30
0.0
  0
SEQEND
  5
11E
100
AcDbEntity
  8
0
390
0
  0
LINE
  5
11F
100
AcDbEntity
  8
1
390
0
  6
Continuous
 62
     7
100
AcDbLine
 10
273.799832
 20
189.591756
 30
0.0
 11
268.729704
 21
189.591756
 31
0.0
  0
POLYLINE
  5
120
100
AcDbEntity
  8
1
390
0
  6
Continuous
 62
     7
100
AcDb2dPolyline
 66
     1
 10
0.0
 20
0.0
 30
0.0
 40
1.0
 41
1.0
  0
VERTEX
  5
121
100
AcDbEntity
  8
1
390
0
 62
     7
100
AcDbVertex
100
AcDb2dVertex
 10
275.785572
 20
189.791756
 30
0.0
  0
VERTEX
  5
122
100
AcDbEntity
  8
1
390
0
 62
     7
100
AcDbVertex
100
AcDb2dVertex
 10
275.728234
 20
189.698274
 30
0.0
  0
VERTEX
  5
123
100
AcDbEntity
  8
1
390
0
 62
     7
100
AcDbVertex
100
AcDb2dVertex
 10
275.671514
 20
189.610483
 30
0.0
  0
VERTEX
  5
124
100
AcDbEntity
  8
1
390
0
 62
     7
100
AcDbVertex
100
AcDb2dVertex
 10
275.65864
 20
189.591756
 30
0.0
  0
SEQEND
  5
125
100
AcDbEntity
  8
0
390
0
  0
ARC
  5
126
100
AcDbEntity
  8
1
390
0
  6
Continuous
 62
     7
100
AcDbCircle
 10
274.729236
 20
189.221425
 30
0.0
 40
1.000469
210
0.0
220
0.0
230
1.0
100
AcDbArc
 50
21.72536
 51
158.27464
  0
POLYLINE
  5
127
100
AcDbEntity
  8
1
390
0
  6
Continuous
 62
     7
100
AcDb2dPolyline
 66
     1
 10
0.0
 20
0.0
 30
0.0
 40
1.0
 41
1.0
  0
VERTEX
  5
128
100
AcDbEntity
  8
1
390
0
 62
     7
100
AcDbVertex
100
AcDb2dVertex
 10
279.1739
 20
189.791756
 30
0.0
  0
VERTEX
  5
129
100
AcDbEntity
  8
1
390
0
 62
     7
100
AcDbVertex
100
AcDb2dVertex
 10
279.230575
 20
189.699373
 30
0.0
  0
VERTEX
  5
12A
100
AcDbEntity
  8
1
390
0
 62
     7
100
AcDbVertex
100
AcDb2dVertex
 10
279.286876
 20
189.612694
 30
0.0
  0
VERTEX
  5
12B
100
AcDbEntity
  8
1
390
0
 62
     7
100
AcDbVertex
100
AcDb2dVertex
 10
279.300805
 20
189.591756
 30
0.0
  0
SEQEND
  5
12C
100
AcDbEntity
  8
0
390
0
  0
LINE
  5
12D
100
AcDbEntity
  8
1
390
0
  6
Continuous
 62
     7
100
AcDbLine
 10
279.300805
 20
189.591756
 30
0.0
 11
278.409108
 21
189.591756
 31
0.0
  0
POLYLINE
  5
12E
100
AcDbEntity
  8
1
390
0
  6
Continuous
 62
     7
100
AcDb2dPolyline
 66
     1
 10
0.0
 20
0.0
 30
0.0
 40
1.0
 41
1.0
  0
VERTEX
  5
12F
100
AcDbEntity
  8
1
390
0
 62
     7
100
AcDbVertex
100
AcDb2dVertex
 10
278.536041
 20
189.791756
 30
0.0
  0
VERTEX
  5
130
100
AcDbEntity
  8
1
390
0
 62
     7
100
AcDbVertex
100
AcDb2dVertex
 10
278.478702
 20
189.698274
 30
0.0
  0
VERTEX
  5
131
100
AcDbEntity
  8
1
390
0
 62
     7
100
AcDbVertex
100
AcDb2dVertex
 10
278.421982
 20
189.610483
 30
0.0
  0
VERTEX
  5
132
100
AcDbEntity
  8
1
390
0
 62
     7
100
AcDbVertex
100
AcDb2dVertex
 10
278.409108
 20
189.591756
 30
0.0
  0
SEQEND
  5
133
100
AcDbEntity
  8
0
390
0
  0
ARC
  5
134
100
AcDbEntity
  8
1
390
0
  6
Continuous
 62
     7
100
AcDbCircle
 10
277.479704
 20
189.221425
 30
0.0
 40
1.000469
210
0.0
220
0.0
230
0.9999999999999999
100
AcDbArc
 50
21.72536
 51
158.27464
  0
POLYLINE
  5
135
100
AcDbEntity
  8
1
390
0
  6
Continuous
 62
     7
100
AcDb2dPolyline
 66
     1
 10
0.0
 20
0.0
 30
0.0
 40
1.0
 41
1.0
  0
VERTEX
  5
136
100
AcDbEntity
  8
1
390
0
 62
     7
100
AcDbVertex
100
AcDb2dVertex
 10
276.423368
 20
189.791756
 30
0.0
  0
VERTEX
  5
137
100
AcDbEntity
  8
1
390
0
 62
     7
100
AcDbVertex
100
AcDb2dVertex
 10
276.480054
 20
189.699376
 30
0.0
  0
VERTEX
  5
138
100
AcDbEntity
  8
1
390
0
 62
     7
100
AcDbVertex
100
AcDb2dVertex
 10
276.536368
 20
189.612695
 30
0.0
  0
VERTEX
  5
139
100
AcDbEntity
  8
1
390
0
 62
     7
100
AcDbVertex
100
AcDb2dVertex
 10
276.5503
 20
189.591756
 30
0.0
  0
SEQEND
  5
13A
100
AcDbEntity
  8
0
390
0
  0
LINE
  5
13B
100
AcDbEntity
  8
1
390
0
  6
Continuous
 62
     7
100
AcDbLine
 10
276.5503
 20
189.591756
 30
0.0
 11
275.65864
 21
189.591756
 31
0.0
  0
POLYLINE
  5
13C
100
AcDbEntity
  8
1
390
0
  6
Continuous
 62
     7
100
AcDb2dPolyline
 66
     1
 10
0.0
 20
0.0
 30
0.0
 40
1.0
 41
1.0
  0
VERTEX
  5
13D
100
AcDbEntity
  8
1
390
0
 62
     7
100
AcDbVertex
100
AcDb2dVertex
 10
281.285508
 20
189.791756
 30
0.0
  0
VERTEX
  5
13E
100
AcDbEntity
  8
1
390
0
 62
     7
100
AcDbVertex
100
AcDb2dVertex
 10
281.228182
 20
189.698271
 30
0.0
  0
VERTEX
  5
13F
100
AcDbEntity
  8
1
390
0
 62
     7
100
AcDbVertex
100
AcDb2dVertex
 10
281.171475
 20
189.610482
 30
0.0
  0
VERTEX
  5
140
100
AcDbEntity
  8
1
390
0
 62
     7
100
AcDbVertex
100
AcDb2dVertex
 10
281.158604
 20
189.591756
 30
0.0
  0
SEQEND
  5
141
100
AcDbEntity
  8
0
390
0
  0
ARC
  5
142
100
AcDbEntity
  8
1
390
0
  6
Continuous
 62
     7
100
AcDbCircle
 10
280.229704
 20
189.221425
 30
0.0
 40
1.0
210
0.0
220
0.0
230
1.0
100
AcDbArc
 50
21.736056
 51
158.263944
  0
LINE
  5
143
100
AcDbEntity
  8
1
390
0
  6
Continuous
 62
     7
100
AcDbLine
 10
285.729704
 20
189.591756
 30
0.0
 11
281.158604
 21
189.591756
 31
0.0
  0
ARC
  5
144
100
AcDbEntity
  8
1
390
0
  6
Continuous
 62
     7
100
AcDbCircle
 10
268.729704
 20
190.591756
 30
0.0
 40
1.0
210
0.0
220
0.0
230
1.0
100
AcDbArc
 50
180.0
 51
270.0
  0
LINE
  5
145
100
AcDbEntity
  8
1
390
0
  6
Continuous
 62
     7
100
AcDbLine
 10
267.729704
 20
190.591756
 30
0.0
 11
267.729704
 21
204.591756
 31
0.0
  0
ARC
  5
146
100
AcDbEntity
  8
1
390
0
  6
Continuous
 62
     7
100
AcDbCircle
 10
285.729704
 20
190.591756
 30
0.0
 40
1.0
210
0.0
220
0.0
230
1.0
100
AcDbArc
 50
270.0
 51
360.0
  0
LINE
  5
147
100
AcDbEntity
  8
1
390
0
  6
Continuous
 62
     7
100
AcDbLine
 10
286.729704
 20
204.591756
 30
0.0
 11
286.729704
 21
190.591756
 31
0.0
  0
ARC
  5
148
100
AcDbEntity
  8
1
390
0
  6
Continuous
 62
     7
100
AcDbCircle
 10
268.729704
 20
204.591756
 30
0.0
 40
1.0
210
0.0
220
0.0
230
1.0
100
AcDbArc
 50
90.0
 51
180.0
  0
ARC
  5
149
100
AcDbEntity
  8
1
390
0
  6
Continuous
 62
     7
100
AcDbCircle
 10
285.729704
 20
204.591756
 30
0.0
 40
1.0
210
0.0
220
0.0
230
1.0
100
AcDbArc
 50
360.0
 51
90.0
  0
LINE
  5
14A
100
AcDbEntity
  8
1
390
0
  6
Continuous
 62
     7
100
AcDbLine
 10
263.931041
 20
193.616756
 30
0.0
 11
263.254704
 21
193.616756
 31
0.0
  0
LINE
  5
14B
100
AcDbEntity
  8
1
390
0
  6
Continuous
 62
     7
100
AcDbLine
 10
263.254704
 20
193.616756
 30
0.0
 11
263.254704
 21
194.293092
 31
0.0
  0
LINE
  5
14C
100
AcDbEntity
  8
1
390
0
  6
Continuous
 62
     7
100
AcDbLine
 10
263.254704
 20
192.390419
 30
0.0
 11
263.254704
 21
193.066756
 31
0.0
  0
LINE
  5
14D
100
AcDbEntity
  8
1
390
0
  6
Continuous
 62
     7
100
AcDbLine
 10
263.254704
 20
193.066756
 30
0.0
 11
263.931041
 21
193.066756
 31
0.0
  0
LINE
  5
14E
100
AcDbEntity
  8
1
390
0
  6
Continuous
 62
     7
100
AcDbLine
 10
263.931041
 20
201.566756
 30
0.0
 11
263.254704
 21
201.566756
 31
0.0
  0
LINE
  5
14F
100
AcDbEntity
  8
1
390
0
  6
Continuous
 62
     7
100
AcDbLine
 10
263.254704
 20
201.566756
 30
0.0
 11
263.254704
 21
200.890419
 31
0.0
  0
LINE
  5
150
100
AcDbEntity
  8
1
390
0
  6
Continuous
 62
     7
100
AcDbLine
 10
263.254704
 20
202.793092
 30
0.0
 11
263.254704
 21
202.116756
 31
0.0
  0
LINE
  5
151
100
AcDbEntity
  8
1
390
0
  6
Continuous
 62
     7
100
AcDbLine
 10
263.254704
 20
202.116756
 30
0.0
 11
263.931041
 21
202.116756
 31
0.0
  0
LINE
  5
152
100
AcDbEntity
  8
1
390
0
  6
Continuous
 62
     7
100
AcDbLine
 10
262.704704
 20
194.293092
 30
0.0
 11
262.704704
 21
193.616756
 31
0.0
  0
LINE
  5
153
100
AcDbEntity
  8
1
390
0
  6
Continuous
 62
     7
100
AcDbLine
 10
262.704704
 20
193.616756
 30
0.0
 11
262.028368
 21
193.616756
 31
0.0
  0
LINE
  5
154
100
AcDbEntity
  8
1
390
0
  6
Continuous
 62
     7
100
AcDbLine
 10
262.704704
 20
193.066756
 30
0.0
 11
262.704704
 21
192.390419
 31
0.0
  0
LINE
  5
155
100
AcDbEntity
  8
1
390
0
  6
Continuous
 62
     7
100
AcDbLine
 10
262.028368
 20
193.066756
 30
0.0
 11
262.704704
 21
193.066756
 31
0.0
  0
LINE
  5
156
100
AcDbEntity
  8
1
390
0
  6
Continuous
 62
     7
100
AcDbLine
 10
262.704704
 20
202.116756
 30
0.0
 11
262.704704
 21
202.793092
 31
0.0
  0
LINE
  5
157
100
AcDbEntity
  8
1
390
0
  6
Continuous
 62
     7
100
AcDbLine
 10
262.028368
 20
202.116756
 30
0.0
 11
262.704704
 21
202.116756
 31
0.0
  0
LINE
  5
158
100
AcDbEntity
  8
1
390
0
  6
Continuous
 62
     7
100
AcDbLine
 10
262.704704
 20
201.566756
 30
0.0
 11
262.028368
 21
201.566756
 31
0.0
  0
LINE
  5
159
100
AcDbEntity
  8
1
390
0
  6
Continuous
 62
     7
100
AcDbLine
 10
262.704704
 20
200.890419
 30
0.0
 11
262.704704
 21
201.566756
 31
0.0
  0
ARC
  5
15A
100
AcDbEntity
  8
1
390
0
  6
Continuous
 62
     7
100
AcDbCircle
 10
262.979704
 20
193.341756
 30
0.0
 40
1.75
210
0.0
220
0.0
230
1.0
100
AcDbArc
 50
90.0
 51
170.06071
  0
ARC
  5
15B
100
AcDbEntity
  8
1
390
0
  6
Continuous
 62
     7
100
AcDbCircle
 10
262.979704
 20
193.341756
 30
0.0
 40
1.75
210
0.0
220
0.0
230
1.0
100
AcDbArc
 50
170.06071
 51
189.93929
  0
ARC
  5
15C
100
AcDbEntity
  8
1
390
0
  6
Continuous
 62
     7
100
AcDbCircle
 10
262.979704
 20
193.341756
 30
0.0
 40
1.75
210
0.0
220
0.0
230
1.0
100
AcDbArc
 50
189.93929
 51
350.06071
  0
ARC
  5
15D
100
AcDbEntity
  8
1
390
0
  6
Continuous
 62
     7
100
AcDbCircle
 10
262.979704
 20
193.341756
 30
0.0
 40
1.75
210
0.0
220
0.0
230
1.0
100
AcDbArc
 50
350.06071
 51
360.0
  0
ARC
  5
15E
100
AcDbEntity
  8
1
390
0
  6
Continuous
 62
     7
100
AcDbCircle
 10
262.979704
 20
193.341756
 30
0.0
 40
1.75
210
0.0
220
0.0
230
1.0
100
AcDbArc
 50
0.0
 51
9.93929
  0
ARC
  5
15F
100
AcDbEntity
  8
1
390
0
  6
Continuous
 62
     7
100
AcDbCircle
 10
262.979704
 20
193.341756
 30
0.0
 40
1.75
210
0.0
220
0.0
230
1.0
100
AcDbArc
 50
9.93929
 51
90.0
  0
LINE
  5
160
100
AcDbEntity
  8
1
390
0
  6
Continuous
 62
     7
100
AcDbLine
 10
263.254704
 20
194.441756
 30
0.0
 11
262.704704
 21
194.441756
 31
0.0
  0
ARC
  5
161
100
AcDbEntity
  8
1
390
0
  6
Continuous
 62
     7
100
AcDbCircle
 10
262.979704
 20
193.341756
 30
0.0
 40
1.670201
210
0.0
220
0.0
230
1.0
100
AcDbArc
 50
170.523047
 51
189.476953
  0
LINE
  5
162
100
AcDbEntity
  8
1
390
0
  6
Continuous
 62
     7
100
AcDbLine
 10
262.704704
 20
192.241756
 30
0.0
 11
263.254704
 21
192.241756
 31
0.0
  0
ARC
  5
163
100
AcDbEntity
  8
1
390
0
  6
Continuous
 62
     7
100
AcDbCircle
 10
262.979704
 20
193.341756
 30
0.0
 40
1.670201
210
0.0
220
0.0
230
1.0
100
AcDbArc
 50
350.523047
 51
9.476953
  0
LINE
  5
164
100
AcDbEntity
  8
1
390
0
  6
Continuous
 62
     7
100
AcDbLine
 10
262.704704
 20
194.441756
 30
0.0
 11
262.704704
 21
194.293092
 31
0.0
  0
LINE
  5
165
100
AcDbEntity
  8
1
390
0
  6
Continuous
 62
     7
100
AcDbLine
 10
262.028368
 20
193.616756
 30
0.0
 11
261.332299
 21
193.616756
 31
0.0
  0
LINE
  5
166
100
AcDbEntity
  8
1
390
0
  6
Continuous
 62
     7
100
AcDbLine
 10
262.704704
 20
192.390419
 30
0.0
 11
262.704704
 21
192.241756
 31
0.0
  0
LINE
  5
167
100
AcDbEntity
  8
1
390
0
  6
Continuous
 62
     7
100
AcDbLine
 10
261.332299
 20
193.066756
 30
0.0
 11
262.028368
 21
193.066756
 31
0.0
  0
LINE
  5
168
100
AcDbEntity
  8
1
390
0
  6
Continuous
 62
     7
100
AcDbLine
 10
263.254704
 20
194.293092
 30
0.0
 11
263.254704
 21
194.441756
 31
0.0
  0
LINE
  5
169
100
AcDbEntity
  8
1
390
0
  6
Continuous
 62
     7
100
AcDbLine
 10
264.62711
 20
193.616756
 30
0.0
 11
263.931041
 21
193.616756
 31
0.0
  0
LINE
  5
16A
100
AcDbEntity
  8
1
390
0
  6
Continuous
 62
     7
100
AcDbLine
 10
263.254704
 20
192.241756
 30
0.0
 11
263.254704
 21
192.390419
 31
0.0
  0
LINE
  5
16B
100
AcDbEntity
  8
1
390
0
  6
Continuous
 62
     7
100
AcDbLine
 10
263.931041
 20
193.066756
 30
0.0
 11
264.62711
 21
193.066756
 31
0.0
  0
ARC
  5
16C
100
AcDbEntity
  8
1
390
0
  6
Continuous
 62
     7
100
AcDbCircle
 10
262.979704
 20
201.841756
 30
0.0
 40
1.75
210
0.0
220
0.0
230
1.0
100
AcDbArc
 50
9.93929
 51
90.0
  0
ARC
  5
16D
100
AcDbEntity
  8
1
390
0
  6
Continuous
 62
     7
100
AcDbCircle
 10
262.979704
 20
201.841756
 30
0.0
 40
1.75
210
0.0
220
0.0
230
1.0
100
AcDbArc
 50
0.0
 51
9.93929
  0
ARC
  5
16E
100
AcDbEntity
  8
1
390
0
  6
Continuous
 62
     7
100
AcDbCircle
 10
262.979704
 20
201.841756
 30
0.0
 40
1.75
210
0.0
220
0.0
230
1.0
100
AcDbArc
 50
350.06071
 51
360.0
  0
ARC
  5
16F
100
AcDbEntity
  8
1
390
0
  6
Continuous
 62
     7
100
AcDbCircle
 10
262.979704
 20
201.841756
 30
0.0
 40
1.75
210
0.0
220
0.0
230
0.9999999999999999
100
AcDbArc
 50
189.93929
 51
350.06071
  0
ARC
  5
170
100
AcDbEntity
  8
1
390
0
  6
Continuous
 62
     7
100
AcDbCircle
 10
262.979704
 20
201.841756
 30
0.0
 40
1.75
210
0.0
220
0.0
230
1.0
100
AcDbArc
 50
170.06071
 51
189.93929
  0
ARC
  5
171
100
AcDbEntity
  8
1
390
0
  6
Continuous
 62
     7
100
AcDbCircle
 10
262.979704
 20
201.841756
 30
0.0
 40
1.75
210
0.0
220
0.0
230
1.0
100
AcDbArc
 50
90.0
 51
170.06071
  0
ARC
  5
172
100
AcDbEntity
  8
1
390
0
  6
Continuous
 62
     7
100
AcDbCircle
 10
262.979704
 20
201.841756
 30
0.0
 40
1.670201
210
0.0
220
0.0
230
1.0
100
AcDbArc
 50
170.523047
 51
189.476953
  0
ARC
  5
173
100
AcDbEntity
  8
1
390
0
  6
Continuous
 62
     7
100
AcDbCircle
 10
262.979704
 20
201.841756
 30
0.0
 40
1.670201
210
0.0
220
0.0
230
1.0
100
AcDbArc
 50
350.523047
 51
9.476953
  0
LINE
  5
174
100
AcDbEntity
  8
1
390
0
  6
Continuous
 62
     7
100
AcDbLine
 10
262.704704
 20
202.941756
 30
0.0
 11
263.254704
 21
202.941756
 31
0.0
  0
LINE
  5
175
100
AcDbEntity
  8
1
390
0
  6
Continuous
 62
     7
100
AcDbLine
 10
263.254704
 20
200.741756
 30
0.0
 11
262.704704
 21
200.741756
 31
0.0
  0
LINE
  5
176
100
AcDbEntity
  8
1
390
0
  6
Continuous
 62
     7
100
AcDbLine
 10
262.028368
 20
201.566756
 30
0.0
 11
261.332299
 21
201.566756
 31
0.0
  0
LINE
  5
177
100
AcDbEntity
  8
1
390
0
  6
Continuous
 62
     7
100
AcDbLine
 10
262.704704
 20
202.793092
 30
0.0
 11
262.704704
 21
202.941756
 31
0.0
  0
LINE
  5
178
100
AcDbEntity
  8
1
390
0
  6
Continuous
 62
     7
100
AcDbLine
 10
262.704704
 20
200.741756
 30
0.0
 11
262.704704
 21
200.890419
 31
0.0
  0
LINE
  5
179
100
AcDbEntity
  8
1
390
0
  6
Continuous
 62
     7
100
AcDbLine
 10
261.332299
 20
202.116756
 30
0.0
 11
262.028368
 21
202.116756
 31
0.0
  0
LINE
  5
17A
100
AcDbEntity
  8
1
390
0
  6
Continuous
 62
     7
100
AcDbLine
 10
263.254704
 20
200.890419
 30
0.0
 11
263.254704
 21
200.741756
 31
0.0
  0
LINE
  5
17B
100
AcDbEntity
  8
1
390
0
  6
Continuous
 62
     7
100
AcDbLine
 10
264.62711
 20
201.566756
 30
0.0
 11
263.931041
 21
201.566756
 31
0.0
  0
LINE
  5
17C
100
AcDbEntity
  8
1
390
0
  6
Continuous
 62
     7
100
AcDbLine
 10
263.254704
 20
202.941756
 30
0.0
 11
263.254704
 21
202.793092
 31
0.0
  0
LINE
  5
17D
100
AcDbEntity
  8
1
390
0
  6
Continuous
 62
     7
100
AcDbLine
 10
263.931041
 20
202.116756
 30
0.0
 11
264.62711
 21
202.116756
 31
0.0
  0
LINE
  5
17E
100
AcDbEntity
  8
1
390
0
  6
Continuous
 62
     7
100
AcDbLine
 10
265.229704
 20
203.091756
 30
0.0
 11
265.229704
 21
192.091756
 31
0.0
  0
ARC
  5
17F
100
AcDbEntity
  8
1
390
0
  6
Continuous
 62
     7
100
AcDbCircle
 10
264.229704
 20
192.091756
 30
0.0
 40
1.0
210
0.0
220
0.0
230
1.0
100
AcDbArc
 50
270.0
 51
360.0
  0
LINE
  5
180
100
AcDbEntity
  8
1
390
0
  6
Continuous
 62
     7
100
AcDbLine
 10
264.229704
 20
191.091756
 30
0.0
 11
261.729704
 21
191.091756
 31
0.0
  0
ARC
  5
181
100
AcDbEntity
  8
1
390
0
  6
Continuous
 62
     7
100
AcDbCircle
 10
261.729704
 20
192.091756
 30
0.0
 40
1.0
210
0.0
220
0.0
230
1.0
100
AcDbArc
 50
180.0
 51
270.0
  0
LINE
  5
182
100
AcDbEntity
  8
1
390
0
  6
Continuous
 62
     7
100
AcDbLine
 10
260.729704
 20
192.091756
 30
0.0
 11
260.729704
 21
203.091756
 31
0.0
  0
ARC
  5
183
100
AcDbEntity
  8
1
390
0
  6
Continuous
 62
     7
100
AcDbCircle
 10
261.729704
 20
203.091756
 30
0.0
 40
1.0
210
0.0
220
0.0
230
1.0
100
AcDbArc
 50
90.0
 51
180.0
  0
LINE
  5
184
100
AcDbEntity
  8
1
390
0
  6
Continuous
 62
     7
100
AcDbLine
 10
261.729704
 20
204.091756
 30
0.0
 11
264.229704
 21
204.091756
 31
0.0
  0
ARC
  5
185
100
AcDbEntity
  8
1
390
0
  6
Continuous
 62
     7
100
AcDbCircle
 10
264.229704
 20
203.091756
 30
0.0
 40
1.0
210
0.0
220
0.0
230
1.0
100
AcDbArc
 50
360.0
 51
90.0
  0
LINE
  5
186
100
AcDbEntity
  8
1
390
0
  6
Continuous
 62
     7
100
AcDbLine
 10
227.729704
 20
198.871756
 30
0.0
 11
227.729704
 21
197.591756
 31
0.0
  0
LINE
  5
188
100
AcDbEntity
  8
1
390
0
  6
DOT
 62
     9
100
AcDbLine
 10
259.729704
 20
197.867255
 30
0.0
 11
260.729704
 21
197.867255
 31
0.0
  0
POLYLINE
  5
189
100
AcDbEntity
  8
1
390
0
  6
DOT
 62
     9
100
AcDb2dPolyline
 66
     1
 10
0.0
 20
0.0
 30
0.0
 40
1.0
 41
1.0
  0
VERTEX
  5
18A
100
AcDbEntity
  8
1
390
0
 62
     9
100
AcDbVertex
100
AcDb2dVertex
 10
265.229704
 20
197.316256
 30
0.0
  0
VERTEX
  5
18B
100
AcDbEntity
  8
1
390
0
 62
     9
100
AcDbVertex
100
AcDb2dVertex
 10
265.238597
 20
197.316437
 30
0.0
  0
VERTEX
  5
18C
100
AcDbEntity
  8
1
390
0
 62
     9
100
AcDbVertex
100
AcDb2dVertex
 10
265.247482
 20
197.316976
 30
0.0
  0
VERTEX
  5
18D
100
AcDbEntity
  8
1
390
0
 62
     9
100
AcDbVertex
100
AcDb2dVertex
 10
265.256337
 20
197.317871
 30
0.0
  0
VERTEX
  5
18E
100
AcDbEntity
  8
1
390
0
 62
     9
100
AcDbVertex
100
AcDb2dVertex
 10
265.265139
 20
197.319121
 30
0.0
  0
VERTEX
  5
18F
100
AcDbEntity
  8
1
390
0
 62
     9
100
AcDbVertex
100
AcDb2dVertex
 10
265.273952
 20
197.320739
 30
0.0
  0
VERTEX
  5
190
100
AcDbEntity
  8
1
390
0
 62
     9
100
AcDbVertex
100
AcDb2dVertex
 10
265.282698
 20
197.322712
 30
0.0
  0
VERTEX
  5
191
100
AcDbEntity
  8
1
390
0
 62
     9
100
AcDbVertex
100
AcDb2dVertex
 10
265.291354
 20
197.325034
 30
0.0
  0
VERTEX
  5
192
100
AcDbEntity
  8
1
390
0
 62
     9
100
AcDbVertex
100
AcDb2dVertex
 10
265.299899
 20
197.327697
 30
0.0
  0
VERTEX
  5
193
100
AcDbEntity
  8
1
390
0
 62
     9
100
AcDbVertex
100
AcDb2dVertex
 10
265.308556
 20
197.330785
 30
0.0
  0
VERTEX
  5
194
100
AcDbEntity
  8
1
390
0
 62
     9
100
AcDbVertex
100
AcDb2dVertex
 10
265.317084
 20
197.334225
 30
0.0
  0
VERTEX
  5
195
100
AcDbEntity
  8
1
390
0
 62
     9
100
AcDbVertex
100
AcDb2dVertex
 10
265.325462
 20
197.338004
 30
0.0
  0
VERTEX
  5
196
100
AcDbEntity
  8
1
390
0
 62
     9
100
AcDbVertex
100
AcDb2dVertex
 10
265.33367
 20
197.34211
 30
0.0
  0
VERTEX
  5
197
100
AcDbEntity
  8
1
390
0
 62
     9
100
AcDbVertex
100
AcDb2dVertex
 10
265.344471
 20
197.34817
 30
0.0
  0
VERTEX
  5
198
100
AcDbEntity
  8
1
390
0
 62
     9
100
AcDbVertex
100
AcDb2dVertex
 10
265.354953
 20
197.354811
 30
0.0
  0
VERTEX
  5
199
100
AcDbEntity
  8
1
390
0
 62
     9
100
AcDbVertex
100
AcDb2dVertex
 10
265.365084
 20
197.361997
 30
0.0
  0
VERTEX
  5
19A
100
AcDbEntity
  8
1
390
0
 62
     9
100
AcDbVertex
100
AcDb2dVertex
 10
265.374831
 20
197.369692
 30
0.0
  0
VERTEX
  5
19B
100
AcDbEntity
  8
1
390
0
 62
     9
100
AcDbVertex
100
AcDb2dVertex
 10
265.38416
 20
197.377859
 30
0.0
  0
VERTEX
  5
19C
100
AcDbEntity
  8
1
390
0
 62
     9
100
AcDbVertex
100
AcDb2dVertex
 10
265.39304
 20
197.386461
 30
0.0
  0
VERTEX
  5
19D
100
AcDbEntity
  8
1
390
0
 62
     9
100
AcDbVertex
100
AcDb2dVertex
 10
265.402166
 20
197.396274
 30
0.0
  0
VERTEX
  5
19E
100
AcDbEntity
  8
1
390
0
 62
     9
100
AcDbVertex
100
AcDb2dVertex
 10
265.410785
 20
197.406581
 30
0.0
  0
VERTEX
  5
19F
100
AcDbEntity
  8
1
390
0
 62
     9
100
AcDbVertex
100
AcDb2dVertex
 10
265.418878
 20
197.417332
 30
0.0
  0
VERTEX
  5
1A0
100
AcDbEntity
  8
1
390
0
 62
     9
100
AcDbVertex
100
AcDb2dVertex
 10
265.426426
 20
197.428481
 30
0.0
  0
VERTEX
  5
1A1
100
AcDbEntity
  8
1
390
0
 62
     9
100
AcDbVertex
100
AcDb2dVertex
 10
265.433413
 20
197.439979
 30
0.0
  0
VERTEX
  5
1A2
100
AcDbEntity
  8
1
390
0
 62
     9
100
AcDbVertex
100
AcDb2dVertex
 10
265.439819
 20
197.451779
 30
0.0
  0
VERTEX
  5
1A3
100
AcDbEntity
  8
1
390
0
 62
     9
100
AcDbVertex
100
AcDb2dVertex
 10
265.445483
 20
197.4635
 30
0.0
  0
VERTEX
  5
1A4
100
AcDbEntity
  8
1
390
0
 62
     9
100
AcDbVertex
100
AcDb2dVertex
 10
265.450623
 20
197.475491
 30
0.0
  0
VERTEX
  5
1A5
100
AcDbEntity
  8
1
390
0
 62
     9
100
AcDbVertex
100
AcDb2dVertex
 10
265.455233
 20
197.487712
 30
0.0
  0
VERTEX
  5
1A6
100
AcDbEntity
  8
1
390
0
 62
     9
100
AcDbVertex
100
AcDb2dVertex
 10
265.459307
 20
197.500124
 30
0.0
  0
VERTEX
  5
1A7
100
AcDbEntity
  8
1
390
0
 62
     9
100
AcDbVertex
100
AcDb2dVertex
 10
265.462839
 20
197.512689
 30
0.0
  0
VERTEX
  5
1A8
100
AcDbEntity
  8
1
390
0
 62
     9
100
AcDbVertex
100
AcDb2dVertex
 10
265.46569
 20
197.524726
 30
0.0
  0
VERTEX
  5
1A9
100
AcDbEntity
  8
1
390
0
 62
     9
100
AcDbVertex
100
AcDb2dVertex
 10
265.468064
 20
197.536883
 30
0.0
  0
VERTEX
  5
1AA
100
AcDbEntity
  8
1
390
0
 62
     9
100
AcDbVertex
100
AcDb2dVertex
 10
265.469958
 20
197.549128
 30
0.0
  0
VERTEX
  5
1AB
100
AcDbEntity
  8
1
390
0
 62
     9
100
AcDbVertex
100
AcDb2dVertex
 10
265.471371
 20
197.561432
 30
0.0
  0
VERTEX
  5
1AC
100
AcDbEntity
  8
1
390
0
 62
     9
100
AcDbVertex
100
AcDb2dVertex
 10
265.472323
 20
197.574119
 30
0.0
  0
VERTEX
  5
1AD
100
AcDbEntity
  8
1
390
0
 62
     9
100
AcDbVertex
100
AcDb2dVertex
 10
265.472771
 20
197.586846
 30
0.0
  0
VERTEX
  5
1AE
100
AcDbEntity
  8
1
390
0
 62
     9
100
AcDbVertex
100
AcDb2dVertex
 10
265.472713
 20
197.599582
 30
0.0
  0
VERTEX
  5
1AF
100
AcDbEntity
  8
1
390
0
 62
     9
100
AcDbVertex
100
AcDb2dVertex
 10
265.472151
 20
197.612294
 30
0.0
  0
VERTEX
  5
1B0
100
AcDbEntity
  8
1
390
0
 62
     9
100
AcDbVertex
100
AcDb2dVertex
 10
265.471117
 20
197.624636
 30
0.0
  0
VERTEX
  5
1B1
100
AcDbEntity
  8
1
390
0
 62
     9
100
AcDbVertex
100
AcDb2dVertex
 10
265.469603
 20
197.636937
 30
0.0
  0
VERTEX
  5
1B2
100
AcDbEntity
  8
1
390
0
 62
     9
100
AcDbVertex
100
AcDb2dVertex
 10
265.46761
 20
197.649164
 30
0.0
  0
VERTEX
  5
1B3
100
AcDbEntity
  8
1
390
0
 62
     9
100
AcDbVertex
100
AcDb2dVertex
 10
265.46514
 20
197.661289
 30
0.0
  0
VERTEX
  5
1B4
100
AcDbEntity
  8
1
390
0
 62
     9
100
AcDbVertex
100
AcDb2dVertex
 10
265.462099
 20
197.673632
 30
0.0
  0
VERTEX
  5
1B5
100
AcDbEntity
  8
1
390
0
 62
     9
100
AcDbVertex
100
AcDb2dVertex
 10
265.458549
 20
197.685842
 30
0.0
  0
VERTEX
  5
1B6
100
AcDbEntity
  8
1
390
0
 62
     9
100
AcDbVertex
100
AcDb2dVertex
 10
265.454492
 20
197.697886
 30
0.0
  0
VERTEX
  5
1B7
100
AcDbEntity
  8
1
390
0
 62
     9
100
AcDbVertex
100
AcDb2dVertex
 10
265.449934
 20
197.709728
 30
0.0
  0
VERTEX
  5
1B8
100
AcDbEntity
  8
1
390
0
 62
     9
100
AcDbVertex
100
AcDb2dVertex
 10
265.444924
 20
197.721234
 30
0.0
  0
VERTEX
  5
1B9
100
AcDbEntity
  8
1
390
0
 62
     9
100
AcDbVertex
100
AcDb2dVertex
 10
265.439415
 20
197.732514
 30
0.0
  0
VERTEX
  5
1BA
100
AcDbEntity
  8
1
390
0
 62
     9
100
AcDbVertex
100
AcDb2dVertex
 10
265.433417
 20
197.743534
 30
0.0
  0
VERTEX
  5
1BB
100
AcDbEntity
  8
1
390
0
 62
     9
100
AcDbVertex
100
AcDb2dVertex
 10
265.426937
 20
197.754255
 30
0.0
  0
VERTEX
  5
1BC
100
AcDbEntity
  8
1
390
0
 62
     9
100
AcDbVertex
100
AcDb2dVertex
 10
265.419716
 20
197.765023
 30
0.0
  0
VERTEX
  5
1BD
100
AcDbEntity
  8
1
390
0
 62
     9
100
AcDbVertex
100
AcDb2dVertex
 10
265.411974
 20
197.775437
 30
0.0
  0
VERTEX
  5
1BE
100
AcDbEntity
  8
1
390
0
 62
     9
100
AcDbVertex
100
AcDb2dVertex
 10
265.403731
 20
197.785453
 30
0.0
  0
VERTEX
  5
1BF
100
AcDbEntity
  8
1
390
0
 62
     9
100
AcDbVertex
100
AcDb2dVertex
 10
265.395003
 20
197.795028
 30
0.0
  0
VERTEX
  5
1C0
100
AcDbEntity
  8
1
390
0
 62
     9
100
AcDbVertex
100
AcDb2dVertex
 10
265.386989
 20
197.803008
 30
0.0
  0
VERTEX
  5
1C1
100
AcDbEntity
  8
1
390
0
 62
     9
100
AcDbVertex
100
AcDb2dVertex
 10
265.378609
 20
197.810624
 30
0.0
  0
VERTEX
  5
1C2
100
AcDbEntity
  8
1
390
0
 62
     9
100
AcDbVertex
100
AcDb2dVertex
 10
265.369885
 20
197.817846
 30
0.0
  0
VERTEX
  5
1C3
100
AcDbEntity
  8
1
390
0
 62
     9
100
AcDbVertex
100
AcDb2dVertex
 10
265.360838
 20
197.824645
 30
0.0
  0
VERTEX
  5
1C4
100
AcDbEntity
  8
1
390
0
 62
     9
100
AcDbVertex
100
AcDb2dVertex
 10
265.35111
 20
197.831238
 30
0.0
  0
VERTEX
  5
1C5
100
AcDbEntity
  8
1
390
0
 62
     9
100
AcDbVertex
100
AcDb2dVertex
 10
265.341045
 20
197.837347
 30
0.0
  0
VERTEX
  5
1C6
100
AcDbEntity
  8
1
390
0
 62
     9
100
AcDbVertex
100
AcDb2dVertex
 10
265.33068
 20
197.842943
 30
0.0
  0
VERTEX
  5
1C7
100
AcDbEntity
  8
1
390
0
 62
     9
100
AcDbVertex
100
AcDb2dVertex
 10
265.320049
 20
197.847997
 30
0.0
  0
VERTEX
  5
1C8
100
AcDbEntity
  8
1
390
0
 62
     9
100
AcDbVertex
100
AcDb2dVertex
 10
265.310881
 20
197.851829
 30
0.0
  0
VERTEX
  5
1C9
100
AcDbEntity
  8
1
390
0
 62
     9
100
AcDbVertex
100
AcDb2dVertex
 10
265.301539
 20
197.855258
 30
0.0
  0
VERTEX
  5
1CA
100
AcDbEntity
  8
1
390
0
 62
     9
100
AcDbVertex
100
AcDb2dVertex
 10
265.29205
 20
197.858274
 30
0.0
  0
VERTEX
  5
1CB
100
AcDbEntity
  8
1
390
0
 62
     9
100
AcDbVertex
100
AcDb2dVertex
 10
265.282441
 20
197.860864
 30
0.0
  0
VERTEX
  5
1CC
100
AcDbEntity
  8
1
390
0
 62
     9
100
AcDbVertex
100
AcDb2dVertex
 10
265.272381
 20
197.863087
 30
0.0
  0
VERTEX
  5
1CD
100
AcDbEntity
  8
1
390
0
 62
     9
100
AcDbVertex
100
AcDb2dVertex
 10
265.262212
 20
197.864844
 30
0.0
  0
VERTEX
  5
1CE
100
AcDbEntity
  8
1
390
0
 62
     9
100
AcDbVertex
100
AcDb2dVertex
 10
265.25197
 20
197.866127
 30
0.0
  0
VERTEX
  5
1CF
100
AcDbEntity
  8
1
390
0
 62
     9
100
AcDbVertex
100
AcDb2dVertex
 10
265.241689
 20
197.866929
 30
0.0
  0
VERTEX
  5
1D0
100
AcDbEntity
  8
1
390
0
 62
     9
100
AcDbVertex
100
AcDb2dVertex
 10
265.235699
 20
197.867174
 30
0.0
  0
VERTEX
  5
1D1
100
AcDbEntity
  8
1
390
0
 62
     9
100
AcDbVertex
100
AcDb2dVertex
 10
265.229704
 20
197.867255
 30
0.0
  0
SEQEND
  5
1D2
100
AcDbEntity
  8
0
390
0
  0
LINE
  5
1D3
100
AcDbEntity
  8
1
390
0
  6
DOT
 62
     9
100
AcDbLine
 10
260.729704
 20
197.316256
 30
0.0
 11
259.729704
 21
197.316256
 31
0.0
  0
LINE
  5
1D4
100
AcDbEntity
  8
1
390
0
  6
DOT
 62
     9
100
AcDbLine
 10
259.729704
 20
197.867255
 30
0.0
 11
259.729704
 21
197.316256
 31
0.0
  0
LINE
  5
1D5
100
AcDbEntity
  8
1
390
0
  6
DOT
 62
     9
100
AcDbLine
 10
260.729704
 20
197.867255
 30
0.0
 11
265.229704
 21
197.867255
 31
0.0
  0
LINE
  5
1D6
100
AcDbEntity
  8
1
390
0
  6
DOT
 62
     9
100
AcDbLine
 10
265.229704
 20
197.316256
 30
0.0
 11
260.729704
 21
197.316256
 31
0.0
  0
LINE
  5
1D7
100
AcDbEntity
  8
1
390
0
  6
Continuous
 62
     7
100
AcDbLine
 10
227.729704
 20
197.591756
 30
0.0
 11
227.729704
 21
196.311756
 31
0.0
  0
CIRCLE
  5
1D8
100
AcDbEntity
  8
1
390
0
  6
DOT
 62
     9
100
AcDbCircle
 10
262.979704
 20
193.341756
 30
0.0
 40
1.0
210
0.0
220
0.0
230
1.0
  0
CIRCLE
  5
1D9
100
AcDbEntity
  8
1
390
0
  6
DOT
 62
     9
100
AcDbCircle
 10
262.979704
 20
201.841756
 30
0.0
 40
1.0
210
0.0
220
0.0
230
1.0
  0
LINE
  5
1DA
100
AcDbEntity
  8
1
390
0
  6
Continuous
 62
     7
100
AcDbLine
 10
286.729704
 20
194.591756
 30
0.0
 11
298.358681
 21
194.591756
 31
0.0
  0
ARC
  5
1DB
100
AcDbEntity
  8
1
390
0
  6
Continuous
 62
     7
100
AcDbCircle
 10
296.838605
 20
193.466756
 30
0.0
 40
1.891099
210
0.0
220
0.0
230
1.0
100
AcDbArc
 50
323.49506
 51
36.50494
  0
LINE
  5
1DC
100
AcDbEntity
  8
1
390
0
  6
Continuous
 62
     7
100
AcDbLine
 10
298.358681
 20
192.341756
 30
0.0
 11
286.729704
 21
192.341756
 31
0.0
  0
LINE
  5
1DD
100
AcDbEntity
  8
1
390
0
  6
Continuous
 62
     7
100
AcDbLine
 10
286.729704
 20
203.591756
 30
0.0
 11
298.140027
 21
203.591756
 31
0.0
  0
ARC
  5
1DE
100
AcDbEntity
  8
1
390
0
  6
Continuous
 62
     7
100
AcDbCircle
 10
296.527043
 20
202.091756
 30
0.0
 40
2.202662
210
0.0
220
0.0
230
1.0
100
AcDbArc
 50
317.078609
 51
42.921391
  0
LINE
  5
1DF
100
AcDbEntity
  8
1
390
0
  6
Continuous
 62
     7
100
AcDbLine
 10
298.140027
 20
200.591756
 30
0.0
 11
286.729704
 21
200.591756
 31
0.0
  0
LINE
  5
1E0
100
AcDbEntity
  8
1
390
0
  6
Continuous
 62
     7
100
AcDbLine
 10
269.929704
 20
188.591756
 30
0.0
 11
269.729704
 21
188.591756
 31
0.0
  0
LINE
  5
1E1
100
AcDbEntity
  8
1
390
0
  6
Continuous
 62
     7
100
AcDbLine
 10
269.729704
 20
188.591756
 30
0.0
 11
269.729704
 21
189.591756
 31
0.0
  0
LINE
  5
1E2
100
AcDbEntity
  8
1
390
0
  6
Continuous
 62
     7
100
AcDbLine
 10
269.929704
 20
188.591756
 30
0.0
 11
273.529704
 21
188.591756
 31
0.0
  0
LINE
  5
1E3
100
AcDbEntity
  8
1
390
0
  6
Continuous
 62
     7
100
AcDbLine
 10
273.729704
 20
189.591756
 30
0.0
 11
273.729704
 21
188.591756
 31
0.0
  0
LINE
  5
1E4
100
AcDbEntity
  8
1
390
0
  6
Continuous
 62
     7
100
AcDbLine
 10
273.729704
 20
188.591756
 30
0.0
 11
273.529704
 21
188.591756
 31
0.0
  0
LINE
  5
1E5
100
AcDbEntity
  8
1
390
0
  6
Continuous
 62
     7
100
AcDbLine
 10
269.729704
 20
205.591756
 30
0.0
 11
269.729704
 21
206.591756
 31
0.0
  0
LINE
  5
1E6
100
AcDbEntity
  8
1
390
0
  6
Continuous
 62
     7
100
AcDbLine
 10
269.729704
 20
206.591756
 30
0.0
 11
269.929704
 21
206.591756
 31
0.0
  0
LINE
  5
1E7
100
AcDbEntity
  8
1
390
0
  6
Continuous
 62
     7
100
AcDbLine
 10
269.929704
 20
206.591756
 30
0.0
 11
273.529704
 21
206.591756
 31
0.0
  0
LINE
  5
1E8
100
AcDbEntity
  8
1
390
0
  6
Continuous
 62
     7
100
AcDbLine
 10
273.729704
 20
206.591756
 30
0.0
 11
273.729704
 21
205.591756
 31
0.0
  0
LINE
  5
1E9
100
AcDbEntity
  8
1
390
0
  6
Continuous
 62
     7
100
AcDbLine
 10
273.529704
 20
206.591756
 30
0.0
 11
273.729704
 21
206.591756
 31
0.0
  0
LINE
  5
1EA
100
AcDbEntity
  8
1
390
0
  6
Continuous
 62
     7
100
AcDbLine
 10
265.229704
 20
191.091756
 30
0.0
 11
264.229704
 21
191.091756
 31
0.0
  0
LINE
  5
1EB
100
AcDbEntity
  8
1
390
0
  6
Continuous
 62
     7
100
AcDbLine
 10
261.729704
 20
191.091756
 30
0.0
 11
260.729704
 21
191.091756
 31
0.0
  0
ARC
  5
1EC
100
AcDbEntity
  8
1
390
0
  6
Continuous
 62
     7
100
AcDbCircle
 10
260.729704
 20
192.091756
 30
0.0
 40
1.0
210
0.0
220
0.0
230
1.0
100
AcDbArc
 50
180.0
 51
270.0
  0
LINE
  5
1ED
100
AcDbEntity
  8
1
390
0
  6
Continuous
 62
     7
100
AcDbLine
 10
259.729704
 20
192.091756
 30
0.0
 11
259.729704
 21
196.311756
 31
0.0
  0
LINE
  5
1EE
100
AcDbEntity
  8
1
390
0
  6
DOT
 62
     9
100
AcDbLine
 10
259.729704
 20
196.311756
 30
0.0
 11
259.729704
 21
197.316256
 31
0.0
  0
ARC
  5
1EF
100
AcDbEntity
  8
1
390
0
  6
Continuous
 62
     7
100
AcDbCircle
 10
260.729704
 20
203.091756
 30
0.0
 40
1.0
210
0.0
220
0.0
230
1.0
100
AcDbArc
 50
90.0
 51
180.0
  0
LINE
  5
1F0
100
AcDbEntity
  8
1
390
0
  6
Continuous
 62
     7
100
AcDbLine
 10
260.729704
 20
204.091756
 30
0.0
 11
261.729704
 21
204.091756
 31
0.0
  0
LINE
  5
1F1
100
AcDbEntity
  8
1
390
0
  6
Continuous
 62
     7
100
AcDbLine
 10
264.229704
 20
204.091756
 30
0.0
 11
265.229704
 21
204.091756
 31
0.0
  0
LINE
  5
1F2
100
AcDbEntity
  8
1
390
0
  6
DOT
 62
     9
100
AcDbLine
 10
259.729704
 20
197.867255
 30
0.0
 11
259.729704
 21
198.871756
 31
0.0
  0
LINE
  5
1F3
100
AcDbEntity
  8
1
390
0
  6
Continuous
 62
     7
100
AcDbLine
 10
259.729704
 20
198.871756
 30
0.0
 11
259.729704
 21
203.091756
 31
0.0
  0
LINE
  5
1F4
100
AcDbEntity
  8
1
390
0
  6
Continuous
 62
     7
100
AcDbLine
 10
265.229704
 20
204.091756
 30
0.0
 11
266.229704
 21
204.091756
 31
0.0
  0
LINE
  5
1F5
100
AcDbEntity
  8
1
390
0
  6
Continuous
 62
     7
100
AcDbLine
 10
266.229704
 20
204.091756
 30
0.0
 11
266.229704
 21
198.871756
 31
0.0
  0
LINE
  5
1F6
100
AcDbEntity
  8
1
390
0
  6
DOT
 62
     9
100
AcDbLine
 10
266.229704
 20
198.871756
 30
0.0
 11
266.229704
 21
196.311756
 31
0.0
  0
LINE
  5
1F7
100
AcDbEntity
  8
1
390
0
  6
Continuous
 62
     7
100
AcDbLine
 10
266.229704
 20
196.311756
 30
0.0
 11
266.229704
 21
191.091756
 31
0.0
  0
LINE
  5
1F8
100
AcDbEntity
  8
1
390
0
  6
Continuous
 62
     7
100
AcDbLine
 10
266.229704
 20
191.091756
 30
0.0
 11
265.229704
 21
191.091756
 31
0.0
  0
LINE
  5
1F9
100
AcDbEntity
  8
1
390
0
  6
DOT
 62
     9
100
AcDbLine
 10
265.229704
 20
191.091756
 30
0.0
 11
265.229704
 21
192.091756
 31
0.0
  0
LINE
  5
1FA
100
AcDbEntity
  8
1
390
0
  6
DOT
 62
     9
100
AcDbLine
 10
265.229704
 20
203.091756
 30
0.0
 11
265.229704
 21
204.091756
 31
0.0
  0
CIRCLE
  5
1FB
100
AcDbEntity
  8
1
390
0
  6
DOT
 62
     9
100
AcDbCircle
 10
262.979704
 20
193.341756
 30
0.0
 40
0.8
210
0.0
220
0.0
230
1.0
  0
CIRCLE
  5
1FC
100
AcDbEntity
  8
1
390
0
  6
DOT
 62
     9
100
AcDbCircle
 10
262.979704
 20
201.841756
 30
0.0
 40
0.8
210
0.0
220
0.0
230
1.0
  0
LINE
  5
1FD
100
AcDbEntity
  8
1
390
0
  6
DOT
 62
     9
100
AcDbLine
 10
273.672899
 20
205.391756
 30
0.0
 11
269.730554
 21
205.391756
 31
0.0
  0
LINE
  5
1FE
100
AcDbEntity
  8
1
390
0
  6
DOT
 62
     9
100
AcDbLine
 10
269.730554
 20
205.391756
 30
0.0
 11
269.729704
 21
205.391756
 31
0.0
  0
ARC
  5
1FF
100
AcDbEntity
  8
1
390
0
  6
DOT
 62
     9
100
AcDbCircle
 10
274.729236
 20
205.962087
 30
0.0
 40
1.200469
210
0.0
220
0.0
230
1.0
100
AcDbArc
 50
208.365254
 51
213.6314
  0
LINE
  5
200
100
AcDbEntity
  8
1
390
0
  6
DOT
 62
     9
100
AcDbLine
 10
279.1739
 20
189.791756
 30
0.0
 11
279.219182
 21
189.717529
 31
0.0
  0
LINE
  5
201
100
AcDbEntity
  8
1
390
0
  6
DOT
 62
     9
100
AcDbLine
 10
279.258264
 20
189.655949
 30
0.0
 11
279.300805
 21
189.591756
 31
0.0
  0
LINE
  5
202
100
AcDbEntity
  8
1
390
0
  6
DOT
 62
     9
100
AcDbLine
 10
276.423368
 20
189.791756
 30
0.0
 11
276.468686
 21
189.717486
 31
0.0
  0
ARC
  5
203
100
AcDbEntity
  8
1
390
0
  6
DOT
 62
     9
100
AcDbCircle
 10
274.729236
 20
189.221425
 30
0.0
 40
1.200469
210
0.0
220
0.0
230
1.0
100
AcDbArc
 50
146.3686
 51
151.634746
  0
LINE
  5
204
100
AcDbEntity
  8
1
390
0
  6
DOT
 62
     9
100
AcDbLine
 10
273.672899
 20
189.791756
 30
0.0
 11
273.718218
 21
189.717486
 31
0.0
  0
POLYLINE
  5
205
100
AcDbEntity
  8
1
390
0
  6
DOT
 62
     9
100
AcDb2dPolyline
 66
     1
 10
0.0
 20
0.0
 30
0.0
 40
1.0
 41
1.0
  0
VERTEX
  5
206
100
AcDbEntity
  8
1
390
0
 62
     9
100
AcDbVertex
100
AcDb2dVertex
 10
273.718218
 20
189.717486
 30
0.0
  0
VERTEX
  5
207
100
AcDbEntity
  8
1
390
0
 62
     9
100
AcDbVertex
100
AcDb2dVertex
 10
273.772598
 20
189.632342
 30
0.0
  0
VERTEX
  5
208
100
AcDbEntity
  8
1
390
0
 62
     9
100
AcDbVertex
100
AcDb2dVertex
 10
273.799832
 20
189.591756
 30
0.0
  0
SEQEND
  5
209
100
AcDbEntity
  8
0
390
0
  0
LINE
  5
20A
100
AcDbEntity
  8
1
390
0
  6
DOT
 62
     9
100
AcDbLine
 10
273.672899
 20
189.791756
 30
0.0
 11
269.730553
 21
189.791756
 31
0.0
  0
LINE
  5
20B
100
AcDbEntity
  8
1
390
0
  6
DOT
 62
     9
100
AcDbLine
 10
269.730553
 20
189.791756
 30
0.0
 11
269.729704
 21
189.791756
 31
0.0
  0
LINE
  5
20C
100
AcDbEntity
  8
1
390
0
  6
DOT
 62
     9
100
AcDbLine
 10
267.929704
 20
191.091756
 30
0.0
 11
267.929704
 21
204.091756
 31
0.0
  0
LINE
  5
20D
100
AcDbEntity
  8
1
390
0
  6
DOT
 62
     9
100
AcDbLine
 10
273.729704
 20
205.29721
 30
0.0
 11
273.729704
 21
204.091756
 31
0.0
  0
LINE
  5
20E
100
AcDbEntity
  8
1
390
0
  6
DOT
 62
     9
100
AcDbLine
 10
273.729704
 20
191.091756
 30
0.0
 11
273.729704
 21
189.886302
 31
0.0
  0
LINE
  5
20F
100
AcDbEntity
  8
1
390
0
  6
DOT
 62
     9
100
AcDbLine
 10
273.729704
 20
205.591756
 30
0.0
 11
273.729704
 21
205.29721
 31
0.0
  0
LINE
  5
210
100
AcDbEntity
  8
1
390
0
  6
DOT
 62
     9
100
AcDbLine
 10
269.729704
 20
205.391756
 30
0.0
 11
269.729704
 21
205.591756
 31
0.0
  0
LINE
  5
211
100
AcDbEntity
  8
1
390
0
  6
DOT
 62
     9
100
AcDbLine
 10
273.729704
 20
189.886302
 30
0.0
 11
273.729704
 21
189.591756
 31
0.0
  0
LINE
  5
212
100
AcDbEntity
  8
1
390
0
  6
DOT
 62
     9
100
AcDbLine
 10
269.729704
 20
189.591756
 30
0.0
 11
269.729704
 21
189.791756
 31
0.0
  0
LINE
  5
213
100
AcDbEntity
  8
1
390
0
  6
Continuous
 62
     7
100
AcDbLine
 10
266.229704
 20
204.091756
 30
0.0
 11
267.729704
 21
204.091756
 31
0.0
  0
LINE
  5
214
100
AcDbEntity
  8
1
390
0
  6
DOT
 62
     9
100
AcDbLine
 10
267.729704
 20
204.091756
 30
0.0
 11
267.929704
 21
204.091756
 31
0.0
  0
LINE
  5
215
100
AcDbEntity
  8
1
390
0
  6
DOT
 62
     9
100
AcDbLine
 10
267.929704
 20
191.091756
 30
0.0
 11
267.729704
 21
191.091756
 31
0.0
  0
LINE
  5
216
100
AcDbEntity
  8
1
390
0
  6
Continuous
 62
     7
100
AcDbLine
 10
267.729704
 20
191.091756
 30
0.0
 11
266.229704
 21
191.091756
 31
0.0
  0
LINE
  5
217
100
AcDbEntity
  8
1
390
0
  6
DOT
 62
     9
100
AcDbLine
 10
269.729704
 20
191.091756
 30
0.0
 11
267.929704
 21
191.091756
 31
0.0
  0
LINE
  5
218
100
AcDbEntity
  8
1
390
0
  6
DOT
 62
     9
100
AcDbLine
 10
269.729704
 20
189.791756
 30
0.0
 11
269.729704
 21
191.091756
 31
0.0
  0
LINE
  5
219
100
AcDbEntity
  8
1
390
0
  6
DOT
 62
     9
100
AcDbLine
 10
284.729704
 20
191.091756
 30
0.0
 11
273.729704
 21
191.091756
 31
0.0
  0
LINE
  5
21A
100
AcDbEntity
  8
1
390
0
  6
DOT
 62
     9
100
AcDbLine
 10
285.729704
 20
203.091756
 30
0.0
 11
285.729704
 21
192.091756
 31
0.0
  0
ARC
  5
21B
100
AcDbEntity
  8
1
390
0
  6
DOT
 62
     9
100
AcDbCircle
 10
284.729704
 20
192.091756
 30
0.0
 40
1.0
210
0.0
220
0.0
230
1.0
100
AcDbArc
 50
270.0
 51
360.0
  0
LINE
  5
21C
100
AcDbEntity
  8
1
390
0
  6
DOT
 62
     9
100
AcDbLine
 10
267.929704
 20
204.091756
 30
0.0
 11
269.729704
 21
204.091756
 31
0.0
  0
LINE
  5
21D
100
AcDbEntity
  8
1
390
0
  6
DOT
 62
     9
100
AcDbLine
 10
269.729704
 20
204.091756
 30
0.0
 11
269.729704
 21
205.391756
 31
0.0
  0
LINE
  5
21E
100
AcDbEntity
  8
1
390
0
  6
DOT
 62
     9
100
AcDbLine
 10
273.729704
 20
204.091756
 30
0.0
 11
284.729704
 21
204.091756
 31
0.0
  0
ARC
  5
21F
100
AcDbEntity
  8
1
390
0
  6
DOT
 62
     9
100
AcDbCircle
 10
284.729704
 20
203.091756
 30
0.0
 40
1.0
210
0.0
220
0.0
230
1.0
100
AcDbArc
 50
360.0
 51
90.0
  0
LINE
  5
220
100
AcDbEntity
  8
1
390
0
  6
Continuous
 62
     7
100
AcDbLine
 10
267.729704
 20
198.871756
 30
0.0
 11
265.229704
 21
198.871756
 31
0.0
  0
LINE
  5
221
100
AcDbEntity
  8
1
390
0
  6
DOT
 62
     9
100
AcDbLine
 10
265.229704
 20
198.871756
 30
0.0
 11
260.729704
 21
198.871756
 31
0.0
  0
LINE
  5
222
100
AcDbEntity
  8
1
390
0
  6
Continuous
 62
     7
100
AcDbLine
 10
260.729704
 20
198.871756
 30
0.0
 11
227.729704
 21
198.871756
 31
0.0
  0
LINE
  5
223
100
AcDbEntity
  8
1
390
0
  6
Continuous
 62
     7
100
AcDbLine
 10
227.729704
 20
196.311756
 30
0.0
 11
260.729704
 21
196.311756
 31
0.0
  0
LINE
  5
224
100
AcDbEntity
  8
1
390
0
  6
DOT
 62
     9
100
AcDbLine
 10
260.729704
 20
196.311756
 30
0.0
 11
265.229704
 21
196.311756
 31
0.0
  0
LINE
  5
225
100
AcDbEntity
  8
1
390
0
  6
Continuous
 62
     7
100
AcDbLine
 10
265.229704
 20
196.311756
 30
0.0
 11
267.729704
 21
196.311756
 31
0.0
  0
LINE
  5
226
100
AcDbEntity
  8
1
390
0
  6
Continuous
 62
     7
100
AcDbLine
 10
210.665959
 20
196.811756
 30
0.0
 11
227.729704
 21
196.811756
 31
0.0
  0
LINE
  5
227
100
AcDbEntity
  8
1
390
0
  6
Continuous
 62
     7
100
AcDbLine
 10
227.729704
 20
198.371756
 30
0.0
 11
211.31809
 21
198.371756
 31
0.0
  0
LINE
  5
229
100
AcDbEntity
  8
5
390
0
  6
Continuous
 62
     9
100
AcDbLine
 10
207.429472
 20
195.13464
 30
0.0
 11
209.284716
 21
200.060113
 31
0.0
  0
LINE
  5
22A
100
AcDbEntity
  8
5
390
0
  6
Continuous
 62
     9
100
AcDbLine
 10
212.429472
 20
195.13464
 30
0.0
 11
214.284716
 21
200.060113
 31
0.0
  0
LINE
  5
22C
100
AcDbEntity
  8
1
390
0
  6
CENTER
 62
     1
100
AcDbLine
 10
299.80693
 20
197.591756
 30
0.0
 11
161.24199
 21
197.591756
 31
0.0
  0
POINT
  5
22D
100
AcDbEntity
  8
5
390
0
 62
     9
100
AcDbPoint
 10
161.24199
 20
195.393187
 30
0.0
  0
POINT
  5
22E
100
AcDbEntity
  8
5
390
0
 62
     9
100
AcDbPoint
 10
299.80693
 20
188.389293
 30
0.0
  0
LINE
  5
22F
100
AcDbEntity
  8
1
390
0
  6
Continuous
 62
     7
100
AcDbLine
 10
173.546158
 20
118.704502
 30
0.0
 11
173.546158
 21
122.304502
 31
0.0
  0
LINE
  5
230
100
AcDbEntity
  8
1
390
0
  6
Continuous
 62
     7
100
AcDbLine
 10
173.746158
 20
118.504502
 30
0.0
 11
173.746158
 21
122.504502
 31
0.0
  0
LINE
  5
231
100
AcDbEntity
  8
1
390
0
  6
Continuous
 62
     7
100
AcDbLine
 10
175.546158
 20
118.504502
 30
0.0
 11
175.546158
 21
122.504502
 31
0.0
  0
LINE
  5
232
100
AcDbEntity
  8
1
390
0
  6
Continuous
 62
     7
100
AcDbLine
 10
176.546158
 20
119.004502
 30
0.0
 11
176.546158
 21
122.004502
 31
0.0
  0
LINE
  5
233
100
AcDbEntity
  8
1
390
0
  6
Continuous
 62
     7
100
AcDbLine
 10
180.546158
 20
119.004502
 30
0.0
 11
180.546158
 21
122.004502
 31
0.0
  0
LINE
  5
234
100
AcDbEntity
  8
1
390
0
  6
Continuous
 62
     7
100
AcDbLine
 10
171.546158
 20
119.254502
 30
0.0
 11
171.546158
 21
121.754502
 31
0.0
  0
LINE
  5
235
100
AcDbEntity
  8
1
390
0
  6
Continuous
 62
     7
100
AcDbLine
 10
165.142013
 20
120.004502
 30
0.0
 11
165.142013
 21
121.004502
 31
0.0
  0
LINE
  5
236
100
AcDbEntity
  8
1
390
0
  6
Continuous
 62
     7
100
AcDbLine
 10
165.546158
 20
119.304502
 30
0.0
 11
165.546158
 21
121.704502
 31
0.0
  0
LINE
  5
237
100
AcDbEntity
  8
1
390
0
  6
Continuous
 62
     7
100
AcDbLine
 10
162.646158
 20
120.004502
 30
0.0
 11
162.646158
 21
121.004502
 31
0.0
  0
LINE
  5
238
100
AcDbEntity
  8
1
390
0
  6
Continuous
 62
     7
100
AcDbLine
 10
162.046158
 20
120.004502
 30
0.0
 11
162.046158
 21
121.004502
 31
0.0
  0
LINE
  5
239
100
AcDbEntity
  8
1
390
0
  6
Continuous
 62
     7
100
AcDbLine
 10
163.146158
 20
120.004502
 30
0.0
 11
163.146158
 21
121.004502
 31
0.0
  0
LINE
  5
23A
100
AcDbEntity
  8
1
390
0
  6
Continuous
 62
     9
100
AcDbLine
 10
176.546158
 20
119.254502
 30
0.0
 11
180.546158
 21
119.254502
 31
0.0
  0
LINE
  5
23B
100
AcDbEntity
  8
1
390
0
  6
Continuous
 62
     9
100
AcDbLine
 10
180.546158
 20
121.754502
 30
0.0
 11
176.546158
 21
121.754502
 31
0.0
  0
LINE
  5
23C
100
AcDbEntity
  8
1
390
0
  6
Continuous
 62
     7
100
AcDbLine
 10
173.746158
 20
122.504502
 30
0.0
 11
173.546158
 21
122.304502
 31
0.0
  0
LINE
  5
23D
100
AcDbEntity
  8
1
390
0
  6
Continuous
 62
     7
100
AcDbLine
 10
173.546158
 20
118.704502
 30
0.0
 11
173.746158
 21
118.504502
 31
0.0
  0
LINE
  5
23E
100
AcDbEntity
  8
1
390
0
  6
Continuous
 62
     7
100
AcDbLine
 10
173.746158
 20
118.504502
 30
0.0
 11
175.546158
 21
118.504502
 31
0.0
  0
LINE
  5
23F
100
AcDbEntity
  8
1
390
0
  6
Continuous
 62
     7
100
AcDbLine
 10
175.546158
 20
122.504502
 30
0.0
 11
173.746158
 21
122.504502
 31
0.0
  0
LINE
  5
240
100
AcDbEntity
  8
1
390
0
  6
Continuous
 62
     7
100
AcDbLine
 10
176.546158
 20
119.004502
 30
0.0
 11
180.546158
 21
119.004502
 31
0.0
  0
LINE
  5
241
100
AcDbEntity
  8
1
390
0
  6
Continuous
 62
     7
100
AcDbLine
 10
180.546158
 20
122.004502
 30
0.0
 11
176.546158
 21
122.004502
 31
0.0
  0
LINE
  5
242
100
AcDbEntity
  8
1
390
0
  6
Continuous
 62
     7
100
AcDbLine
 10
171.546158
 20
119.254502
 30
0.0
 11
173.546158
 21
119.254502
 31
0.0
  0
LINE
  5
243
100
AcDbEntity
  8
1
390
0
  6
Continuous
 62
     7
100
AcDbLine
 10
173.546158
 20
121.754502
 30
0.0
 11
171.546158
 21
121.754502
 31
0.0
  0
LINE
  5
244
100
AcDbEntity
  8
1
390
0
  6
Continuous
 62
     7
100
AcDbLine
 10
165.546158
 20
121.704502
 30
0.0
 11
165.142013
 21
121.004502
 31
0.0
  0
LINE
  5
245
100
AcDbEntity
  8
1
390
0
  6
Continuous
 62
     7
100
AcDbLine
 10
165.142013
 20
120.004502
 30
0.0
 11
165.546158
 21
119.304502
 31
0.0
  0
LINE
  5
246
100
AcDbEntity
  8
1
390
0
  6
Continuous
 62
     7
100
AcDbLine
 10
165.546158
 20
119.304502
 30
0.0
 11
171.546158
 21
119.304502
 31
0.0
  0
LINE
  5
247
100
AcDbEntity
  8
1
390
0
  6
Continuous
 62
     7
100
AcDbLine
 10
171.546158
 20
121.704502
 30
0.0
 11
165.546158
 21
121.704502
 31
0.0
  0
LINE
  5
248
100
AcDbEntity
  8
1
390
0
  6
Continuous
 62
     7
100
AcDbLine
 10
175.546158
 20
119.404502
 30
0.0
 11
176.546158
 21
119.404502
 31
0.0
  0
LINE
  5
249
100
AcDbEntity
  8
1
390
0
  6
Continuous
 62
     7
100
AcDbLine
 10
176.546158
 20
121.604502
 30
0.0
 11
175.546158
 21
121.604502
 31
0.0
  0
LINE
  5
24A
100
AcDbEntity
  8
1
390
0
  6
Continuous
 62
     7
100
AcDbLine
 10
180.546158
 20
119.724502
 30
0.0
 11
210.036384
 21
119.724502
 31
0.0
  0
LINE
  5
24B
100
AcDbEntity
  8
1
390
0
  6
Continuous
 62
     7
100
AcDbLine
 10
211.054717
 20
121.284502
 30
0.0
 11
180.546158
 21
121.284502
 31
0.0
  0
LINE
  5
24C
100
AcDbEntity
  8
1
390
0
  6
Continuous
 62
     7
100
AcDbLine
 10
162.046158
 20
120.004502
 30
0.0
 11
162.646158
 21
120.004502
 31
0.0
  0
LINE
  5
24D
100
AcDbEntity
  8
1
390
0
  6
Continuous
 62
     7
100
AcDbLine
 10
162.646158
 20
121.004502
 30
0.0
 11
162.046158
 21
121.004502
 31
0.0
  0
LINE
  5
24E
100
AcDbEntity
  8
1
390
0
  6
Continuous
 62
     7
100
AcDbLine
 10
163.146158
 20
120.004502
 30
0.0
 11
165.142013
 21
120.004502
 31
0.0
  0
LINE
  5
24F
100
AcDbEntity
  8
1
390
0
  6
Continuous
 62
     7
100
AcDbLine
 10
165.142013
 20
121.004502
 30
0.0
 11
163.146158
 21
121.004502
 31
0.0
  0
LINE
  5
250
100
AcDbEntity
  8
1
390
0
  6
Continuous
 62
     7
100
AcDbLine
 10
162.646158
 20
120.104502
 30
0.0
 11
163.146158
 21
120.104502
 31
0.0
  0
LINE
  5
251
100
AcDbEntity
  8
1
390
0
  6
Continuous
 62
     7
100
AcDbLine
 10
163.146158
 20
120.904502
 30
0.0
 11
162.646158
 21
120.904502
 31
0.0
  0
LINE
  5
252
100
AcDbEntity
  8
1
390
0
  6
Continuous
 62
     7
100
AcDbLine
 10
273.729704
 20
115.504502
 30
0.0
 11
269.729704
 21
115.504502
 31
0.0
  0
LINE
  5
253
100
AcDbEntity
  8
1
390
0
  6
Continuous
 62
     7
100
AcDbLine
 10
269.729704
 20
115.504502
 30
0.0
 11
269.729704
 21
116.504502
 31
0.0
  0
LINE
  5
254
100
AcDbEntity
  8
1
390
0
  6
Continuous
 62
     7
100
AcDbLine
 10
273.729704
 20
116.504502
 30
0.0
 11
273.729704
 21
115.504502
 31
0.0
  0
ARC
  5
255
100
AcDbEntity
  8
1
390
0
  6
Continuous
 62
     7
100
AcDbCircle
 10
273.529704
 20
120.304502
 30
0.0
 40
0.2
210
0.0
220
0.0
230
1.0
100
AcDbArc
 50
0.0
 51
90.0
  0
LINE
  5
256
100
AcDbEntity
  8
1
390
0
  6
Continuous
 62
     7
100
AcDbLine
 10
273.729704
 20
116.504502
 30
0.0
 11
273.729704
 21
120.304502
 31
0.0
  0
LINE
  5
257
100
AcDbEntity
  8
1
390
0
  6
Continuous
 62
     7
100
AcDbLine
 10
269.729704
 20
116.504502
 30
0.0
 11
269.729704
 21
120.304502
 31
0.0
  0
ARC
  5
258
100
AcDbEntity
  8
1
390
0
  6
Continuous
 62
     7
100
AcDbCircle
 10
269.929704
 20
120.304502
 30
0.0
 40
0.2
210
0.0
220
0.0
230
1.0
100
AcDbArc
 50
90.0
 51
180.0
  0
LINE
  5
259
100
AcDbEntity
  8
1
390
0
  6
Continuous
 62
     7
100
AcDbLine
 10
269.929704
 20
120.504502
 30
0.0
 11
273.529704
 21
120.504502
 31
0.0
  0
LINE
  5
25A
100
AcDbEntity
  8
1
390
0
  6
Continuous
 62
     7
100
AcDbLine
 10
268.729704
 20
124.504502
 30
0.0
 11
273.672899
 21
124.504502
 31
0.0
  0
POLYLINE
  5
25B
100
AcDbEntity
  8
1
390
0
  6
Continuous
 62
     7
100
AcDb2dPolyline
 66
     1
 10
0.0
 20
0.0
 30
0.0
 40
1.0
 41
1.0
  0
VERTEX
  5
25C
100
AcDbEntity
  8
1
390
0
 62
     7
100
AcDbVertex
100
AcDb2dVertex
 10
273.672899
 20
124.504502
 30
0.0
  0
VERTEX
  5
25D
100
AcDbEntity
  8
1
390
0
 62
     7
100
AcDbVertex
100
AcDb2dVertex
 10
273.761293
 20
124.445367
 30
0.0
  0
VERTEX
  5
25E
100
AcDbEntity
  8
1
390
0
 62
     7
100
AcDbVertex
100
AcDb2dVertex
 10
273.796991
 20
124.34553
 30
0.0
  0
VERTEX
  5
25F
100
AcDbEntity
  8
1
390
0
 62
     7
100
AcDbVertex
100
AcDb2dVertex
 10
273.799832
 20
124.304502
 30
0.0
  0
SEQEND
  5
260
100
AcDbEntity
  8
0
390
0
  0
LINE
  5
261
100
AcDbEntity
  8
1
390
0
  6
Continuous
 62
     7
100
AcDbLine
 10
275.785572
 20
124.504502
 30
0.0
 11
273.672899
 21
124.504502
 31
0.0
  0
POLYLINE
  5
262
100
AcDbEntity
  8
1
390
0
  6
Continuous
 62
     7
100
AcDb2dPolyline
 66
     1
 10
0.0
 20
0.0
 30
0.0
 40
1.0
 41
1.0
  0
VERTEX
  5
263
100
AcDbEntity
  8
1
390
0
 62
     7
100
AcDbVertex
100
AcDb2dVertex
 10
275.785572
 20
124.504502
 30
0.0
  0
VERTEX
  5
264
100
AcDbEntity
  8
1
390
0
 62
     7
100
AcDbVertex
100
AcDb2dVertex
 10
275.697042
 20
124.445136
 30
0.0
  0
VERTEX
  5
265
100
AcDbEntity
  8
1
390
0
 62
     7
100
AcDbVertex
100
AcDb2dVertex
 10
275.662471
 20
124.350625
 30
0.0
  0
VERTEX
  5
266
100
AcDbEntity
  8
1
390
0
 62
     7
100
AcDbVertex
100
AcDb2dVertex
 10
275.65864
 20
124.304502
 30
0.0
  0
SEQEND
  5
267
100
AcDbEntity
  8
0
390
0
  0
LINE
  5
268
100
AcDbEntity
  8
1
390
0
  6
Continuous
 62
     7
100
AcDbLine
 10
275.65864
 20
116.704502
 30
0.0
 11
275.65864
 21
124.304502
 31
0.0
  0
LINE
  5
269
100
AcDbEntity
  8
1
390
0
  6
Continuous
 62
     7
100
AcDbLine
 10
273.799832
 20
116.704502
 30
0.0
 11
273.799832
 21
124.304502
 31
0.0
  0
LINE
  5
26A
100
AcDbEntity
  8
1
390
0
  6
Continuous
 62
     7
100
AcDbLine
 10
278.536041
 20
124.504502
 30
0.0
 11
276.423368
 21
124.504502
 31
0.0
  0
POLYLINE
  5
26B
100
AcDbEntity
  8
1
390
0
  6
Continuous
 62
     7
100
AcDb2dPolyline
 66
     1
 10
0.0
 20
0.0
 30
0.0
 40
1.0
 41
1.0
  0
VERTEX
  5
26C
100
AcDbEntity
  8
1
390
0
 62
     7
100
AcDbVertex
100
AcDb2dVertex
 10
278.536041
 20
124.504502
 30
0.0
  0
VERTEX
  5
26D
100
AcDbEntity
  8
1
390
0
 62
     7
100
AcDbVertex
100
AcDb2dVertex
 10
278.447511
 20
124.445136
 30
0.0
  0
VERTEX
  5
26E
100
AcDbEntity
  8
1
390
0
 62
     7
100
AcDbVertex
100
AcDb2dVertex
 10
278.41294
 20
124.350625
 30
0.0
  0
VERTEX
  5
26F
100
AcDbEntity
  8
1
390
0
 62
     7
100
AcDbVertex
100
AcDb2dVertex
 10
278.409108
 20
124.304502
 30
0.0
  0
SEQEND
  5
270
100
AcDbEntity
  8
0
390
0
  0
POLYLINE
  5
271
100
AcDbEntity
  8
1
390
0
  6
Continuous
 62
     7
100
AcDb2dPolyline
 66
     1
 10
0.0
 20
0.0
 30
0.0
 40
1.0
 41
1.0
  0
VERTEX
  5
272
100
AcDbEntity
  8
1
390
0
 62
     7
100
AcDbVertex
100
AcDb2dVertex
 10
276.423368
 20
124.504502
 30
0.0
  0
VERTEX
  5
273
100
AcDbEntity
  8
1
390
0
 62
     7
100
AcDbVertex
100
AcDb2dVertex
 10
276.511761
 20
124.445367
 30
0.0
  0
VERTEX
  5
274
100
AcDbEntity
  8
1
390
0
 62
     7
100
AcDbVertex
100
AcDb2dVertex
 10
276.547459
 20
124.34553
 30
0.0
  0
VERTEX
  5
275
100
AcDbEntity
  8
1
390
0
 62
     7
100
AcDbVertex
100
AcDb2dVertex
 10
276.5503
 20
124.304502
 30
0.0
  0
SEQEND
  5
276
100
AcDbEntity
  8
0
390
0
  0
LINE
  5
277
100
AcDbEntity
  8
1
390
0
  6
Continuous
 62
     7
100
AcDbLine
 10
278.536041
 20
124.504502
 30
0.0
 11
279.1739
 21
124.504502
 31
0.0
  0
POLYLINE
  5
278
100
AcDbEntity
  8
1
390
0
  6
Continuous
 62
     7
100
AcDb2dPolyline
 66
     1
 10
0.0
 20
0.0
 30
0.0
 40
1.0
 41
1.0
  0
VERTEX
  5
279
100
AcDbEntity
  8
1
390
0
 62
     7
100
AcDbVertex
100
AcDb2dVertex
 10
279.1739
 20
124.504502
 30
0.0
  0
VERTEX
  5
27A
100
AcDbEntity
  8
1
390
0
 62
     7
100
AcDbVertex
100
AcDb2dVertex
 10
279.262275
 20
124.445365
 30
0.0
  0
VERTEX
  5
27B
100
AcDbEntity
  8
1
390
0
 62
     7
100
AcDbVertex
100
AcDb2dVertex
 10
279.297964
 20
124.345529
 30
0.0
  0
VERTEX
  5
27C
100
AcDbEntity
  8
1
390
0
 62
     7
100
AcDbVertex
100
AcDb2dVertex
 10
279.300805
 20
124.304502
 30
0.0
  0
SEQEND
  5
27D
100
AcDbEntity
  8
0
390
0
  0
LINE
  5
27E
100
AcDbEntity
  8
1
390
0
  6
Continuous
 62
     7
100
AcDbLine
 10
276.423368
 20
116.504502
 30
0.0
 11
278.536041
 21
116.504502
 31
0.0
  0
POLYLINE
  5
27F
100
AcDbEntity
  8
1
390
0
  6
Continuous
 62
     7
100
AcDb2dPolyline
 66
     1
 10
0.0
 20
0.0
 30
0.0
 40
1.0
 41
1.0
  0
VERTEX
  5
280
100
AcDbEntity
  8
1
390
0
 62
     7
100
AcDbVertex
100
AcDb2dVertex
 10
276.423368
 20
116.504502
 30
0.0
  0
VERTEX
  5
281
100
AcDbEntity
  8
1
390
0
 62
     7
100
AcDbVertex
100
AcDb2dVertex
 10
276.511898
 20
116.563867
 30
0.0
  0
VERTEX
  5
282
100
AcDbEntity
  8
1
390
0
 62
     7
100
AcDbVertex
100
AcDb2dVertex
 10
276.546469
 20
116.658378
 30
0.0
  0
VERTEX
  5
283
100
AcDbEntity
  8
1
390
0
 62
     7
100
AcDbVertex
100
AcDb2dVertex
 10
276.5503
 20
116.704502
 30
0.0
  0
SEQEND
  5
284
100
AcDbEntity
  8
0
390
0
  0
POLYLINE
  5
285
100
AcDbEntity
  8
1
390
0
  6
Continuous
 62
     7
100
AcDb2dPolyline
 66
     1
 10
0.0
 20
0.0
 30
0.0
 40
1.0
 41
1.0
  0
VERTEX
  5
286
100
AcDbEntity
  8
1
390
0
 62
     7
100
AcDbVertex
100
AcDb2dVertex
 10
278.536041
 20
116.504502
 30
0.0
  0
VERTEX
  5
287
100
AcDbEntity
  8
1
390
0
 62
     7
100
AcDbVertex
100
AcDb2dVertex
 10
278.447647
 20
116.563636
 30
0.0
  0
VERTEX
  5
288
100
AcDbEntity
  8
1
390
0
 62
     7
100
AcDbVertex
100
AcDb2dVertex
 10
278.411949
 20
116.663474
 30
0.0
  0
VERTEX
  5
289
100
AcDbEntity
  8
1
390
0
 62
     7
100
AcDbVertex
100
AcDb2dVertex
 10
278.409108
 20
116.704502
 30
0.0
  0
SEQEND
  5
28A
100
AcDbEntity
  8
0
390
0
  0
LINE
  5
28B
100
AcDbEntity
  8
1
390
0
  6
Continuous
 62
     7
100
AcDbLine
 10
279.1739
 20
116.504502
 30
0.0
 11
278.536041
 21
116.504502
 31
0.0
  0
POLYLINE
  5
28C
100
AcDbEntity
  8
1
390
0
  6
Continuous
 62
     7
100
AcDb2dPolyline
 66
     1
 10
0.0
 20
0.0
 30
0.0
 40
1.0
 41
1.0
  0
VERTEX
  5
28D
100
AcDbEntity
  8
1
390
0
 62
     7
100
AcDbVertex
100
AcDb2dVertex
 10
279.1739
 20
116.504502
 30
0.0
  0
VERTEX
  5
28E
100
AcDbEntity
  8
1
390
0
 62
     7
100
AcDbVertex
100
AcDb2dVertex
 10
279.262411
 20
116.56387
 30
0.0
  0
VERTEX
  5
28F
100
AcDbEntity
  8
1
390
0
 62
     7
100
AcDbVertex
100
AcDb2dVertex
 10
279.296974
 20
116.658379
 30
0.0
  0
VERTEX
  5
290
100
AcDbEntity
  8
1
390
0
 62
     7
100
AcDbVertex
100
AcDb2dVertex
 10
279.300805
 20
116.704502
 30
0.0
  0
SEQEND
  5
291
100
AcDbEntity
  8
0
390
0
  0
LINE
  5
292
100
AcDbEntity
  8
1
390
0
  6
Continuous
 62
     7
100
AcDbLine
 10
279.300805
 20
116.704502
 30
0.0
 11
279.300805
 21
124.304502
 31
0.0
  0
LINE
  5
293
100
AcDbEntity
  8
1
390
0
  6
Continuous
 62
     7
100
AcDbLine
 10
278.409108
 20
116.704502
 30
0.0
 11
278.409108
 21
124.304502
 31
0.0
  0
LINE
  5
294
100
AcDbEntity
  8
1
390
0
  6
Continuous
 62
     7
100
AcDbLine
 10
276.5503
 20
116.704502
 30
0.0
 11
276.5503
 21
124.304502
 31
0.0
  0
LINE
  5
295
100
AcDbEntity
  8
1
390
0
  6
Continuous
 62
     7
100
AcDbLine
 10
275.785572
 20
124.504502
 30
0.0
 11
276.423368
 21
124.504502
 31
0.0
  0
LINE
  5
296
100
AcDbEntity
  8
1
390
0
  6
Continuous
 62
     7
100
AcDbLine
 10
273.729704
 20
116.504502
 30
0.0
 11
275.785572
 21
116.504502
 31
0.0
  0
LINE
  5
297
100
AcDbEntity
  8
1
390
0
  6
DOT
 62
     9
100
AcDbLine
 10
273.672899
 20
116.504502
 30
0.0
 11
273.72029
 21
116.520168
 31
0.0
  0
POLYLINE
  5
298
100
AcDbEntity
  8
1
390
0
  6
Continuous
 62
     7
100
AcDb2dPolyline
 66
     1
 10
0.0
 20
0.0
 30
0.0
 40
1.0
 41
1.0
  0
VERTEX
  5
299
100
AcDbEntity
  8
1
390
0
 62
     7
100
AcDbVertex
100
AcDb2dVertex
 10
273.72029
 20
116.520168
 30
0.0
  0
VERTEX
  5
29A
100
AcDbEntity
  8
1
390
0
 62
     7
100
AcDbVertex
100
AcDb2dVertex
 10
273.781852
 20
116.605121
 30
0.0
  0
VERTEX
  5
29B
100
AcDbEntity
  8
1
390
0
 62
     7
100
AcDbVertex
100
AcDb2dVertex
 10
273.799832
 20
116.704502
 30
0.0
  0
SEQEND
  5
29C
100
AcDbEntity
  8
0
390
0
  0
POLYLINE
  5
29D
100
AcDbEntity
  8
1
390
0
  6
Continuous
 62
     7
100
AcDb2dPolyline
 66
     1
 10
0.0
 20
0.0
 30
0.0
 40
1.0
 41
1.0
  0
VERTEX
  5
29E
100
AcDbEntity
  8
1
390
0
 62
     7
100
AcDbVertex
100
AcDb2dVertex
 10
275.785572
 20
116.504502
 30
0.0
  0
VERTEX
  5
29F
100
AcDbEntity
  8
1
390
0
 62
     7
100
AcDbVertex
100
AcDb2dVertex
 10
275.697179
 20
116.563636
 30
0.0
  0
VERTEX
  5
2A0
100
AcDbEntity
  8
1
390
0
 62
     7
100
AcDbVertex
100
AcDb2dVertex
 10
275.661481
 20
116.663474
 30
0.0
  0
VERTEX
  5
2A1
100
AcDbEntity
  8
1
390
0
 62
     7
100
AcDbVertex
100
AcDb2dVertex
 10
275.65864
 20
116.704502
 30
0.0
  0
SEQEND
  5
2A2
100
AcDbEntity
  8
0
390
0
  0
LINE
  5
2A3
100
AcDbEntity
  8
1
390
0
  6
Continuous
 62
     7
100
AcDbLine
 10
269.729704
 20
116.504502
 30
0.0
 11
268.729704
 21
116.504502
 31
0.0
  0
LINE
  5
2A4
100
AcDbEntity
  8
1
390
0
  6
DOT
 62
     9
100
AcDbLine
 10
269.729704
 20
116.704502
 30
0.0
 11
273.729704
 21
116.704502
 31
0.0
  0
LINE
  5
2A5
100
AcDbEntity
  8
1
390
0
  6
Continuous
 62
     7
100
AcDbLine
 10
276.423368
 20
116.504502
 30
0.0
 11
275.785572
 21
116.504502
 31
0.0
  0
LINE
  5
2A6
100
AcDbEntity
  8
1
390
0
  6
Continuous
 62
     7
100
AcDbLine
 10
285.729704
 20
116.504502
 30
0.0
 11
281.285508
 21
116.504502
 31
0.0
  0
POLYLINE
  5
2A7
100
AcDbEntity
  8
1
390
0
  6
Continuous
 62
     7
100
AcDb2dPolyline
 66
     1
 10
0.0
 20
0.0
 30
0.0
 40
1.0
 41
1.0
  0
VERTEX
  5
2A8
100
AcDbEntity
  8
1
390
0
 62
     7
100
AcDbVertex
100
AcDb2dVertex
 10
281.285508
 20
116.504502
 30
0.0
  0
VERTEX
  5
2A9
100
AcDbEntity
  8
1
390
0
 62
     7
100
AcDbVertex
100
AcDb2dVertex
 10
281.197133
 20
116.563638
 30
0.0
  0
VERTEX
  5
2AA
100
AcDbEntity
  8
1
390
0
 62
     7
100
AcDbVertex
100
AcDb2dVertex
 10
281.161444
 20
116.663475
 30
0.0
  0
VERTEX
  5
2AB
100
AcDbEntity
  8
1
390
0
 62
     7
100
AcDbVertex
100
AcDb2dVertex
 10
281.158604
 20
116.704502
 30
0.0
  0
SEQEND
  5
2AC
100
AcDbEntity
  8
0
390
0
  0
LINE
  5
2AD
100
AcDbEntity
  8
1
390
0
  6
Continuous
 62
     7
100
AcDbLine
 10
281.285508
 20
124.504502
 30
0.0
 11
279.1739
 21
124.504502
 31
0.0
  0
POLYLINE
  5
2AE
100
AcDbEntity
  8
1
390
0
  6
Continuous
 62
     7
100
AcDb2dPolyline
 66
     1
 10
0.0
 20
0.0
 30
0.0
 40
1.0
 41
1.0
  0
VERTEX
  5
2AF
100
AcDbEntity
  8
1
390
0
 62
     7
100
AcDbVertex
100
AcDb2dVertex
 10
281.285508
 20
124.504502
 30
0.0
  0
VERTEX
  5
2B0
100
AcDbEntity
  8
1
390
0
 62
     7
100
AcDbVertex
100
AcDb2dVertex
 10
281.196997
 20
124.445134
 30
0.0
  0
VERTEX
  5
2B1
100
AcDbEntity
  8
1
390
0
 62
     7
100
AcDbVertex
100
AcDb2dVertex
 10
281.162435
 20
124.350624
 30
0.0
  0
VERTEX
  5
2B2
100
AcDbEntity
  8
1
390
0
 62
     7
100
AcDbVertex
100
AcDb2dVertex
 10
281.158604
 20
124.304502
 30
0.0
  0
SEQEND
  5
2B3
100
AcDbEntity
  8
0
390
0
  0
LINE
  5
2B4
100
AcDbEntity
  8
1
390
0
  6
Continuous
 62
     7
100
AcDbLine
 10
279.1739
 20
116.504502
 30
0.0
 11
281.285508
 21
116.504502
 31
0.0
  0
LINE
  5
2B5
100
AcDbEntity
  8
1
390
0
  6
Continuous
 62
     7
100
AcDbLine
 10
281.158604
 20
116.704502
 30
0.0
 11
281.158604
 21
124.304502
 31
0.0
  0
LINE
  5
2B6
100
AcDbEntity
  8
1
390
0
  6
Continuous
 62
     7
100
AcDbLine
 10
281.285508
 20
124.504502
 30
0.0
 11
285.729704
 21
124.504502
 31
0.0
  0
LINE
  5
2B7
100
AcDbEntity
  8
1
390
0
  6
Continuous
 62
     7
100
AcDbLine
 10
268.729704
 20
116.504502
 30
0.0
 11
267.929704
 21
116.504502
 31
0.0
  0
ARC
  5
2B8
100
AcDbEntity
  8
1
390
0
  6
Continuous
 62
     7
100
AcDbCircle
 10
267.929704
 20
116.704502
 30
0.0
 40
0.2
210
0.0
220
0.0
230
1.0
100
AcDbArc
 50
180.0
 51
270.0
  0
LINE
  5
2B9
100
AcDbEntity
  8
1
390
0
  6
Continuous
 62
     7
100
AcDbLine
 10
286.729704
 20
116.704502
 30
0.0
 11
286.729704
 21
124.304502
 31
0.0
  0
LINE
  5
2BA
100
AcDbEntity
  8
1
390
0
  6
Continuous
 62
     7
100
AcDbLine
 10
286.529704
 20
116.504502
 30
0.0
 11
285.729704
 21
116.504502
 31
0.0
  0
ARC
  5
2BB
100
AcDbEntity
  8
1
390
0
  6
Continuous
 62
     7
100
AcDbCircle
 10
286.529704
 20
116.704502
 30
0.0
 40
0.2
210
0.0
220
0.0
230
1.0
100
AcDbArc
 50
270.0
 51
360.0
  0
LINE
  5
2BC
100
AcDbEntity
  8
1
390
0
  6
Continuous
 62
     7
100
AcDbLine
 10
267.729704
 20
116.704502
 30
0.0
 11
267.729704
 21
124.304502
 31
0.0
  0
LINE
  5
2BD
100
AcDbEntity
  8
1
390
0
  6
Continuous
 62
     7
100
AcDbLine
 10
285.729704
 20
124.504502
 30
0.0
 11
286.529704
 21
124.504502
 31
0.0
  0
ARC
  5
2BE
100
AcDbEntity
  8
1
390
0
  6
Continuous
 62
     7
100
AcDbCircle
 10
286.529704
 20
124.304502
 30
0.0
 40
0.2
210
0.0
220
0.0
230
1.0
100
AcDbArc
 50
0.0
 51
90.0
  0
LINE
  5
2BF
100
AcDbEntity
  8
1
390
0
  6
Continuous
 62
     7
100
AcDbLine
 10
267.929704
 20
124.504502
 30
0.0
 11
268.729704
 21
124.504502
 31
0.0
  0
ARC
  5
2C0
100
AcDbEntity
  8
1
390
0
  6
Continuous
 62
     7
100
AcDbCircle
 10
267.929704
 20
124.304502
 30
0.0
 40
0.2
210
0.0
220
0.0
230
1.0
100
AcDbArc
 50
90.0
 51
180.0
  0
LINE
  5
2C1
100
AcDbEntity
  8
1
390
0
  6
DOT
 62
     9
100
AcDbLine
 10
273.729704
 20
116.504502
 30
0.0
 11
269.729704
 21
116.504502
 31
0.0
  0
LINE
  5
2C2
100
AcDbEntity
  8
1
390
0
  6
Continuous
 62
     7
100
AcDbLine
 10
265.229704
 20
118.254502
 30
0.0
 11
260.729704
 21
118.254502
 31
0.0
  0
LINE
  5
2C3
100
AcDbEntity
  8
1
390
0
  6
Continuous
 62
     7
100
AcDbLine
 10
265.229704
 20
119.254502
 30
0.0
 11
260.729704
 21
119.254502
 31
0.0
  0
ARC
  5
2C4
100
AcDbEntity
  8
1
390
0
  6
Continuous
 62
     7
100
AcDbCircle
 10
265.229704
 20
118.254502
 30
0.0
 40
1.0
210
0.0
220
0.0
230
1.0
100
AcDbArc
 50
0.0
 51
90.0
  0
LINE
  5
2C5
100
AcDbEntity
  8
1
390
0
  6
Continuous
 62
     7
100
AcDbLine
 10
266.229704
 20
116.504502
 30
0.0
 11
266.229704
 21
118.254502
 31
0.0
  0
LINE
  5
2C6
100
AcDbEntity
  8
1
390
0
  6
Continuous
 62
     7
100
AcDbLine
 10
267.929704
 20
116.504502
 30
0.0
 11
266.229704
 21
116.504502
 31
0.0
  0
ARC
  5
2C7
100
AcDbEntity
  8
1
390
0
  6
Continuous
 62
     7
100
AcDbCircle
 10
266.229704
 20
116.504502
 30
0.0
 40
1.0
210
0.0
220
0.0
230
1.0
100
AcDbArc
 50
180.0
 51
270.0
  0
LINE
  5
2C8
100
AcDbEntity
  8
1
390
0
  6
Continuous
 62
     7
100
AcDbLine
 10
265.229704
 20
116.504502
 30
0.0
 11
265.229704
 21
118.254502
 31
0.0
  0
LINE
  5
2C9
100
AcDbEntity
  8
1
390
0
  6
Continuous
 62
     7
100
AcDbLine
 10
269.729704
 20
115.504502
 30
0.0
 11
266.229704
 21
115.504502
 31
0.0
  0
LINE
  5
2CA
100
AcDbEntity
  8
1
390
0
  6
Continuous
 62
     7
100
AcDbLine
 10
259.729704
 20
118.254502
 30
0.0
 11
259.729704
 21
119.254502
 31
0.0
  0
LINE
  5
2CB
100
AcDbEntity
  8
1
390
0
  6
Continuous
 62
     7
100
AcDbLine
 10
260.729704
 20
118.254502
 30
0.0
 11
259.729704
 21
118.254502
 31
0.0
  0
LINE
  5
2CC
100
AcDbEntity
  8
1
390
0
  6
Continuous
 62
     7
100
AcDbLine
 10
260.729704
 20
119.254502
 30
0.0
 11
259.729704
 21
119.254502
 31
0.0
  0
LINE
  5
2CD
100
AcDbEntity
  8
1
390
0
  6
Continuous
 62
     7
100
AcDbLine
 10
260.729704
 20
122.754502
 30
0.0
 11
260.729704
 21
121.754502
 31
0.0
  0
LINE
  5
2CE
100
AcDbEntity
  8
1
390
0
  6
Continuous
 62
     7
100
AcDbLine
 10
261.729704
 20
122.754502
 30
0.0
 11
260.729704
 21
122.754502
 31
0.0
  0
LINE
  5
2CF
100
AcDbEntity
  8
1
390
0
  6
Continuous
 62
     7
100
AcDbLine
 10
261.729704
 20
121.754502
 30
0.0
 11
260.729704
 21
121.754502
 31
0.0
  0
LINE
  5
2D0
100
AcDbEntity
  8
1
390
0
  6
Continuous
 62
     7
100
AcDbLine
 10
284.729704
 20
115.504502
 30
0.0
 11
273.729704
 21
115.504502
 31
0.0
  0
LINE
  5
2D1
100
AcDbEntity
  8
1
390
0
  6
Continuous
 62
     7
100
AcDbLine
 10
265.229704
 20
122.754502
 30
0.0
 11
264.229704
 21
122.754502
 31
0.0
  0
LINE
  5
2D2
100
AcDbEntity
  8
1
390
0
  6
Continuous
 62
     7
100
AcDbLine
 10
265.229704
 20
122.754502
 30
0.0
 11
265.229704
 21
121.754502
 31
0.0
  0
LINE
  5
2D3
100
AcDbEntity
  8
1
390
0
  6
Continuous
 62
     7
100
AcDbLine
 10
265.229704
 20
121.754502
 30
0.0
 11
264.229704
 21
121.754502
 31
0.0
  0
LINE
  5
2D4
100
AcDbEntity
  8
1
390
0
  6
Continuous
 62
     7
100
AcDbLine
 10
264.229704
 20
122.754502
 30
0.0
 11
261.729704
 21
122.754502
 31
0.0
  0
LINE
  5
2D5
100
AcDbEntity
  8
1
390
0
  6
Continuous
 62
     7
100
AcDbLine
 10
264.229704
 20
121.754502
 30
0.0
 11
261.729704
 21
121.754502
 31
0.0
  0
LINE
  5
2D6
100
AcDbEntity
  8
1
390
0
  6
Continuous
 62
     7
100
AcDbLine
 10
285.729704
 20
115.504502
 30
0.0
 11
285.729704
 21
116.504502
 31
0.0
  0
LINE
  5
2D7
100
AcDbEntity
  8
1
390
0
  6
Continuous
 62
     7
100
AcDbLine
 10
285.729704
 20
115.504502
 30
0.0
 11
284.729704
 21
115.504502
 31
0.0
  0
LINE
  5
2D8
100
AcDbEntity
  8
1
390
0
  6
Continuous
 62
     7
100
AcDbLine
 10
264.649905
 20
123.354502
 30
0.0
 11
264.62711
 21
123.354502
 31
0.0
  0
LINE
  5
2D9
100
AcDbEntity
  8
1
390
0
  6
Continuous
 62
     7
100
AcDbLine
 10
261.332299
 20
123.354502
 30
0.0
 11
261.309503
 21
123.354502
 31
0.0
  0
POLYLINE
  5
2DA
100
AcDbEntity
  8
1
390
0
  6
Continuous
 62
     7
100
AcDb2dPolyline
 66
     1
 10
0.0
 20
0.0
 30
0.0
 40
1.0
 41
1.0
  0
VERTEX
  5
2DB
100
AcDbEntity
  8
1
390
0
 62
     7
100
AcDbVertex
100
AcDb2dVertex
 10
261.332299
 20
123.354502
 30
0.0
  0
VERTEX
  5
2DC
100
AcDbEntity
  8
1
390
0
 62
     7
100
AcDbVertex
100
AcDb2dVertex
 10
261.349493
 20
123.392175
 30
0.0
  0
VERTEX
  5
2DD
100
AcDbEntity
  8
1
390
0
 62
     7
100
AcDbVertex
100
AcDb2dVertex
 10
261.368262
 20
123.429129
 30
0.0
  0
VERTEX
  5
2DE
100
AcDbEntity
  8
1
390
0
 62
     7
100
AcDbVertex
100
AcDb2dVertex
 10
261.388554
 20
123.465269
 30
0.0
  0
VERTEX
  5
2DF
100
AcDbEntity
  8
1
390
0
 62
     7
100
AcDbVertex
100
AcDb2dVertex
 10
261.410317
 20
123.5005
 30
0.0
  0
VERTEX
  5
2E0
100
AcDbEntity
  8
1
390
0
 62
     7
100
AcDbVertex
100
AcDb2dVertex
 10
261.434237
 20
123.535779
 30
0.0
  0
VERTEX
  5
2E1
100
AcDbEntity
  8
1
390
0
 62
     7
100
AcDbVertex
100
AcDb2dVertex
 10
261.459669
 20
123.570031
 30
0.0
  0
VERTEX
  5
2E2
100
AcDbEntity
  8
1
390
0
 62
     7
100
AcDbVertex
100
AcDb2dVertex
 10
261.48654
 20
123.603167
 30
0.0
  0
VERTEX
  5
2E3
100
AcDbEntity
  8
1
390
0
 62
     7
100
AcDbVertex
100
AcDb2dVertex
 10
261.514778
 20
123.635095
 30
0.0
  0
VERTEX
  5
2E4
100
AcDbEntity
  8
1
390
0
 62
     7
100
AcDbVertex
100
AcDb2dVertex
 10
261.543496
 20
123.664926
 30
0.0
  0
VERTEX
  5
2E5
100
AcDbEntity
  8
1
390
0
 62
     7
100
AcDbVertex
100
AcDb2dVertex
 10
261.57345
 20
123.693567
 30
0.0
  0
VERTEX
  5
2E6
100
AcDbEntity
  8
1
390
0
 62
     7
100
AcDbVertex
100
AcDb2dVertex
 10
261.604559
 20
123.720949
 30
0.0
  0
VERTEX
  5
2E7
100
AcDbEntity
  8
1
390
0
 62
     7
100
AcDbVertex
100
AcDb2dVertex
 10
261.636744
 20
123.747002
 30
0.0
  0
VERTEX
  5
2E8
100
AcDbEntity
  8
1
390
0
 62
     7
100
AcDbVertex
100
AcDb2dVertex
 10
261.67094
 20
123.772387
 30
0.0
  0
VERTEX
  5
2E9
100
AcDbEntity
  8
1
390
0
 62
     7
100
AcDbVertex
100
AcDb2dVertex
 10
261.706208
 20
123.796328
 30
0.0
  0
VERTEX
  5
2EA
100
AcDbEntity
  8
1
390
0
 62
     7
100
AcDbVertex
100
AcDb2dVertex
 10
261.742451
 20
123.818766
 30
0.0
  0
VERTEX
  5
2EB
100
AcDbEntity
  8
1
390
0
 62
     7
100
AcDbVertex
100
AcDb2dVertex
 10
261.779571
 20
123.839646
 30
0.0
  0
VERTEX
  5
2EC
100
AcDbEntity
  8
1
390
0
 62
     7
100
AcDbVertex
100
AcDb2dVertex
 10
261.818872
 20
123.859593
 30
0.0
  0
VERTEX
  5
2ED
100
AcDbEntity
  8
1
390
0
 62
     7
100
AcDbVertex
100
AcDb2dVertex
 10
261.859014
 20
123.877839
 30
0.0
  0
VERTEX
  5
2EE
100
AcDbEntity
  8
1
390
0
 62
     7
100
AcDbVertex
100
AcDb2dVertex
 10
261.899882
 20
123.89434
 30
0.0
  0
VERTEX
  5
2EF
100
AcDbEntity
  8
1
390
0
 62
     7
100
AcDbVertex
100
AcDb2dVertex
 10
261.942125
 20
123.909314
 30
0.0
  0
VERTEX
  5
2F0
100
AcDbEntity
  8
1
390
0
 62
     7
100
AcDbVertex
100
AcDb2dVertex
 10
261.984995
 20
123.92246
 30
0.0
  0
VERTEX
  5
2F1
100
AcDbEntity
  8
1
390
0
 62
     7
100
AcDbVertex
100
AcDb2dVertex
 10
262.028368
 20
123.933757
 30
0.0
  0
SEQEND
  5
2F2
100
AcDbEntity
  8
0
390
0
  0
LINE
  5
2F3
100
AcDbEntity
  8
1
390
0
  6
Continuous
 62
     7
100
AcDbLine
 10
262.704704
 20
123.933757
 30
0.0
 11
262.704704
 21
123.886449
 31
0.0
  0
ARC
  5
2F4
100
AcDbEntity
  8
1
390
0
  6
Continuous
 62
     7
100
AcDbCircle
 10
262.979704
 20
121.061988
 30
0.0
 40
2.837817
210
0.0
220
0.0
230
1.0
100
AcDbArc
 50
84.438998
 51
95.561002
  0
LINE
  5
2F5
100
AcDbEntity
  8
1
390
0
  6
Continuous
 62
     7
100
AcDbLine
 10
263.254704
 20
123.886449
 30
0.0
 11
263.254704
 21
123.933757
 31
0.0
  0
POLYLINE
  5
2F6
100
AcDbEntity
  8
1
390
0
  6
Continuous
 62
     7
100
AcDb2dPolyline
 66
     1
 10
0.0
 20
0.0
 30
0.0
 40
1.0
 41
1.0
  0
VERTEX
  5
2F7
100
AcDbEntity
  8
1
390
0
 62
     7
100
AcDbVertex
100
AcDb2dVertex
 10
263.931041
 20
123.933757
 30
0.0
  0
VERTEX
  5
2F8
100
AcDbEntity
  8
1
390
0
 62
     7
100
AcDbVertex
100
AcDb2dVertex
 10
263.972149
 20
123.923097
 30
0.0
  0
VERTEX
  5
2F9
100
AcDbEntity
  8
1
390
0
 62
     7
100
AcDbVertex
100
AcDb2dVertex
 10
264.012825
 20
123.91077
 30
0.0
  0
VERTEX
  5
2FA
100
AcDbEntity
  8
1
390
0
 62
     7
100
AcDbVertex
100
AcDb2dVertex
 10
264.052966
 20
123.896798
 30
0.0
  0
VERTEX
  5
2FB
100
AcDbEntity
  8
1
390
0
 62
     7
100
AcDbVertex
100
AcDb2dVertex
 10
264.092465
 20
123.881203
 30
0.0
  0
VERTEX
  5
2FC
100
AcDbEntity
  8
1
390
0
 62
     7
100
AcDbVertex
100
AcDb2dVertex
 10
264.132378
 20
123.863469
 30
0.0
  0
VERTEX
  5
2FD
100
AcDbEntity
  8
1
390
0
 62
     7
100
AcDbVertex
100
AcDb2dVertex
 10
264.171533
 20
123.844031
 30
0.0
  0
VERTEX
  5
2FE
100
AcDbEntity
  8
1
390
0
 62
     7
100
AcDbVertex
100
AcDb2dVertex
 10
264.209822
 20
123.822939
 30
0.0
  0
VERTEX
  5
2FF
100
AcDbEntity
  8
1
390
0
 62
     7
100
AcDbVertex
100
AcDb2dVertex
 10
264.247134
 20
123.800239
 30
0.0
  0
VERTEX
  5
300
100
AcDbEntity
  8
1
390
0
 62
     7
100
AcDbVertex
100
AcDb2dVertex
 10
264.282449
 20
123.77663
 30
0.0
  0
VERTEX
  5
301
100
AcDbEntity
  8
1
390
0
 62
     7
100
AcDbVertex
100
AcDb2dVertex
 10
264.316769
 20
123.751533
 30
0.0
  0
VERTEX
  5
302
100
AcDbEntity
  8
1
390
0
 62
     7
100
AcDbVertex
100
AcDb2dVertex
 10
264.350003
 20
123.725013
 30
0.0
  0
VERTEX
  5
303
100
AcDbEntity
  8
1
390
0
 62
     7
100
AcDbVertex
100
AcDb2dVertex
 10
264.382056
 20
123.697137
 30
0.0
  0
VERTEX
  5
304
100
AcDbEntity
  8
1
390
0
 62
     7
100
AcDbVertex
100
AcDb2dVertex
 10
264.413806
 20
123.667018
 30
0.0
  0
VERTEX
  5
305
100
AcDbEntity
  8
1
390
0
 62
     7
100
AcDbVertex
100
AcDb2dVertex
 10
264.444238
 20
123.635509
 30
0.0
  0
VERTEX
  5
306
100
AcDbEntity
  8
1
390
0
 62
     7
100
AcDbVertex
100
AcDb2dVertex
 10
264.473263
 20
123.6027
 30
0.0
  0
VERTEX
  5
307
100
AcDbEntity
  8
1
390
0
 62
     7
100
AcDbVertex
100
AcDb2dVertex
 10
264.500793
 20
123.568683
 30
0.0
  0
VERTEX
  5
308
100
AcDbEntity
  8
1
390
0
 62
     7
100
AcDbVertex
100
AcDb2dVertex
 10
264.525326
 20
123.535565
 30
0.0
  0
VERTEX
  5
309
100
AcDbEntity
  8
1
390
0
 62
     7
100
AcDbVertex
100
AcDb2dVertex
 10
264.548477
 20
123.501446
 30
0.0
  0
VERTEX
  5
30A
100
AcDbEntity
  8
1
390
0
 62
     7
100
AcDbVertex
100
AcDb2dVertex
 10
264.570184
 20
123.466412
 30
0.0
  0
VERTEX
  5
30B
100
AcDbEntity
  8
1
390
0
 62
     7
100
AcDbVertex
100
AcDb2dVertex
 10
264.590725
 20
123.429926
 30
0.0
  0
VERTEX
  5
30C
100
AcDbEntity
  8
1
390
0
 62
     7
100
AcDbVertex
100
AcDb2dVertex
 10
264.609718
 20
123.39259
 30
0.0
  0
VERTEX
  5
30D
100
AcDbEntity
  8
1
390
0
 62
     7
100
AcDbVertex
100
AcDb2dVertex
 10
264.62711
 20
123.354502
 30
0.0
  0
SEQEND
  5
30E
100
AcDbEntity
  8
0
390
0
  0
LINE
  5
30F
100
AcDbEntity
  8
1
390
0
  6
DOT
 62
     9
100
AcDbLine
 10
262.704704
 20
123.354502
 30
0.0
 11
262.704704
 21
123.886449
 31
0.0
  0
LINE
  5
310
100
AcDbEntity
  8
1
390
0
  6
DOT
 62
     9
100
AcDbLine
 10
263.254704
 20
123.354502
 30
0.0
 11
263.254704
 21
123.836439
 31
0.0
  0
LINE
  5
311
100
AcDbEntity
  8
1
390
0
  6
DOT
 62
     9
100
AcDbLine
 10
263.254704
 20
123.836439
 30
0.0
 11
263.254704
 21
123.886449
 31
0.0
  0
LINE
  5
312
100
AcDbEntity
  8
1
390
0
  6
DOT
 62
     9
100
AcDbLine
 10
263.254704
 20
123.354502
 30
0.0
 11
262.704704
 21
123.354502
 31
0.0
  0
LINE
  5
313
100
AcDbEntity
  8
1
390
0
  6
Continuous
 62
     7
100
AcDbLine
 10
261.979704
 20
116.954502
 30
0.0
 11
263.979704
 21
116.954502
 31
0.0
  0
LINE
  5
314
100
AcDbEntity
  8
1
390
0
  6
Continuous
 62
     7
100
AcDbLine
 10
263.779704
 20
116.754502
 30
0.0
 11
262.179704
 21
116.754502
 31
0.0
  0
LINE
  5
315
100
AcDbEntity
  8
1
390
0
  6
Continuous
 62
     7
100
AcDbLine
 10
298.358681
 20
120.904502
 30
0.0
 11
298.358681
 21
120.104502
 31
0.0
  0
LINE
  5
316
100
AcDbEntity
  8
1
390
0
  6
Continuous
 62
     7
100
AcDbLine
 10
298.358681
 20
120.104502
 30
0.0
 11
286.729704
 21
120.104502
 31
0.0
  0
LINE
  5
317
100
AcDbEntity
  8
1
390
0
  6
Continuous
 62
     7
100
AcDbLine
 10
298.358681
 20
120.904502
 30
0.0
 11
286.729704
 21
120.904502
 31
0.0
  0
LINE
  5
318
100
AcDbEntity
  8
1
390
0
  6
Continuous
 62
     7
100
AcDbLine
 10
298.729704
 20
120.904502
 30
0.0
 11
298.358681
 21
120.904502
 31
0.0
  0
LINE
  5
319
100
AcDbEntity
  8
1
390
0
  6
Continuous
 62
     7
100
AcDbLine
 10
298.729704
 20
120.104502
 30
0.0
 11
298.358681
 21
120.104502
 31
0.0
  0
LINE
  5
31A
100
AcDbEntity
  8
1
390
0
  6
DOT
 62
     9
100
AcDbLine
 10
298.358681
 20
120.904502
 30
0.0
 11
298.358681
 21
120.104502
 31
0.0
  0
ARC
  5
31B
100
AcDbEntity
  8
1
390
0
  6
Continuous
 62
     7
100
AcDbCircle
 10
262.979704
 20
119.93322
 30
0.0
 40
4.112097
210
0.0
220
0.0
230
1.0
100
AcDbArc
 50
85.289255
 51
86.165434
  0
ARC
  5
31C
100
AcDbEntity
  8
1
390
0
  6
Continuous
 62
     7
100
AcDbCircle
 10
262.979704
 20
119.93322
 30
0.0
 40
4.112097
210
0.0
220
0.0
230
1.0
100
AcDbArc
 50
76.623394
 51
85.289255
  0
ARC
  5
31D
100
AcDbEntity
  8
1
390
0
  6
Continuous
 62
     7
100
AcDbCircle
 10
262.979704
 20
119.93322
 30
0.0
 40
4.112097
210
0.0
220
0.0
230
1.0
100
AcDbArc
 50
93.834566
 51
103.376606
  0
LINE
  5
31E
100
AcDbEntity
  8
1
390
0
  6
Continuous
 62
     7
100
AcDbLine
 10
262.704704
 20
124.036111
 30
0.0
 11
262.704704
 21
123.984913
 31
0.0
  0
LINE
  5
31F
100
AcDbEntity
  8
1
390
0
  6
DOT
 62
     9
100
AcDbLine
 10
262.704704
 20
123.354502
 30
0.0
 11
261.332299
 21
123.354502
 31
0.0
  0
LINE
  5
320
100
AcDbEntity
  8
1
390
0
  6
DOT
 62
     9
100
AcDbLine
 10
264.62711
 20
123.354502
 30
0.0
 11
263.254704
 21
123.354502
 31
0.0
  0
LINE
  5
321
100
AcDbEntity
  8
1
390
0
  6
Continuous
 62
     7
100
AcDbLine
 10
227.729704
 20
121.784502
 30
0.0
 11
227.729704
 21
119.224502
 31
0.0
  0
LINE
  5
322
100
AcDbEntity
  8
1
390
0
  6
DOT
 62
     9
100
AcDbLine
 10
298.140027
 20
120.104502
 30
0.0
 11
298.140027
 21
120.904502
 31
0.0
  0
ARC
  5
323
100
AcDbEntity
  8
1
390
0
  6
Continuous
 62
     7
100
AcDbCircle
 10
262.229704
 20
122.963055
 30
0.0
 40
1.0
210
0.0
220
0.0
230
1.0
100
AcDbArc
 50
156.955446
 51
180.0
  0
ARC
  5
324
100
AcDbEntity
  8
1
390
0
  6
Continuous
 62
     7
100
AcDbCircle
 10
263.729704
 20
122.963055
 30
0.0
 40
1.0
210
0.0
220
0.0
230
1.0
100
AcDbArc
 50
0.0
 51
23.044554
  0
LINE
  5
325
100
AcDbEntity
  8
1
390
0
  6
Continuous
 62
     7
100
AcDbLine
 10
264.729704
 20
122.754502
 30
0.0
 11
264.729704
 21
122.963055
 31
0.0
  0
LINE
  5
326
100
AcDbEntity
  8
1
390
0
  6
Continuous
 62
     7
100
AcDbLine
 10
261.229704
 20
122.963055
 30
0.0
 11
261.229704
 21
122.754502
 31
0.0
  0
LINE
  5
327
100
AcDbEntity
  8
1
390
0
  6
Continuous
 62
     7
100
AcDbLine
 10
261.979704
 20
116.954502
 30
0.0
 11
262.179704
 21
116.754502
 31
0.0
  0
LINE
  5
328
100
AcDbEntity
  8
1
390
0
  6
Continuous
 62
     7
100
AcDbLine
 10
263.779704
 20
116.754502
 30
0.0
 11
263.979704
 21
116.954502
 31
0.0
  0
LINE
  5
329
100
AcDbEntity
  8
1
390
0
  6
Continuous
 62
     7
100
AcDbLine
 10
263.979704
 20
116.954502
 30
0.0
 11
263.979704
 21
118.254502
 31
0.0
  0
LINE
  5
32A
100
AcDbEntity
  8
1
390
0
  6
Continuous
 62
     7
100
AcDbLine
 10
261.979704
 20
118.254502
 30
0.0
 11
261.979704
 21
116.954502
 31
0.0
  0
LINE
  5
32B
100
AcDbEntity
  8
1
390
0
  6
Continuous
 62
     7
100
AcDbLine
 10
263.979704
 20
119.254502
 30
0.0
 11
263.979704
 21
121.754502
 31
0.0
  0
LINE
  5
32C
100
AcDbEntity
  8
1
390
0
  6
Continuous
 62
     7
100
AcDbLine
 10
261.979704
 20
121.754502
 30
0.0
 11
261.979704
 21
119.254502
 31
0.0
  0
LINE
  5
32D
100
AcDbEntity
  8
1
390
0
  6
Continuous
 62
     7
100
AcDbLine
 10
298.729704
 20
120.104502
 30
0.0
 11
298.729704
 21
120.904502
 31
0.0
  0
LINE
  5
32E
100
AcDbEntity
  8
1
390
0
  6
Continuous
 62
     7
100
AcDbLine
 10
260.729704
 20
121.784502
 30
0.0
 11
227.729704
 21
121.784502
 31
0.0
  0
LINE
  5
32F
100
AcDbEntity
  8
1
390
0
  6
Continuous
 62
     7
100
AcDbLine
 10
267.729704
 20
121.784502
 30
0.0
 11
265.229704
 21
121.784502
 31
0.0
  0
LINE
  5
330
100
AcDbEntity
  8
1
390
0
  6
Continuous
 62
     7
100
AcDbLine
 10
265.472809
 20
119.224502
 30
0.0
 11
267.729704
 21
119.224502
 31
0.0
  0
LINE
  5
331
100
AcDbEntity
  8
1
390
0
  6
Continuous
 62
     7
100
AcDbLine
 10
227.729704
 20
119.224502
 30
0.0
 11
259.729704
 21
119.224502
 31
0.0
  0
LINE
  5
332
100
AcDbEntity
  8
1
390
0
  6
Continuous
 62
     7
100
AcDbLine
 10
211.281454
 20
119.724502
 30
0.0
 11
227.729704
 21
119.724502
 31
0.0
  0
LINE
  5
333
100
AcDbEntity
  8
1
390
0
  6
Continuous
 62
     7
100
AcDbLine
 10
227.729704
 20
121.284502
 30
0.0
 11
212.302015
 21
121.284502
 31
0.0
  0
LINE
  5
334
100
AcDbEntity
  8
5
390
0
  6
Continuous
 62
     9
100
AcDbLine
 10
207.429472
 20
118.775944
 30
0.0
 11
209.857417
 21
121.998909
 31
0.0
  0
LINE
  5
335
100
AcDbEntity
  8
5
390
0
  6
Continuous
 62
     9
100
AcDbLine
 10
212.429472
 20
118.775944
 30
0.0
 11
214.853838
 21
121.994158
 31
0.0
  0
POINT
  5
336
100
AcDbEntity
  8
5
390
0
 62
     9
100
AcDbPoint
 10
210.808082
 20
121.282748
 30
0.0
  0
POINT
  5
337
100
AcDbEntity
  8
5
390
0
 62
     9
100
AcDbPoint
 10
214.642213
 20
122.15358
 30
0.0
  0
CIRCLE
  5
338
100
AcDbEntity
  8
1
390
0
  6
Continuous
 62
     7
100
AcDbCircle
 10
83.721138
 20
197.591756
 30
0.0
 40
0.5
210
0.0
220
0.0
230
1.0
  0
CIRCLE
  5
339
100
AcDbEntity
  8
1
390
0
  6
DOT
 62
     9
100
AcDbCircle
 10
83.721138
 20
197.591756
 30
0.0
 40
0.4
210
0.0
220
0.0
230
1.0
  0
CIRCLE
  5
33A
100
AcDbEntity
  8
1
390
0
  6
Continuous
 62
     7
100
AcDbCircle
 10
83.721138
 20
197.591756
 30
0.0
 40
1.2
210
0.0
220
0.0
230
1.0
  0
CIRCLE
  5
33B
100
AcDbEntity
  8
1
390
0
  6
Continuous
 62
     7
100
AcDbCircle
 10
83.721138
 20
197.591756
 30
0.0
 40
1.25
210
0.0
220
0.0
230
1.0
  0
CIRCLE
  5
33C
100
AcDbEntity
  8
1
390
0
  6
Continuous
 62
     7
100
AcDbCircle
 10
83.721138
 20
197.591756
 30
0.0
 40
1.8
210
0.0
220
0.0
230
1.0
  0
CIRCLE
  5
33D
100
AcDbEntity
  8
1
390
0
  6
Continuous
 62
     7
100
AcDbCircle
 10
83.721138
 20
197.591756
 30
0.0
 40
2.0
210
0.0
220
0.0
230
1.0
  0
CIRCLE
  5
33E
100
AcDbEntity
  8
1
390
0
  6
DOT
 62
     9
100
AcDbCircle
 10
83.721138
 20
197.591756
 30
0.0
 40
1.1
210
0.0
220
0.0
230
1.0
  0
CIRCLE
  5
33F
100
AcDbEntity
  8
1
390
0
  6
DOT
 62
     9
100
AcDbCircle
 10
83.721138
 20
197.591756
 30
0.0
 40
1.5
210
0.0
220
0.0
230
1.0
  0
CIRCLE
  5
340
100
AcDbEntity
  8
1
390
0
  6
DOT
 62
     9
100
AcDbCircle
 10
83.721138
 20
197.591756
 30
0.0
 40
0.78
210
0.0
220
0.0
230
1.0
  0
CIRCLE
  5
341
100
AcDbEntity
  8
1
390
0
  6
DOT
 62
     9
100
AcDbCircle
 10
83.721138
 20
197.591756
 30
0.0
 40
1.28
210
0.0
220
0.0
230
1.0
  0
LINE
  5
342
100
AcDbEntity
  8
1
390
0
  6
Continuous
 62
     7
100
AcDbLine
 10
81.471138
 20
192.091756
 30
0.0
 11
81.471138
 21
203.091756
 31
0.0
  0
LINE
  5
343
100
AcDbEntity
  8
1
390
0
  6
DOT
 62
     9
100
AcDbLine
 10
82.471138
 20
197.867255
 30
0.0
 11
82.471138
 21
198.420912
 31
0.0
  0
LINE
  5
344
100
AcDbEntity
  8
1
390
0
  6
DOT
 62
     9
100
AcDbLine
 10
82.471138
 20
198.420912
 30
0.0
 11
82.471138
 21
199.153005
 31
0.0
  0
LINE
  5
345
100
AcDbEntity
  8
1
390
0
  6
Continuous
 62
     7
100
AcDbLine
 10
82.471138
 20
199.153005
 30
0.0
 11
82.471138
 21
203.091756
 31
0.0
  0
LINE
  5
346
100
AcDbEntity
  8
1
390
0
  6
Continuous
 62
     7
100
AcDbLine
 10
82.471138
 20
192.091756
 30
0.0
 11
82.471138
 21
196.030506
 31
0.0
  0
LINE
  5
347
100
AcDbEntity
  8
1
390
0
  6
DOT
 62
     9
100
AcDbLine
 10
82.471138
 20
196.030506
 30
0.0
 11
82.471138
 21
196.7626
 31
0.0
  0
LINE
  5
348
100
AcDbEntity
  8
1
390
0
  6
DOT
 62
     9
100
AcDbLine
 10
82.471138
 20
196.7626
 30
0.0
 11
82.471138
 21
197.316256
 31
0.0
  0
LINE
  5
349
100
AcDbEntity
  8
1
390
0
  6
Continuous
 62
     7
100
AcDbLine
 10
81.471138
 20
203.091756
 30
0.0
 11
81.471138
 21
204.091756
 31
0.0
  0
LINE
  5
34A
100
AcDbEntity
  8
1
390
0
  6
Continuous
 62
     7
100
AcDbLine
 10
81.471138
 20
204.091756
 30
0.0
 11
82.471138
 21
204.091756
 31
0.0
  0
LINE
  5
34B
100
AcDbEntity
  8
1
390
0
  6
Continuous
 62
     7
100
AcDbLine
 10
82.471138
 20
203.091756
 30
0.0
 11
82.471138
 21
204.091756
 31
0.0
  0
LINE
  5
34C
100
AcDbEntity
  8
1
390
0
  6
Continuous
 62
     7
100
AcDbLine
 10
81.471138
 20
191.091756
 30
0.0
 11
82.471138
 21
191.091756
 31
0.0
  0
LINE
  5
34D
100
AcDbEntity
  8
1
390
0
  6
Continuous
 62
     7
100
AcDbLine
 10
81.471138
 20
191.091756
 30
0.0
 11
81.471138
 21
192.091756
 31
0.0
  0
LINE
  5
34E
100
AcDbEntity
  8
1
390
0
  6
Continuous
 62
     7
100
AcDbLine
 10
82.471138
 20
191.091756
 30
0.0
 11
82.471138
 21
192.091756
 31
0.0
  0
LINE
  5
34F
100
AcDbEntity
  8
1
390
0
  6
Continuous
 62
     7
100
AcDbLine
 10
85.971138
 20
204.091756
 30
0.0
 11
84.971138
 21
204.091756
 31
0.0
  0
LINE
  5
350
100
AcDbEntity
  8
1
390
0
  6
Continuous
 62
     7
100
AcDbLine
 10
85.971138
 20
203.091756
 30
0.0
 11
85.971138
 21
204.091756
 31
0.0
  0
LINE
  5
351
100
AcDbEntity
  8
1
390
0
  6
Continuous
 62
     7
100
AcDbLine
 10
84.971138
 20
203.091756
 30
0.0
 11
84.971138
 21
204.091756
 31
0.0
  0
LINE
  5
352
100
AcDbEntity
  8
1
390
0
  6
DOT
 62
     9
100
AcDbLine
 10
84.971138
 20
197.867255
 30
0.0
 11
84.971138
 21
198.420912
 31
0.0
  0
LINE
  5
353
100
AcDbEntity
  8
1
390
0
  6
DOT
 62
     9
100
AcDbLine
 10
84.971138
 20
198.420912
 30
0.0
 11
84.971138
 21
199.153005
 31
0.0
  0
LINE
  5
354
100
AcDbEntity
  8
1
390
0
  6
Continuous
 62
     7
100
AcDbLine
 10
84.971138
 20
199.153005
 30
0.0
 11
84.971138
 21
203.091756
 31
0.0
  0
LINE
  5
355
100
AcDbEntity
  8
1
390
0
  6
Continuous
 62
     7
100
AcDbLine
 10
85.971138
 20
192.091756
 30
0.0
 11
85.971138
 21
203.091756
 31
0.0
  0
LINE
  5
356
100
AcDbEntity
  8
1
390
0
  6
Continuous
 62
     7
100
AcDbLine
 10
84.971138
 20
192.091756
 30
0.0
 11
84.971138
 21
196.030506
 31
0.0
  0
LINE
  5
357
100
AcDbEntity
  8
1
390
0
  6
DOT
 62
     9
100
AcDbLine
 10
84.971138
 20
196.030506
 30
0.0
 11
84.971138
 21
196.7626
 31
0.0
  0
LINE
  5
358
100
AcDbEntity
  8
1
390
0
  6
DOT
 62
     9
100
AcDbLine
 10
84.971138
 20
196.7626
 30
0.0
 11
84.971138
 21
197.316256
 31
0.0
  0
LINE
  5
359
100
AcDbEntity
  8
1
390
0
  6
Continuous
 62
     7
100
AcDbLine
 10
85.971138
 20
191.091756
 30
0.0
 11
85.971138
 21
192.091756
 31
0.0
  0
LINE
  5
35A
100
AcDbEntity
  8
1
390
0
  6
Continuous
 62
     7
100
AcDbLine
 10
85.971138
 20
191.091756
 30
0.0
 11
84.971138
 21
191.091756
 31
0.0
  0
LINE
  5
35B
100
AcDbEntity
  8
1
390
0
  6
Continuous
 62
     7
100
AcDbLine
 10
84.971138
 20
191.091756
 30
0.0
 11
84.971138
 21
192.091756
 31
0.0
  0
LINE
  5
35C
100
AcDbEntity
  8
1
390
0
  6
Continuous
 62
     7
100
AcDbLine
 10
87.116441
 20
200.741756
 30
0.0
 11
87.103085
 21
200.741756
 31
0.0
  0
LINE
  5
35D
100
AcDbEntity
  8
1
390
0
  6
Continuous
 62
     7
100
AcDbLine
 10
87.103085
 20
202.941756
 30
0.0
 11
87.116441
 21
202.941756
 31
0.0
  0
LINE
  5
35E
100
AcDbEntity
  8
1
390
0
  6
Continuous
 62
     7
100
AcDbLine
 10
87.150393
 20
202.793092
 30
0.0
 11
87.103085
 21
202.941756
 31
0.0
  0
LINE
  5
35F
100
AcDbEntity
  8
1
390
0
  6
Continuous
 62
     7
100
AcDbLine
 10
86.571138
 20
202.116756
 30
0.0
 11
87.150393
 21
202.116756
 31
0.0
  0
LINE
  5
360
100
AcDbEntity
  8
1
390
0
  6
Continuous
 62
     7
100
AcDbLine
 10
86.571138
 20
202.116756
 30
0.0
 11
86.571138
 21
201.566756
 31
0.0
  0
LINE
  5
361
100
AcDbEntity
  8
1
390
0
  6
Continuous
 62
     7
100
AcDbLine
 10
87.150393
 20
201.566756
 30
0.0
 11
86.571138
 21
201.566756
 31
0.0
  0
POLYLINE
  5
362
100
AcDbEntity
  8
1
390
0
  6
Continuous
 62
     7
100
AcDb2dPolyline
 66
     1
 10
0.0
 20
0.0
 30
0.0
 40
1.0
 41
1.0
  0
VERTEX
  5
363
100
AcDbEntity
  8
1
390
0
 62
     7
100
AcDbVertex
100
AcDb2dVertex
 10
87.103085
 20
200.741756
 30
0.0
  0
VERTEX
  5
364
100
AcDbEntity
  8
1
390
0
 62
     7
100
AcDbVertex
100
AcDb2dVertex
 10
87.140623
 20
200.852483
 30
0.0
  0
VERTEX
  5
365
100
AcDbEntity
  8
1
390
0
 62
     7
100
AcDbVertex
100
AcDb2dVertex
 10
87.150393
 20
200.890419
 30
0.0
  0
SEQEND
  5
366
100
AcDbEntity
  8
0
390
0
  0
LINE
  5
367
100
AcDbEntity
  8
1
390
0
  6
Continuous
 62
     7
100
AcDbLine
 10
87.116441
 20
194.441756
 30
0.0
 11
87.103085
 21
194.441756
 31
0.0
  0
POLYLINE
  5
368
100
AcDbEntity
  8
1
390
0
  6
Continuous
 62
     7
100
AcDb2dPolyline
 66
     1
 10
0.0
 20
0.0
 30
0.0
 40
1.0
 41
1.0
  0
VERTEX
  5
369
100
AcDbEntity
  8
1
390
0
 62
     7
100
AcDbVertex
100
AcDb2dVertex
 10
87.103085
 20
194.441756
 30
0.0
  0
VERTEX
  5
36A
100
AcDbEntity
  8
1
390
0
 62
     7
100
AcDbVertex
100
AcDb2dVertex
 10
87.140623
 20
194.331029
 30
0.0
  0
VERTEX
  5
36B
100
AcDbEntity
  8
1
390
0
 62
     7
100
AcDbVertex
100
AcDb2dVertex
 10
87.150393
 20
194.293092
 30
0.0
  0
SEQEND
  5
36C
100
AcDbEntity
  8
0
390
0
  0
LINE
  5
36D
100
AcDbEntity
  8
1
390
0
  6
Continuous
 62
     7
100
AcDbLine
 10
87.150393
 20
193.616756
 30
0.0
 11
86.571138
 21
193.616756
 31
0.0
  0
LINE
  5
36E
100
AcDbEntity
  8
1
390
0
  6
Continuous
 62
     7
100
AcDbLine
 10
86.571138
 20
193.066756
 30
0.0
 11
86.571138
 21
193.616756
 31
0.0
  0
LINE
  5
36F
100
AcDbEntity
  8
1
390
0
  6
Continuous
 62
     7
100
AcDbLine
 10
86.571138
 20
193.066756
 30
0.0
 11
87.150393
 21
193.066756
 31
0.0
  0
LINE
  5
370
100
AcDbEntity
  8
1
390
0
  6
Continuous
 62
     7
100
AcDbLine
 10
87.150393
 20
192.390419
 30
0.0
 11
87.103085
 21
192.241756
 31
0.0
  0
LINE
  5
371
100
AcDbEntity
  8
1
390
0
  6
Continuous
 62
     7
100
AcDbLine
 10
87.103085
 20
192.241756
 30
0.0
 11
87.116441
 21
192.241756
 31
0.0
  0
LINE
  5
372
100
AcDbEntity
  8
1
390
0
  6
Continuous
 62
     7
100
AcDbLine
 10
80.171138
 20
194.341756
 30
0.0
 11
80.171138
 21
192.341756
 31
0.0
  0
LINE
  5
373
100
AcDbEntity
  8
1
390
0
  6
Continuous
 62
     7
100
AcDbLine
 10
80.171138
 20
200.841756
 30
0.0
 11
80.171138
 21
202.841756
 31
0.0
  0
LINE
  5
374
100
AcDbEntity
  8
1
390
0
  6
Continuous
 62
     7
100
AcDbLine
 10
79.971138
 20
202.641756
 30
0.0
 11
79.971138
 21
201.041756
 31
0.0
  0
LINE
  5
375
100
AcDbEntity
  8
1
390
0
  6
Continuous
 62
     7
100
AcDbLine
 10
79.971138
 20
192.541756
 30
0.0
 11
79.971138
 21
194.141756
 31
0.0
  0
ARC
  5
376
100
AcDbEntity
  8
1
390
0
  6
Continuous
 62
     7
100
AcDbCircle
 10
83.149856
 20
193.341756
 30
0.0
 40
4.112097
210
0.0
220
0.0
230
1.0
100
AcDbArc
 50
3.834566
 51
13.376606
  0
LINE
  5
377
100
AcDbEntity
  8
1
390
0
  6
Continuous
 62
     7
100
AcDbLine
 10
87.252747
 20
193.616756
 30
0.0
 11
87.150393
 21
193.616756
 31
0.0
  0
ARC
  5
378
100
AcDbEntity
  8
1
390
0
  6
Continuous
 62
     7
100
AcDbCircle
 10
83.149856
 20
193.341756
 30
0.0
 40
4.112097
210
0.0
220
0.0
230
1.0
100
AcDbArc
 50
355.289255
 51
356.165434
  0
ARC
  5
379
100
AcDbEntity
  8
1
390
0
  6
Continuous
 62
     7
100
AcDbCircle
 10
83.149856
 20
193.341756
 30
0.0
 40
4.112097
210
0.0
220
0.0
230
1.0
100
AcDbArc
 50
346.623394
 51
355.289255
  0
LINE
  5
37A
100
AcDbEntity
  8
1
390
0
  6
Continuous
 62
     7
100
AcDbLine
 10
87.150393
 20
193.066756
 30
0.0
 11
87.252747
 21
193.066756
 31
0.0
  0
ARC
  5
37B
100
AcDbEntity
  8
1
390
0
  6
Continuous
 62
     7
100
AcDbCircle
 10
83.149856
 20
201.841756
 30
0.0
 40
4.112097
210
0.0
220
0.0
230
1.0
100
AcDbArc
 50
346.623394
 51
356.165434
  0
LINE
  5
37C
100
AcDbEntity
  8
1
390
0
  6
Continuous
 62
     7
100
AcDbLine
 10
87.252747
 20
201.566756
 30
0.0
 11
87.150393
 21
201.566756
 31
0.0
  0
ARC
  5
37D
100
AcDbEntity
  8
1
390
0
  6
Continuous
 62
     7
100
AcDbCircle
 10
83.149856
 20
201.841756
 30
0.0
 40
4.112097
210
0.0
220
0.0
230
0.9999999999999999
100
AcDbArc
 50
3.834566
 51
4.710745
  0
ARC
  5
37E
100
AcDbEntity
  8
1
390
0
  6
Continuous
 62
     7
100
AcDbCircle
 10
83.149856
 20
201.841756
 30
0.0
 40
4.112097
210
0.0
220
0.0
230
1.0
100
AcDbArc
 50
4.710745
 51
13.376606
  0
LINE
  5
37F
100
AcDbEntity
  8
1
390
0
  6
Continuous
 62
     7
100
AcDbLine
 10
87.150393
 20
202.116756
 30
0.0
 11
87.252747
 21
202.116756
 31
0.0
  0
LINE
  5
380
100
AcDbEntity
  8
1
390
0
  6
DOT
 62
     9
100
AcDbLine
 10
86.571138
 20
193.616756
 30
0.0
 11
86.571138
 21
194.441756
 31
0.0
  0
LINE
  5
381
100
AcDbEntity
  8
1
390
0
  6
DOT
 62
     9
100
AcDbLine
 10
86.571138
 20
192.241756
 30
0.0
 11
86.571138
 21
193.066756
 31
0.0
  0
LINE
  5
382
100
AcDbEntity
  8
1
390
0
  6
DOT
 62
     9
100
AcDbLine
 10
86.571138
 20
192.241756
 30
0.0
 11
87.103085
 21
192.241756
 31
0.0
  0
LINE
  5
383
100
AcDbEntity
  8
1
390
0
  6
DOT
 62
     9
100
AcDbLine
 10
86.571138
 20
194.441756
 30
0.0
 11
87.103085
 21
194.441756
 31
0.0
  0
LINE
  5
384
100
AcDbEntity
  8
1
390
0
  6
DOT
 62
     9
100
AcDbLine
 10
86.571138
 20
202.941756
 30
0.0
 11
87.103085
 21
202.941756
 31
0.0
  0
LINE
  5
385
100
AcDbEntity
  8
1
390
0
  6
DOT
 62
     9
100
AcDbLine
 10
86.571138
 20
202.941756
 30
0.0
 11
86.571138
 21
202.116756
 31
0.0
  0
LINE
  5
386
100
AcDbEntity
  8
1
390
0
  6
DOT
 62
     9
100
AcDbLine
 10
86.571138
 20
200.741756
 30
0.0
 11
87.103085
 21
200.741756
 31
0.0
  0
LINE
  5
387
100
AcDbEntity
  8
1
390
0
  6
DOT
 62
     9
100
AcDbLine
 10
86.571138
 20
201.566756
 30
0.0
 11
86.571138
 21
200.741756
 31
0.0
  0
LINE
  5
388
100
AcDbEntity
  8
1
390
0
  6
Continuous
 62
     7
100
AcDbLine
 10
78.721138
 20
191.091756
 30
0.0
 11
78.721138
 21
204.091756
 31
0.0
  0
LINE
  5
389
100
AcDbEntity
  8
1
390
0
  6
Continuous
 62
     7
100
AcDbLine
 10
79.721138
 20
191.091756
 30
0.0
 11
78.721138
 21
191.091756
 31
0.0
  0
LINE
  5
38A
100
AcDbEntity
  8
1
390
0
  6
Continuous
 62
     7
100
AcDbLine
 10
78.721138
 20
204.091756
 30
0.0
 11
79.721138
 21
204.091756
 31
0.0
  0
LINE
  5
38B
100
AcDbEntity
  8
1
390
0
  6
Continuous
 62
     7
100
AcDbLine
 10
79.721138
 20
191.091756
 30
0.0
 11
81.471138
 21
191.091756
 31
0.0
  0
LINE
  5
38C
100
AcDbEntity
  8
1
390
0
  6
Continuous
 62
     7
100
AcDbLine
 10
79.721138
 20
204.091756
 30
0.0
 11
81.471138
 21
204.091756
 31
0.0
  0
LINE
  5
38D
100
AcDbEntity
  8
1
390
0
  6
DOT
 62
     9
100
AcDbLine
 10
79.721138
 20
191.091756
 30
0.0
 11
79.721138
 21
204.091756
 31
0.0
  0
LINE
  5
38E
100
AcDbEntity
  8
1
390
0
  6
Continuous
 62
     7
100
AcDbLine
 10
79.721138
 20
204.591756
 30
0.0
 11
79.721138
 21
205.391756
 31
0.0
  0
ARC
  5
38F
100
AcDbEntity
  8
1
390
0
  6
Continuous
 62
     7
100
AcDbCircle
 10
79.921138
 20
205.391756
 30
0.0
 40
0.2
210
0.0
220
0.0
230
1.0
100
AcDbArc
 50
90.0
 51
180.0
  0
LINE
  5
390
100
AcDbEntity
  8
1
390
0
  6
Continuous
 62
     7
100
AcDbLine
 10
87.721138
 20
205.391756
 30
0.0
 11
87.721138
 21
204.591756
 31
0.0
  0
ARC
  5
391
100
AcDbEntity
  8
1
390
0
  6
Continuous
 62
     7
100
AcDbCircle
 10
87.521138
 20
205.391756
 30
0.0
 40
0.2
210
0.0
220
0.0
230
1.0
100
AcDbArc
 50
0.0
 51
90.0
  0
LINE
  5
392
100
AcDbEntity
  8
1
390
0
  6
Continuous
 62
     7
100
AcDbLine
 10
79.921138
 20
205.591756
 30
0.0
 11
87.521138
 21
205.591756
 31
0.0
  0
LINE
  5
393
100
AcDbEntity
  8
1
390
0
  6
Continuous
 62
     7
100
AcDbLine
 10
79.921138
 20
189.591756
 30
0.0
 11
87.521138
 21
189.591756
 31
0.0
  0
LINE
  5
394
100
AcDbEntity
  8
1
390
0
  6
Continuous
 62
     7
100
AcDbLine
 10
79.721138
 20
189.791756
 30
0.0
 11
79.721138
 21
190.591756
 31
0.0
  0
ARC
  5
395
100
AcDbEntity
  8
1
390
0
  6
Continuous
 62
     7
100
AcDbCircle
 10
79.921138
 20
189.791756
 30
0.0
 40
0.2
210
0.0
220
0.0
230
1.0
100
AcDbArc
 50
180.0
 51
270.0
  0
LINE
  5
396
100
AcDbEntity
  8
1
390
0
  6
Continuous
 62
     7
100
AcDbLine
 10
87.721138
 20
190.591756
 30
0.0
 11
87.721138
 21
189.791756
 31
0.0
  0
ARC
  5
397
100
AcDbEntity
  8
1
390
0
  6
Continuous
 62
     7
100
AcDbCircle
 10
87.521138
 20
189.791756
 30
0.0
 40
0.2
210
0.0
220
0.0
230
1.0
100
AcDbArc
 50
270.0
 51
360.0
  0
LINE
  5
398
100
AcDbEntity
  8
1
390
0
  6
Continuous
 62
     7
100
AcDbLine
 10
79.721138
 20
190.591756
 30
0.0
 11
79.721138
 21
191.091756
 31
0.0
  0
LINE
  5
399
100
AcDbEntity
  8
1
390
0
  6
Continuous
 62
     7
100
AcDbLine
 10
79.721138
 20
204.091756
 30
0.0
 11
79.721138
 21
204.591756
 31
0.0
  0
LINE
  5
39A
100
AcDbEntity
  8
1
390
0
  6
Continuous
 62
     7
100
AcDbLine
 10
87.721138
 20
204.591756
 30
0.0
 11
87.721138
 21
190.591756
 31
0.0
  0
LINE
  5
39B
100
AcDbEntity
  8
1
390
0
  6
Continuous
 62
     7
100
AcDbLine
 10
83.721138
 20
189.591756
 30
0.0
 11
83.721138
 21
188.591756
 31
0.0
  0
LINE
  5
39C
100
AcDbEntity
  8
1
390
0
  6
Continuous
 62
     7
100
AcDbLine
 10
83.721138
 20
188.591756
 30
0.0
 11
83.521138
 21
188.591756
 31
0.0
  0
LINE
  5
39D
100
AcDbEntity
  8
1
390
0
  6
Continuous
 62
     7
100
AcDbLine
 10
83.521138
 20
206.591756
 30
0.0
 11
83.721138
 21
206.591756
 31
0.0
  0
LINE
  5
39E
100
AcDbEntity
  8
1
390
0
  6
Continuous
 62
     7
100
AcDbLine
 10
83.721138
 20
206.591756
 30
0.0
 11
83.721138
 21
205.591756
 31
0.0
  0
ARC
  5
39F
100
AcDbEntity
  8
1
390
0
  6
Continuous
 62
     7
100
AcDbCircle
 10
79.721138
 20
205.591756
 30
0.0
 40
1.0
210
0.0
220
0.0
230
1.0
100
AcDbArc
 50
90.0
 51
180.0
  0
LINE
  5
3A0
100
AcDbEntity
  8
1
390
0
  6
Continuous
 62
     7
100
AcDbLine
 10
79.721138
 20
206.591756
 30
0.0
 11
83.521138
 21
206.591756
 31
0.0
  0
LINE
  5
3A1
100
AcDbEntity
  8
1
390
0
  6
Continuous
 62
     7
100
AcDbLine
 10
79.721138
 20
205.591756
 30
0.0
 11
79.921138
 21
205.591756
 31
0.0
  0
LINE
  5
3A2
100
AcDbEntity
  8
1
390
0
  6
Continuous
 62
     7
100
AcDbLine
 10
79.721138
 20
205.391756
 30
0.0
 11
79.721138
 21
205.591756
 31
0.0
  0
LINE
  5
3A3
100
AcDbEntity
  8
1
390
0
  6
Continuous
 62
     7
100
AcDbLine
 10
78.721138
 20
204.091756
 30
0.0
 11
78.721138
 21
205.591756
 31
0.0
  0
ARC
  5
3A4
100
AcDbEntity
  8
1
390
0
  6
Continuous
 62
     7
100
AcDbCircle
 10
79.721138
 20
189.591756
 30
0.0
 40
1.0
210
0.0
220
0.0
230
1.0
100
AcDbArc
 50
180.0
 51
270.0
  0
LINE
  5
3A5
100
AcDbEntity
  8
1
390
0
  6
Continuous
 62
     7
100
AcDbLine
 10
79.721138
 20
189.591756
 30
0.0
 11
79.921138
 21
189.591756
 31
0.0
  0
LINE
  5
3A6
100
AcDbEntity
  8
1
390
0
  6
Continuous
 62
     7
100
AcDbLine
 10
79.721138
 20
188.591756
 30
0.0
 11
83.521138
 21
188.591756
 31
0.0
  0
LINE
  5
3A7
100
AcDbEntity
  8
1
390
0
  6
Continuous
 62
     7
100
AcDbLine
 10
79.721138
 20
189.591756
 30
0.0
 11
79.721138
 21
189.791756
 31
0.0
  0
LINE
  5
3A8
100
AcDbEntity
  8
1
390
0
  6
Continuous
 62
     7
100
AcDbLine
 10
78.721138
 20
189.591756
 30
0.0
 11
78.721138
 21
191.091756
 31
0.0
  0
LINE
  5
3A9
100
AcDbEntity
  8
1
390
0
  6
Continuous
 62
     7
100
AcDbLine
 10
87.721138
 20
189.791756
 30
0.0
 11
87.707744
 21
189.719796
 31
0.0
  0
POLYLINE
  5
3AA
100
AcDbEntity
  8
1
390
0
  6
Continuous
 62
     7
100
AcDb2dPolyline
 66
     1
 10
0.0
 20
0.0
 30
0.0
 40
1.0
 41
1.0
  0
VERTEX
  5
3AB
100
AcDbEntity
  8
1
390
0
 62
     7
100
AcDbVertex
100
AcDb2dVertex
 10
87.707742
 20
189.719793
 30
0.0
  0
VERTEX
  5
3AC
100
AcDbEntity
  8
1
390
0
 62
     7
100
AcDbVertex
100
AcDb2dVertex
 10
87.64873
 20
189.637742
 30
0.0
  0
VERTEX
  5
3AD
100
AcDbEntity
  8
1
390
0
 62
     7
100
AcDbVertex
100
AcDb2dVertex
 10
87.624047
 20
189.620264
 30
0.0
  0
SEQEND
  5
3AE
100
AcDbEntity
  8
0
390
0
  0
LINE
  5
3AF
100
AcDbEntity
  8
1
390
0
  6
Continuous
 62
     7
100
AcDbLine
 10
87.624047
 20
189.620264
 30
0.0
 11
87.521138
 21
189.591756
 31
0.0
  0
LINE
  5
3B0
100
AcDbEntity
  8
1
390
0
  6
Continuous
 62
     7
100
AcDbLine
 10
87.721138
 20
189.791756
 30
0.0
 11
87.707744
 21
189.719796
 31
0.0
  0
POLYLINE
  5
3B1
100
AcDbEntity
  8
1
390
0
  6
Continuous
 62
     7
100
AcDb2dPolyline
 66
     1
 10
0.0
 20
0.0
 30
0.0
 40
1.0
 41
1.0
  0
VERTEX
  5
3B2
100
AcDbEntity
  8
1
390
0
 62
     7
100
AcDbVertex
100
AcDb2dVertex
 10
87.707742
 20
189.719793
 30
0.0
  0
VERTEX
  5
3B3
100
AcDbEntity
  8
1
390
0
 62
     7
100
AcDbVertex
100
AcDb2dVertex
 10
87.64873
 20
189.637742
 30
0.0
  0
VERTEX
  5
3B4
100
AcDbEntity
  8
1
390
0
 62
     7
100
AcDbVertex
100
AcDb2dVertex
 10
87.624047
 20
189.620264
 30
0.0
  0
SEQEND
  5
3B5
100
AcDbEntity
  8
0
390
0
  0
LINE
  5
3B6
100
AcDbEntity
  8
1
390
0
  6
Continuous
 62
     7
100
AcDbLine
 10
87.624047
 20
189.620264
 30
0.0
 11
87.521138
 21
189.591756
 31
0.0
  0
LINE
  5
3B7
100
AcDbEntity
  8
1
390
0
  6
Continuous
 62
     7
100
AcDbLine
 10
87.721138
 20
189.791756
 30
0.0
 11
87.70733
 21
189.718733
 31
0.0
  0
POLYLINE
  5
3B8
100
AcDbEntity
  8
1
390
0
  6
Continuous
 62
     7
100
AcDb2dPolyline
 66
     1
 10
0.0
 20
0.0
 30
0.0
 40
1.0
 41
1.0
  0
VERTEX
  5
3B9
100
AcDbEntity
  8
1
390
0
 62
     7
100
AcDbVertex
100
AcDb2dVertex
 10
87.70733
 20
189.718733
 30
0.0
  0
VERTEX
  5
3BA
100
AcDbEntity
  8
1
390
0
 62
     7
100
AcDbVertex
100
AcDb2dVertex
 10
87.641914
 20
189.632341
 30
0.0
  0
VERTEX
  5
3BB
100
AcDbEntity
  8
1
390
0
 62
     7
100
AcDbVertex
100
AcDb2dVertex
 10
87.624047
 20
189.620264
 30
0.0
  0
SEQEND
  5
3BC
100
AcDbEntity
  8
0
390
0
  0
LINE
  5
3BD
100
AcDbEntity
  8
1
390
0
  6
Continuous
 62
     7
100
AcDbLine
 10
87.624047
 20
189.620264
 30
0.0
 11
87.521138
 21
189.591756
 31
0.0
  0
LINE
  5
3BE
100
AcDbEntity
  8
1
390
0
  6
DOT
 62
     9
100
AcDbLine
 10
83.321138
 20
203.591756
 30
0.0
 11
84.121138
 21
203.591756
 31
0.0
  0
LINE
  5
3BF
100
AcDbEntity
  8
1
390
0
  6
DOT
 62
     9
100
AcDbLine
 10
83.321138
 20
192.341756
 30
0.0
 11
83.321138
 21
194.591756
 31
0.0
  0
LINE
  5
3C0
100
AcDbEntity
  8
1
390
0
  6
DOT
 62
     9
100
AcDbLine
 10
84.121138
 20
192.341756
 30
0.0
 11
84.121138
 21
194.591756
 31
0.0
  0
LINE
  5
3C1
100
AcDbEntity
  8
1
390
0
  6
DOT
 62
     9
100
AcDbLine
 10
84.121138
 20
200.591756
 30
0.0
 11
84.121138
 21
203.591756
 31
0.0
  0
LINE
  5
3C2
100
AcDbEntity
  8
1
390
0
  6
DOT
 62
     9
100
AcDbLine
 10
84.121138
 20
194.591756
 30
0.0
 11
83.321138
 21
194.591756
 31
0.0
  0
LINE
  5
3C3
100
AcDbEntity
  8
1
390
0
  6
DOT
 62
     9
100
AcDbLine
 10
83.321138
 20
200.591756
 30
0.0
 11
84.121138
 21
200.591756
 31
0.0
  0
LINE
  5
3C4
100
AcDbEntity
  8
1
390
0
  6
DOT
 62
     9
100
AcDbLine
 10
83.321138
 20
200.591756
 30
0.0
 11
83.321138
 21
203.591756
 31
0.0
  0
ARC
  5
3C5
100
AcDbEntity
  8
1
390
0
  6
Continuous
 62
     7
100
AcDbCircle
 10
86.179691
 20
202.591756
 30
0.0
 40
1.0
210
0.0
220
0.0
230
1.0
100
AcDbArc
 50
20.487985
 51
90.0
  0
ARC
  5
3C6
100
AcDbEntity
  8
1
390
0
  6
Continuous
 62
     7
100
AcDbCircle
 10
86.179691
 20
201.091756
 30
0.0
 40
1.0
210
0.0
220
0.0
230
1.0
100
AcDbArc
 50
270.0
 51
339.512015
  0
ARC
  5
3C7
100
AcDbEntity
  8
1
390
0
  6
Continuous
 62
     7
100
AcDbCircle
 10
86.179691
 20
194.091756
 30
0.0
 40
1.0
210
0.0
220
0.0
230
1.0
100
AcDbArc
 50
20.487985
 51
90.0
  0
ARC
  5
3C8
100
AcDbEntity
  8
1
390
0
  6
Continuous
 62
     7
100
AcDbCircle
 10
86.179691
 20
192.591756
 30
0.0
 40
1.0
210
0.0
220
0.0
230
1.0
100
AcDbArc
 50
270.0
 51
339.512015
  0
LINE
  5
3C9
100
AcDbEntity
  8
1
390
0
  6
Continuous
 62
     7
100
AcDbLine
 10
85.971138
 20
200.091756
 30
0.0
 11
86.179691
 21
200.091756
 31
0.0
  0
LINE
  5
3CA
100
AcDbEntity
  8
1
390
0
  6
Continuous
 62
     7
100
AcDbLine
 10
86.179691
 20
203.591756
 30
0.0
 11
85.971138
 21
203.591756
 31
0.0
  0
LINE
  5
3CB
100
AcDbEntity
  8
1
390
0
  6
Continuous
 62
     7
100
AcDbLine
 10
85.971138
 20
191.591756
 30
0.0
 11
86.179691
 21
191.591756
 31
0.0
  0
LINE
  5
3CC
100
AcDbEntity
  8
1
390
0
  6
Continuous
 62
     7
100
AcDbLine
 10
86.179691
 20
195.091756
 30
0.0
 11
85.971138
 21
195.091756
 31
0.0
  0
LINE
  5
3CD
100
AcDbEntity
  8
1
390
0
  6
Continuous
 62
     7
100
AcDbLine
 10
80.171138
 20
192.341756
 30
0.0
 11
81.471138
 21
192.341756
 31
0.0
  0
LINE
  5
3CE
100
AcDbEntity
  8
1
390
0
  6
Continuous
 62
     7
100
AcDbLine
 10
81.471138
 20
194.341756
 30
0.0
 11
80.171138
 21
194.341756
 31
0.0
  0
LINE
  5
3CF
100
AcDbEntity
  8
1
390
0
  6
Continuous
 62
     7
100
AcDbLine
 10
80.171138
 20
200.841756
 30
0.0
 11
81.471138
 21
200.841756
 31
0.0
  0
LINE
  5
3D0
100
AcDbEntity
  8
1
390
0
  6
Continuous
 62
     7
100
AcDbLine
 10
81.471138
 20
202.841756
 30
0.0
 11
80.171138
 21
202.841756
 31
0.0
  0
LINE
  5
3D1
100
AcDbEntity
  8
1
390
0
  6
Continuous
 62
     7
100
AcDbLine
 10
80.171138
 20
202.841756
 30
0.0
 11
79.971138
 21
202.641756
 31
0.0
  0
LINE
  5
3D2
100
AcDbEntity
  8
1
390
0
  6
Continuous
 62
     7
100
AcDbLine
 10
79.971138
 20
201.041756
 30
0.0
 11
80.171138
 21
200.841756
 31
0.0
  0
LINE
  5
3D3
100
AcDbEntity
  8
1
390
0
  6
Continuous
 62
     7
100
AcDbLine
 10
82.471138
 20
200.841756
 30
0.0
 11
84.971138
 21
200.841756
 31
0.0
  0
LINE
  5
3D4
100
AcDbEntity
  8
1
390
0
  6
Continuous
 62
     7
100
AcDbLine
 10
84.971138
 20
202.841756
 30
0.0
 11
82.471138
 21
202.841756
 31
0.0
  0
LINE
  5
3D5
100
AcDbEntity
  8
1
390
0
  6
Continuous
 62
     7
100
AcDbLine
 10
82.471138
 20
192.341756
 30
0.0
 11
84.971138
 21
192.341756
 31
0.0
  0
LINE
  5
3D6
100
AcDbEntity
  8
1
390
0
  6
Continuous
 62
     7
100
AcDbLine
 10
84.971138
 20
194.341756
 30
0.0
 11
82.471138
 21
194.341756
 31
0.0
  0
LINE
  5
3D7
100
AcDbEntity
  8
1
390
0
  6
Continuous
 62
     7
100
AcDbLine
 10
80.171138
 20
194.341756
 30
0.0
 11
79.971138
 21
194.141756
 31
0.0
  0
LINE
  5
3D8
100
AcDbEntity
  8
1
390
0
  6
Continuous
 62
     7
100
AcDbLine
 10
79.971138
 20
192.541756
 30
0.0
 11
80.171138
 21
192.341756
 31
0.0
  0
ARC
  5
3D9
100
AcDbEntity
  8
1
390
0
  6
DOT
 62
     9
100
AcDbCircle
 10
87.521138
 20
204.761619
 30
0.0
 40
0.2
210
0.0
220
0.0
230
1.0
100
AcDbArc
 50
360.0
 51
90.0
  0
ARC
  5
3DA
100
AcDbEntity
  8
1
390
0
  6
DOT
 62
     9
100
AcDbCircle
 10
87.521138
 20
190.421893
 30
0.0
 40
0.2
210
0.0
220
0.0
230
1.0
100
AcDbArc
 50
270.0
 51
360.0
  0
ARC
  5
3DB
100
AcDbEntity
  8
1
390
0
  6
DOT
 62
     9
100
AcDbCircle
 10
79.921138
 20
204.761619
 30
0.0
 40
0.2
210
0.0
220
0.0
230
1.0
100
AcDbArc
 50
90.0
 51
180.0
  0
ARC
  5
3DC
100
AcDbEntity
  8
1
390
0
  6
DOT
 62
     9
100
AcDbCircle
 10
79.921138
 20
190.421893
 30
0.0
 40
0.2
210
0.0
220
0.0
230
1.0
100
AcDbArc
 50
180.0
 51
270.0
  0
LINE
  5
3DD
100
AcDbEntity
  8
1
390
0
  6
DOT
 62
     9
100
AcDbLine
 10
79.921138
 20
204.961619
 30
0.0
 11
87.521138
 21
204.961619
 31
0.0
  0
LINE
  5
3DE
100
AcDbEntity
  8
1
390
0
  6
DOT
 62
     9
100
AcDbLine
 10
87.521138
 20
190.221893
 30
0.0
 11
79.921138
 21
190.221893
 31
0.0
  0
ARC
  5
3DF
100
AcDbEntity
  8
1
390
0
  6
DOT
 62
     9
100
AcDbCircle
 10
87.521138
 20
204.762087
 30
0.0
 40
0.2
210
0.0
220
0.0
230
1.0
100
AcDbArc
 50
360.0
 51
90.0
  0
ARC
  5
3E0
100
AcDbEntity
  8
1
390
0
  6
DOT
 62
     9
100
AcDbCircle
 10
87.521138
 20
190.421425
 30
0.0
 40
0.2
210
0.0
220
0.0
230
1.0
100
AcDbArc
 50
270.0
 51
360.0
  0
ARC
  5
3E1
100
AcDbEntity
  8
1
390
0
  6
DOT
 62
     9
100
AcDbCircle
 10
79.921138
 20
204.762087
 30
0.0
 40
0.2
210
0.0
220
0.0
230
1.0
100
AcDbArc
 50
90.0
 51
180.0
  0
ARC
  5
3E2
100
AcDbEntity
  8
1
390
0
  6
DOT
 62
     9
100
AcDbCircle
 10
79.921138
 20
190.421425
 30
0.0
 40
0.2
210
0.0
220
0.0
230
1.0
100
AcDbArc
 50
180.0
 51
270.0
  0
LINE
  5
3E3
100
AcDbEntity
  8
1
390
0
  6
DOT
 62
     9
100
AcDbLine
 10
79.921138
 20
204.962087
 30
0.0
 11
87.521138
 21
204.962087
 31
0.0
  0
LINE
  5
3E4
100
AcDbEntity
  8
1
390
0
  6
DOT
 62
     9
100
AcDbLine
 10
87.521138
 20
190.221425
 30
0.0
 11
79.921138
 21
190.221425
 31
0.0
  0
LINE
  5
3E5
100
AcDbEntity
  8
1
390
0
  6
CENTER
 62
     1
100
AcDbLine
 10
85.171138
 20
201.841756
 30
0.0
 11
82.271138
 21
201.841756
 31
0.0
  0
LINE
  5
3E6
100
AcDbEntity
  8
1
390
0
  6
CENTER
 62
     1
100
AcDbLine
 10
86.379691
 20
193.341756
 30
0.0
 11
85.771138
 21
193.341756
 31
0.0
  0
LINE
  5
3E7
100
AcDbEntity
  8
1
390
0
  6
CENTER
 62
     1
100
AcDbLine
 10
85.171138
 20
193.341756
 30
0.0
 11
82.271138
 21
193.341756
 31
0.0
  0
LINE
  5
3E8
100
AcDbEntity
  8
1
390
0
  6
CENTER
 62
     1
100
AcDbLine
 10
86.379691
 20
201.841756
 30
0.0
 11
85.771138
 21
201.841756
 31
0.0
  0
LINE
  5
3E9
100
AcDbEntity
  8
1
390
0
  6
CENTER
 62
     1
100
AcDbLine
 10
81.521138
 20
197.591756
 30
0.0
 11
85.921138
 21
197.591756
 31
0.0
  0
LINE
  5
3EA
100
AcDbEntity
  8
1
390
0
  6
CENTER
 62
     1
100
AcDbLine
 10
83.721138
 20
195.391756
 30
0.0
 11
83.721138
 21
199.791756
 31
0.0
  0
LINE
  5
3EB
100
AcDbEntity
  8
1
390
0
  6
CENTER
 62
     1
100
AcDbLine
 10
79.771138
 20
193.341756
 30
0.0
 11
81.671138
 21
193.341756
 31
0.0
  0
LINE
  5
3EC
100
AcDbEntity
  8
1
390
0
  6
CENTER
 62
     1
100
AcDbLine
 10
79.771138
 20
201.841756
 30
0.0
 11
81.671138
 21
201.841756
 31
0.0
  0
LINE
  5
3ED
100
AcDbEntity
  8
1
390
0
  6
CENTER
 62
     1
100
AcDbLine
 10
299.80693
 20
120.504502
 30
0.0
 11
161.24199
 21
120.504502
 31
0.0
  0
POINT
  5
3EE
100
AcDbEntity
  8
5
390
0
 62
     9
100
AcDbPoint
 10
161.24199
 20
197.591756
 30
0.0
  0
POINT
  5
3EF
100
AcDbEntity
  8
5
390
0
 62
     9
100
AcDbPoint
 10
299.80693
 20
197.591756
 30
0.0
  0
POINT
  5
3F0
100
AcDbEntity
  8
5
390
0
 62
     9
100
AcDbPoint
 10
209.521751
 20
118.936129
 30
0.0
  0
POINT
  5
3F1
100
AcDbEntity
  8
5
390
0
 62
     9
100
AcDbPoint
 10
211.51489
 20
121.989448
 30
0.0
  0
LINE
  5
3F2
100
AcDbEntity
  8
1
390
0
  6
Continuous
 62
     9
100
AcDbLine
 10
209.521751
 20
118.936129
 30
0.0
 11
211.51489
 21
121.989448
 31
0.0
  0
POINT
  5
3F3
100
AcDbEntity
  8
5
390
0
 62
     9
100
AcDbPoint
 10
212.744699
 20
121.961176
 30
0.0
  0
POINT
  5
3F4
100
AcDbEntity
  8
5
390
0
 62
     9
100
AcDbPoint
 10
210.765696
 20
118.936129
 30
0.0
  0
LINE
  5
3F5
100
AcDbEntity
  8
1
390
0
  6
Continuous
 62
     9
100
AcDbLine
 10
212.744699
 20
121.961176
 30
0.0
 11
210.765696
 21
118.936129
 31
0.0
  0
POINT
  5
3F6
100
AcDbEntity
  8
5
390
0
 62
     9
100
AcDbPoint
 10
210.704309
 20
199.415666
 30
0.0
  0
POINT
  5
3F7
100
AcDbEntity
  8
5
390
0
 62
     9
100
AcDbPoint
 10
208.940169
 20
195.293685
 30
0.0
  0
LINE
  5
3F8
100
AcDbEntity
  8
1
390
0
  6
Continuous
 62
     9
100
AcDbLine
 10
210.704309
 20
199.415666
 30
0.0
 11
208.940169
 21
195.293685
 31
0.0
  0
POINT
  5
3F9
100
AcDbEntity
  8
5
390
0
 62
     9
100
AcDbPoint
 10
211.789934
 20
199.50048
 30
0.0
  0
POINT
  5
3FA
100
AcDbEntity
  8
5
390
0
 62
     9
100
AcDbPoint
 10
210.05972
 20
195.361537
 30
0.0
  0
LINE
  5
3FB
100
AcDbEntity
  8
1
390
0
  6
Continuous
 62
     9
100
AcDbLine
 10
211.789934
 20
199.50048
 30
0.0
 11
210.05972
 21
195.361537
 31
0.0
  0
INSERT
  5
413
100
AcDbEntity
  8
1
390
0
100
AcDbBlockReference
  2
AID2203
 10
0.0
 20
0.0
 30
0.0
  0
INSERT
  5
427
100
AcDbEntity
  8
1
390
0
100
AcDbBlockReference
  2
AID2217
 10
0.0
 20
0.0
 30
0.0
  0
INSERT
  5
43D
100
AcDbEntity
  8
1
390
0
100
AcDbBlockReference
  2
AID2227
 10
0.0
 20
0.0
 30
0.0
  0
INSERT
  5
452
100
AcDbEntity
  8
1
390
0
100
AcDbBlockReference
  2
AID2239
 10
0.0
 20
0.0
 30
0.0
  0
INSERT
  5
465
100
AcDbEntity
  8
1
390
0
100
AcDbBlockReference
  2
AID2250
 10
0.0
 20
0.0
 30
0.0
  0
LINE
  5
466
100
AcDbEntity
  8
1
390
0
  6
CENTER
 62
     1
100
AcDbLine
 10
162.896158
 20
197.083931
 30
0.0
 11
162.896158
 21
198.091756
 31
0.0
  0
POINT
  5
467
100
AcDbEntity
  8
5
390
0
 62
     1
100
AcDbPoint
 10
162.872672
 20
197.083931
 30
0.0
  0
INSERT
  5
479
100
AcDbEntity
  8
1
390
0
100
AcDbBlockReference
  2
AID2265
 10
0.0
 20
0.0
 30
0.0
  0
INSERT
  5
48B
100
AcDbEntity
  8
1
390
0
100
AcDbBlockReference
  2
AID2273
 10
0.0
 20
0.0
 30
0.0
  0
INSERT
  5
49B
100
AcDbEntity
  8
1
390
0
100
AcDbBlockReference
  2
AID2281
 10
0.0
 20
0.0
 30
0.0
  0
INSERT
  5
4AD
100
AcDbEntity
  8
1
390
0
100
AcDbBlockReference
  2
AID2291
 10
0.0
 20
0.0
 30
0.0
  0
INSERT
  5
4BB
100
AcDbEntity
  8
1
390
0
100
AcDbBlockReference
  2
AID2299
 10
0.0
 20
0.0
 30
0.0
  0
POINT
  5
4BC
100
AcDbEntity
  8
5
390
0
 62
     1
100
AcDbPoint
 10
298.729704
 20
193.466756
 30
0.0
  0
INSERT
  5
4D0
100
AcDbEntity
  8
1
390
0
100
AcDbBlockReference
  2
AID2309
 10
0.0
 20
0.0
 30
0.0
  0
POINT
  5
4D1
100
AcDbEntity
  8
1
390
0
 62
     1
100
AcDbPoint
 10
298.729704
 20
202.091756
 30
0.0
  0
INSERT
  5
4E3
100
AcDbEntity
  8
1
390
0
100
AcDbBlockReference
  2
AID2321
 10
0.0
 20
0.0
 30
0.0
  0
INSERT
  5
4F5
100
AcDbEntity
  8
1
390
0
100
AcDbBlockReference
  2
AID2329
 10
0.0
 20
0.0
 30
0.0
  0
POINT
  5
4F6
100
AcDbEntity
  8
1
390
0
 62
     1
100
AcDbPoint
 10
298.729704
 20
202.091756
 30
0.0
  0
INSERT
  5
508
100
AcDbEntity
  8
1
390
0
100
AcDbBlockReference
  2
AID2339
 10
0.0
 20
0.0
 30
0.0
  0
INSERT
  5
51A
100
AcDbEntity
  8
1
390
0
100
AcDbBlockReference
  2
AID2347
 10
0.0
 20
0.0
 30
0.0
  0
INSERT
  5
52C
100
AcDbEntity
  8
1
390
0
100
AcDbBlockReference
  2
AID2355
 10
0.0
 20
0.0
 30
0.0
  0
INSERT
  5
538
100
AcDbEntity
  8
1
390
0
100
AcDbBlockReference
  2
AID2363
 10
0.0
 20
0.0
 30
0.0
  0
INSERT
  5
549
100
AcDbEntity
  8
1
390
0
100
AcDbBlockReference
  2
AID2373
 10
0.0
 20
0.0
 30
0.0
  0
INSERT
  5
54E
100
AcDbEntity
  8
1
390
0
100
AcDbBlockReference
  2
AID2380
 10
0.0
 20
0.0
 30
0.0
  0
INSERT
  5
553
100
AcDbEntity
  8
1
390
0
100
AcDbBlockReference
  2
AID2384
 10
0.0
 20
0.0
 30
0.0
  0
INSERT
  5
558
100
AcDbEntity
  8
1
390
0
100
AcDbBlockReference
  2
AID2388
 10
0.0
 20
0.0
 30
0.0
  0
ENDSEC
  0
SECTION
  2
OBJECTS
  0
DICTIONARY
  5
19
100
AcDbDictionary
280
     0
281
     1
  3
ACAD_GROUP
350
1A
  3
ACAD_MLINESTYLE
350
1B
  3
ACAD_LAYOUT
350
1E
  3
ACAD_PLOTSETTINGS
350
22
  3
ACAD_PLOTSTYLENAME
350
1F
  3
ACAD_WIPEOUT_VARS
350
23
  0
DICTIONARY
  5
1A
102
{ACAD_REACTORS
330
19
102
}
100
AcDbDictionary
280
     0
281
     1
  0
DICTIONARY
  5
1B
102
{ACAD_REACTORS
330
19
102
}
100
AcDbDictionary
280
     0
281
     1
  3
Standard
350
1C
  0
MLINESTYLE
  5
1C
102
{ACAD_REACTORS
330
1B
102
}
100
AcDbMlineStyle
  2
Standard
 70
     0
  3

 62
     0
 51
90.0
 52
90.0
 71
     2
 49
0.5
 62
   256
  6
ByLayer
 49
-0.5
 62
   256
  6
ByLayer
  0
ACDBDICTIONARYWDFLT
  5
1F
102
{ACAD_REACTORS
330
19
102
}
100
AcDbDictionary
281
     1
  3
Normal
350
1D
100
AcDbDictionaryWithDefault
340
1D
  0
ACDBPLACEHOLDER
  5
1D
102
{ACAD_REACTORS
330
1F
102
}
  0
LAYOUT
  5
20
102
{ACAD_REACTORS
330
1E
102
}
100
AcDbPlotSettings
  1

  2

  4

  6

 40
0.0
 41
0.0
 42
0.0
 43
0.0
 44
0.0
 45
0.0
 46
0.0
 47
0.0
 48
0.0
 49
0.0
140
0.0
141
0.0
142
1.0
143
1.0
 70
  1024
 72
     0
 73
     0
 74
     0
  7

 75
     0
147
1.0
148
0.0
149
0.0
100
AcDbLayout
  1
Model
 70
     0
 71
     0
 10
0.0
 20
0.0
 11
0.0
 21
0.0
 12
0.0
 22
0.0
 32
0.0
 14
0.0
 24
0.0
 34
0.0
 15
0.0
 25
0.0
 35
0.0
146
0.0
 13
0.0
 23
0.0
 33
0.0
 16
0.0
 26
0.0
 36
0.0
 17
0.0
 27
0.0
 37
0.0
 76
     0
330
A
331
0
345
0
346
0
  0
LAYOUT
  5
21
102
{ACAD_REACTORS
330
1E
102
}
100
AcDbPlotSettings
  1

  2

  4

  6

 40
0.0
 41
0.0
 42
0.0
 43
0.0
 44
0.0
 45
0.0
 46
0.0
 47
0.0
 48
0.0
 49
0.0
140
0.0
141
0.0
142
1.0
143
1.0
 70
     0
 72
     0
 73
     0
 74
     0
  7

 75
     0
147
1.0
148
0.0
149
0.0
100
AcDbLayout
  1
Layout1
 70
     0
 71
     0
 10
0.0
 20
0.0
 11
0.0
 21
0.0
 12
0.0
 22
0.0
 32
0.0
 14
0.0
 24
0.0
 34
0.0
 15
0.0
 25
0.0
 35
0.0
146
0.0
 13
0.0
 23
0.0
 33
0.0
 16
0.0
 26
0.0
 36
0.0
 17
0.0
 27
0.0
 37
0.0
 76
     0
330
B
331
0
345
0
346
0
  0
DICTIONARY
  5
1E
102
{ACAD_REACTORS
330
19
102
}
100
AcDbDictionary
280
     0
281
     1
  3
Layout1
350
21
  3
Model
350
20
  0
DICTIONARY
  5
22
102
{ACAD_REACTORS
330
19
102
}
100
AcDbDictionary
280
     0
281
     1
  0
WIPEOUTVARIABLES
  5
23
100
AcDbWipeoutVariables
 70
     1
  0
ENDSEC
  0
EOF
