  0
SECTION
  2
HEADER
  9
$ACADVER
  1
AC1015
  9
$ACADMAINTVER
 70
     6
  9
$DWGCODEPAGE
  3
DOS932
  9
$INSBASE
 10
0.0
 20
0.0
 30
0.0
  9
$EXTMIN
 10
0.0
 20
0.0
 30
0.0
  9
$EXTMAX
 10
410.0
 20
287.0
 30
10.0
  9
$LIMMIN
 10
0.0
 20
0.0
  9
$LIMMAX
 10
410.0
 20
287.0
  9
$ORTHOMODE
 70
     0
  9
$REGENMODE
 70
     1
  9
$FILLMODE
 70
     1
  9
$QTEXTMODE
 70
     0
  9
$MIRRTEXT
 70
     1
  9
$LTSCALE
 40
10.0
  9
$ATTMODE
 70
     1
  9
$TEXTSIZE
 40
0.2
  9
$TRACEWID
 40
0.05
  9
$TEXTSTYLE
  7
Standard
  9
$CLAYER
  8
0
  9
$CELTYPE
  6
Continuous
  9
$CECOLOR
 62
   256
  9
$CELTSCALE
 40
1.0
  9
$DISPSILH
 70
     0
  9
$DIMSCALE
 40
1.0
  9
$DIMASZ
 40
3.2
  9
$DIMEXO
 40
3.2
  9
$DIMDLI
 40
0.38
  9
$DIMRND
 40
0.0
  9
$DIMDLE
 40
0.0
  9
$DIMEXE
 40
2.4
  9
$DIMTP
 40
0.0
  9
$DIMTM
 40
0.0
  9
$DIMTXT
 40
8.0
  9
$DIMCEN
 40
0.09
  9
$DIMTSZ
 40
0.0
  9
$DIMTOL
 70
     0
  9
$DIMLIM
 70
     0
  9
$DIMTIH
 70
     0
  9
$DIMTOH
 70
     0
  9
$DIMSE1
 70
     0
  9
$DIMSE2
 70
     0
  9
$DIMTAD
 70
     1
  9
$DIMZIN
 70
     0
  9
$DIMBLK
  1

  9
$DIMASO
 70
     1
  9
$DIMSHO
 70
     1
  9
$DIMPOST
  1

  9
$DIMAPOST
  1

  9
$DIMALT
 70
     0
  9
$DIMALTD
 70
     2
  9
$DIMALTF
 40
25.4
  9
$DIMLFAC
 40
1.0
  9
$DIMTOFL
 70
     0
  9
$DIMTVP
 40
0.0
  9
$DIMTIX
 70
     0
  9
$DIMSOXD
 70
     0
  9
$DIMSAH
 70
     0
  9
$DIMBLK1
  1

  9
$DIMBLK2
  1

  9
$DIMSTYLE
  2
Standard
  9
$DIMCLRD
 70
     7
  9
$DIMCLRE
 70
     7
  9
$DIMCLRT
 70
     7
  9
$DIMTFAC
 40
0.6
  9
$DIMGAP
 40
4.0
  9
$DIMJUST
 70
     0
  9
$DIMSD1
 70
     0
  9
$DIMSD2
 70
     0
  9
$DIMTOLJ
 70
     1
  9
$DIMTZIN
 70
     0
  9
$DIMALTZ
 70
     0
  9
$DIMALTTZ
 70
     0
  9
$DIMUPT
 70
     0
  9
$DIMDEC
 70
     6
  9
$DIMTDEC
 70
     4
  9
$DIMALTU
 70
     2
  9
$DIMALTTD
 70
     2
  9
$DIMTXSTY
  7
Standard
  9
$DIMAUNIT
 70
     0
  9
$DIMADEC
 70
     0
  9
$DIMALTRND
 40
0.0
  9
$DIMAZIN
 70
     0
  9
$DIMDSEP
 70
     0
  9
$DIMATFIT
 70
     3
  9
$DIMFRAC
 70
     0
  9
$DIMLDRBLK
  1

  9
$DIMLUNIT
 70
     2
  9
$DIMLWD
 70
     0
  9
$DIMLWE
 70
     0
  9
$DIMTMOVE
 70
     0
  9
$LUNITS
 70
     2
  9
$LUPREC
 70
     4
  9
$SKETCHINC
 40
0.1
  9
$FILLETRAD
 40
0.0
  9
$AUNITS
 70
     0
  9
$AUPREC
 70
     0
  9
$MENU
  1
acad
  9
$ELEVATION
 40
0.0
  9
$PELEVATION
 40
0.0
  9
$THICKNESS
 40
0.0
  9
$LIMCHECK
 70
     0
  9
$CHAMFERA
 40
0.0
  9
$CHAMFERB
 40
0.0
  9
$CHAMFERC
 40
0.0
  9
$CHAMFERD
 40
0.0
  9
$SKPOLY
 70
     0
  9
$TDCREATE
 40
2458421.495405092
  9
$TDUCREATE
 40
0.000000000
  9
$TDUPDATE
 40
2458421.120358796
  9
$TDUUPDATE
 40
0.000000000
  9
$TDINDWG
 40
0.0000000000
  9
$TDUSRTIMER
 40
0.0000000000
  9
$USRTIMER
 70
     1
  9
$ANGBASE
 50
0.0
  9
$ANGDIR
 70
     0
  9
$PDMODE
 70
     0
  9
$PDSIZE
 40
0.0
  9
$PLINEWID
 40
0.0
  9
$SPLFRAME
 70
     0
  9
$SPLINETYPE
 70
     6
  9
$SPLINESEGS
 70
     8
  9
$HANDSEED
  5
4AE
  9
$SURFTAB1
 70
     6
  9
$SURFTAB2
 70
     6
  9
$SURFTYPE
 70
     6
  9
$SURFU
 70
     6
  9
$SURFV
 70
     6
  9
$UCSBASE
  2

  9
$UCSNAME
  2

  9
$UCSORG
 10
0.0
 20
0.0
 30
0.0
  9
$UCSXDIR
 10
1.0
 20
0.0
 30
0.0
  9
$UCSYDIR
 10
0.0
 20
1.0
 30
0.0
  9
$UCSORTHOREF
  2

  9
$UCSORTHOVIEW
 70
     0
  9
$UCSORGTOP
 10
0.0
 20
0.0
 30
0.0
  9
$UCSORGBOTTOM
 10
0.0
 20
0.0
 30
0.0
  9
$UCSORGLEFT
 10
0.0
 20
0.0
 30
0.0
  9
$UCSORGRIGHT
 10
0.0
 20
0.0
 30
0.0
  9
$UCSORGFRONT
 10
0.0
 20
0.0
 30
0.0
  9
$UCSORGBACK
 10
0.0
 20
0.0
 30
0.0
  9
$PUCSBASE
  2

  9
$PUCSNAME
  2

  9
$PUCSORG
 10
0.0
 20
0.0
 30
0.0
  9
$PUCSXDIR
 10
1.0
 20
0.0
 30
0.0
  9
$PUCSYDIR
 10
0.0
 20
1.0
 30
0.0
  9
$PUCSORTHOREF
  2

  9
$PUCSORTHOVIEW
 70
     0
  9
$PUCSORGTOP
 10
0.0
 20
0.0
 30
0.0
  9
$PUCSORGBOTTOM
 10
0.0
 20
0.0
 30
0.0
  9
$PUCSORGLEFT
 10
0.0
 20
0.0
 30
0.0
  9
$PUCSORGRIGHT
 10
0.0
 20
0.0
 30
0.0
  9
$PUCSORGFRONT
 10
0.0
 20
0.0
 30
0.0
  9
$PUCSORGBACK
 10
0.0
 20
0.0
 30
0.0
  9
$USERI1
 70
     0
  9
$USERI2
 70
     0
  9
$USERI3
 70
     0
  9
$USERI4
 70
     0
  9
$USERI5
 70
     0
  9
$USERR1
 40
0.0
  9
$USERR2
 40
0.0
  9
$USERR3
 40
0.0
  9
$USERR4
 40
0.0
  9
$USERR5
 40
0.0
  9
$WORLDVIEW
 70
     1
  9
$SHADEDGE
 70
     3
  9
$SHADEDIF
 70
    70
  9
$TILEMODE
 70
     1
  9
$MAXACTVP
 70
    16
  9
$PINSBASE
 10
0.0
 20
0.0
 30
0.0
  9
$PLIMCHECK
 70
     0
  9
$PEXTMIN
 10
1.000000E+20
 20
1.000000E+20
 30
1.000000E+20
  9
$PEXTMAX
 10
-1.000000E+20
 20
-1.000000E+20
 30
-1.000000E+20
  9
$PLIMMIN
 10
0.0
 20
0.0
  9
$PLIMMAX
 10
12.0
 20
9.0
  9
$UNITMODE
 70
     0
  9
$VISRETAIN
 70
     0
  9
$PLINEGEN
 70
     1
  9
$PSLTSCALE
 70
     0
  9
$TREEDEPTH
 70
  3020
  9
$CMLSTYLE
  2
Standard
  9
$CMLJUST
 70
     0
  9
$CMLSCALE
 40
1.0
  9
$PROXYGRAPHICS
 70
     0
  9
$MEASUREMENT
 70
     0
  9
$CELWEIGHT
370
     0
  9
$ENDCAPS
280
     0
  9
$JOINSTYLE
280
     0
  9
$LWDISPLAY
290
     0
  9
$INSUNITS
 70
     0
  9
$HYPERLINKBASE
  1

  9
$STYLESHEET
  1

  9
$XEDIT
290
     1
  9
$CEPSNTYPE
380
     0
  9
$PSTYLEMODE
290
     1
  9
$FINGERPRINTGUID
  2

  9
$VERSIONGUID
  2

  9
$EXTNAMES
290
     1
  9
$PSVPSCALE
 40
0.0
  0
ENDSEC
  0
SECTION
  2
CLASSES
  0
CLASS
  1
LWPOLYLINE
  2
AcDbPolyline
  3
AutoCAD 2000
 90
        0
280
     0
281
     1
  0
CLASS
  1
IMAGE
  2
AcDbRasterImage
  3
ISM
 90
      127
280
     0
281
     1
  0
CLASS
  1
OLE2FRAME
  2
AcDbOle2Frame
  3
AutoCAD 2000
 90
        0
280
     0
281
     1
  0
CLASS
  1
HATCH
  2
AcDbHatch
  3
AutoCAD 2000
 90
        0
280
     0
281
     1
  0
CLASS
  1
DICTIONARYVAR
  2
AcDbDictionaryVar
  3
AutoCAD 2000
 90
        0
280
     0
281
     0
  0
CLASS
  1
RASTERVARIABLES
  2
AcDbRasterVariables
  3
ISM
 90
        0
280
     0
281
     0
  0
CLASS
  1
IMAGEDEF
  2
AcDbRasterImageDef
  3
ISM
 90
        0
280
     0
281
     0
  0
CLASS
  1
IMAGEDEF_REACTOR
  2
AcDbRasterImageDefReactor
  3
ISM
 90
        1
280
     0
281
     0
  0
CLASS
  1
IDBUFFER
  2
AcDbIdBuffer
  3
AutoCAD 2000
 90
        0
280
     0
281
     0
  0
CLASS
  1
SPATIAL_FILTER
  2
AcDbSpatialFilter
  3
AutoCAD 2000
 90
        0
280
     0
281
     0
  0
CLASS
  1
XRECORD
  2
AcDbXrecord
  3
AutoCAD 2000
 90
        0
280
     0
281
     0
  0
CLASS
  1
SORTENTSTABLE
  2
AcDbSortentsTable
  3
AutoCAD 2000
 90
        0
280
     0
281
     0
  0
CLASS
  1
LAYER_INDEX
  2
AcDbLayerIndex
  3
AutoCAD 2000
 90
        0
280
     0
281
     0
  0
CLASS
  1
SPATIAL_INDEX
  2
AcDbSpatialIndex
  3
AutoCAD 2000
 90
        0
280
     0
281
     0
  0
CLASS
  1
OBJECT_PTR
  2
CAseDLPNTableRecord
  3
"ASE-LPNTableRecord"
 90
        1
280
     0
281
     0
  0
CLASS
  1
LAYOUT
  2
AcDbLayout
  3
AutoCAD 2000
 90
        0
280
     0
281
     0
  0
CLASS
  1
PLOTSETTINGS
  2
AcDbPlotSettings
  3
AutoCAD 2000
 90
        0
280
     0
281
     0
  0
CLASS
  1
ACDBDICTIONARYWDFLT
  2
AcDbDictionaryWithDefault
  3
AutoCAD 2000
 90
        0
280
     0
281
     0
  0
CLASS
  1
ACDBPLACEHOLDER
  2
AcDbPlaceHolder
  3
AutoCAD 2000
 90
        0
280
     0
281
     0
  0
CLASS
  1
VBA_PROJECT
  2
AcDbVbaProject
  3
acadvba
 90
        0
280
     0
281
     0
  0
CLASS
  1
WIPEOUT
  2
AcDbWipeout
  3
WipeOut|AutoCAD Express Tool|expresstools@autodesk.com
 90
      127
280
     0
281
     1
  0
CLASS
  1
WIPEOUTVARIABLES
  2
AcDbWipeoutVariables
  3
WipeOut|AutoCAD Express Tool|expresstools@autodesk.com
 90
        0
280
     0
281
     0
  0
CLASS
  1
RTEXT
  2
RText
  3
RText|AutoCAD Express Tool|expresstools@autodesk.com
 90
        0
280
     0
281
     1
  0
CLASS
  1
ARCALIGNEDTEXT
  2
AcDbArcAlignedText
  3
ATEXT|AutoCAD Express Tool|expresstools@autodesk.com
 90
        0
280
     0
281
     1
  0
ENDSEC
  0
SECTION
  2
TABLES
  0
TABLE
  2
VPORT
  5
7
100
AcDbSymbolTable
 70
     1
  0
VPORT
  5
15
100
AcDbSymbolTableRecord
100
AcDbViewportTableRecord
  2
*ACTIVE
 70
     0
 10
0.0
 20
0.0
 11
1.0
 21
1.0
 12
6.591288
 22
4.579184
 13
0.0
 23
0.0
 14
1.0
 24
1.0
 15
0.0
 25
0.0
 16
0.0
 26
0.0
 36
1.0
 17
0.0
 27
0.0
 37
0.0
 40
9.158369
 41
0.688564
 42
50.0
 43
0.0
 44
0.0
 50
0.0
 51
0.0
 71
     0
 72
   100
 73
     1
 74
     1
 75
     0
 76
     0
 77
     0
 78
     0
281
     0
 65
     0
110
0.0
120
0.0
130
0.0
111
1.0
121
0.0
131
0.0
112
0.0
122
1.0
132
0.0
345
0
346
0
 79
     0
146
0.0
  0
ENDTAB
  0
TABLE
  2
LTYPE
  5
4
100
AcDbSymbolTable
 70
     5
  0
LTYPE
  5
11
100
AcDbSymbolTableRecord
100
AcDbLinetypeTableRecord
  2
ByBlock
 70
    64
  3

 72
    65
 73
     0
 40
0.0
  0
LTYPE
  5
12
100
AcDbSymbolTableRecord
100
AcDbLinetypeTableRecord
  2
ByLayer
 70
    64
  3

 72
    65
 73
     0
 40
0.0
  0
LTYPE
  5
13
100
AcDbSymbolTableRecord
100
AcDbLinetypeTableRecord
  2
Continuous
 70
    64
  3
Solid line
 72
    65
 73
     0
 40
0.0
  0
LTYPE
  5
169
100
AcDbSymbolTableRecord
100
AcDbLinetypeTableRecord
  2
DOT
 70
    64
  3
..............................................
 72
    65
 73
     2
 40
0.5
 49
0.25
 74
     0
 49
-0.25
 74
     0
  0
LTYPE
  5
1CC
100
AcDbSymbolTableRecord
100
AcDbLinetypeTableRecord
  2
CENTER
 70
    64
  3
____ _ ____ _ ____ _ ____ _ ____ _ ____ _ ____
 72
    65
 73
     4
 40
2.0
 49
1.25
 74
     0
 49
-0.25
 74
     0
 49
0.25
 74
     0
 49
-0.25
 74
     0
  0
ENDTAB
  0
TABLE
  2
LAYER
  5
2
100
AcDbSymbolTable
 70
     4
  0
LAYER
  5
14
100
AcDbSymbolTableRecord
100
AcDbLayerTableRecord
  2
0
 70
     0
 62
     7
  6
Continuous
290
     1
370
    -3
390
1D
  0
LAYER
  5
27
100
AcDbSymbolTableRecord
100
AcDbLayerTableRecord
  2
256
 70
     0
 62
     7
  6
Continuous
290
     1
370
    -3
390
1D
  0
LAYER
  5
B8
100
AcDbSymbolTableRecord
100
AcDbLayerTableRecord
  2
1
 70
     0
 62
     7
  6
Continuous
290
     1
370
    -3
390
1D
  0
LAYER
  5
1CE
100
AcDbSymbolTableRecord
100
AcDbLayerTableRecord
  2
5
 70
     0
 62
     7
  6
Continuous
290
     1
370
    -3
390
1D
  0
ENDTAB
  0
TABLE
  2
STYLE
  5
3
100
AcDbSymbolTable
 70
     1
  0
STYLE
  5
17
100
AcDbSymbolTableRecord
100
AcDbTextStyleTableRecord
  2
Standard
 70
     0
 40
0.0
 41
1.0
 50
0.0
 71
     0
 42
0.0
  3
ＭＳ Ｐゴシック
  4

1001
ACAD
1000
ＭＳ Ｐゴシック
1071
        0
  0
ENDTAB
  0
TABLE
  2
VIEW
  5
5
100
AcDbSymbolTable
 70
     0
  0
ENDTAB
  0
TABLE
  2
UCS
  5
6
100
AcDbSymbolTable
 70
     0
  0
ENDTAB
  0
TABLE
  2
APPID
  5
8
100
AcDbSymbolTable
 70
     2
  0
APPID
  5
16
100
AcDbSymbolTableRecord
100
AcDbRegAppTableRecord
  2
ACAD
 70
     0
  0
APPID
  5
26
100
AcDbSymbolTableRecord
100
AcDbRegAppTableRecord
  2
TOPsolid_Design
 70
     0
  0
ENDTAB
  0
TABLE
  2
DIMSTYLE
  5
9
100
AcDbSymbolTable
 70
     1
100
AcDbDimStyleTable
 71
     0
  0
DIMSTYLE
105
18
100
AcDbSymbolTableRecord
100
AcDbDimStyleTableRecord
  2
Standard
 70
     0
  3

  4

 40
1.0
 41
3.2
 42
3.2
 43
0.38
 44
2.4
 45
0.0
 46
0.0
 47
0.0
 48
0.0
 71
     0
 72
     0
 73
     0
 74
     0
 75
     0
 76
     0
 77
     1
 78
     0
 79
     0
140
8.0
141
0.09
142
0.0
143
25.4
144
1.0
145
0.0
146
0.6
147
4.0
148
0.0
170
     0
171
     2
172
     0
173
     0
174
     0
175
     0
176
     7
177
     7
178
     7
179
     0
271
     6
272
     4
273
     2
274
     2
275
     0
276
     0
277
     2
278
    46
279
     0
280
     0
281
     0
282
     0
283
     1
284
     0
285
     0
286
     0
288
     0
289
     3
340
17
341
0
342
0
343
0
344
0
371
    -2
372
    -2
  0
ENDTAB
  0
TABLE
  2
BLOCK_RECORD
  5
1
100
AcDbSymbolTable
 70
    20
  0
BLOCK_RECORD
  5
A
100
AcDbSymbolTableRecord
100
AcDbBlockTableRecord
  2
*MODEL_SPACE
340
20
  0
BLOCK_RECORD
  5
B
100
AcDbSymbolTableRecord
100
AcDbBlockTableRecord
  2
*PAPER_SPACE
340
21
  0
BLOCK_RECORD
  5
B3
100
AcDbSymbolTableRecord
100
AcDbBlockTableRecord
  2
AID278
340
0
102
{BLKREFS
331
B7
102
}
  0
BLOCK_RECORD
  5
2DF
100
AcDbSymbolTableRecord
100
AcDbBlockTableRecord
  2
AID1001
340
0
102
{BLKREFS
331
2F3
102
}
  0
BLOCK_RECORD
  5
2F4
100
AcDbSymbolTableRecord
100
AcDbBlockTableRecord
  2
AID1020
340
0
102
{BLKREFS
331
308
102
}
  0
BLOCK_RECORD
  5
3AA
100
AcDbSymbolTableRecord
100
AcDbBlockTableRecord
  2
AID1329
340
0
102
{BLKREFS
331
3B9
102
}
  0
BLOCK_RECORD
  5
3BA
100
AcDbSymbolTableRecord
100
AcDbBlockTableRecord
  2
AID1346
340
0
102
{BLKREFS
331
3C7
102
}
  0
BLOCK_RECORD
  5
3C8
100
AcDbSymbolTableRecord
100
AcDbBlockTableRecord
  2
AID1359
340
0
102
{BLKREFS
331
3D9
102
}
  0
BLOCK_RECORD
  5
3DA
100
AcDbSymbolTableRecord
100
AcDbBlockTableRecord
  2
AID1372
340
0
102
{BLKREFS
331
3EC
102
}
  0
BLOCK_RECORD
  5
3ED
100
AcDbSymbolTableRecord
100
AcDbBlockTableRecord
  2
AID1387
340
0
102
{BLKREFS
331
3FD
102
}
  0
BLOCK_RECORD
  5
3FE
100
AcDbSymbolTableRecord
100
AcDbBlockTableRecord
  2
AID1398
340
0
102
{BLKREFS
331
40F
102
}
  0
BLOCK_RECORD
  5
411
100
AcDbSymbolTableRecord
100
AcDbBlockTableRecord
  2
AID1413
340
0
102
{BLKREFS
331
424
102
}
  0
BLOCK_RECORD
  5
425
100
AcDbSymbolTableRecord
100
AcDbBlockTableRecord
  2
AID1430
340
0
102
{BLKREFS
331
436
102
}
  0
BLOCK_RECORD
  5
437
100
AcDbSymbolTableRecord
100
AcDbBlockTableRecord
  2
AID1443
340
0
102
{BLKREFS
331
448
102
}
  0
BLOCK_RECORD
  5
449
100
AcDbSymbolTableRecord
100
AcDbBlockTableRecord
  2
AID1456
340
0
102
{BLKREFS
331
45A
102
}
  0
BLOCK_RECORD
  5
45B
100
AcDbSymbolTableRecord
100
AcDbBlockTableRecord
  2
AID1469
340
0
102
{BLKREFS
331
46C
102
}
  0
BLOCK_RECORD
  5
46D
100
AcDbSymbolTableRecord
100
AcDbBlockTableRecord
  2
AID1482
340
0
102
{BLKREFS
331
47E
102
}
  0
BLOCK_RECORD
  5
47F
100
AcDbSymbolTableRecord
100
AcDbBlockTableRecord
  2
AID1495
340
0
102
{BLKREFS
331
490
102
}
  0
BLOCK_RECORD
  5
493
100
AcDbSymbolTableRecord
100
AcDbBlockTableRecord
  2
AID1512
340
0
102
{BLKREFS
331
497
102
}
  0
BLOCK_RECORD
  5
498
100
AcDbSymbolTableRecord
100
AcDbBlockTableRecord
  2
AID1515
340
0
102
{BLKREFS
331
49C
102
}
  0
BLOCK_RECORD
  5
49D
100
AcDbSymbolTableRecord
100
AcDbBlockTableRecord
  2
AID1518
340
0
102
{BLKREFS
331
4A1
102
}
  0
BLOCK_RECORD
  5
4A2
100
AcDbSymbolTableRecord
100
AcDbBlockTableRecord
  2
AID1521
340
0
102
{BLKREFS
331
4AD
102
}
  0
ENDTAB
  0
ENDSEC
  0
SECTION
  2
BLOCKS
  0
BLOCK
  5
D
100
AcDbEntity
  8
0
390
0
100
AcDbBlockBegin
  2
*MODEL_SPACE
 70
     0
 10
0.0
 20
0.0
 30
0.0
  3
*MODEL_SPACE
  1

  0
ENDBLK
  5
E
100
AcDbEntity
  8
0
390
0
100
AcDbBlockEnd
  0
BLOCK
  5
F
100
AcDbEntity
 67
     1
  8
0
390
0
100
AcDbBlockBegin
  2
*PAPER_SPACE
 70
     0
 10
0.0
 20
0.0
 30
0.0
  3
*PAPER_SPACE
  1

  0
ENDBLK
  5
10
100
AcDbEntity
 67
     1
  8
0
390
0
100
AcDbBlockEnd
  0
BLOCK
  5
B4
100
AcDbEntity
  8
0
390
0
100
AcDbBlockBegin
  2
AID278
 70
     0
 10
0.0
 20
0.0
 30
0.0
  3
D_GROUP
  1

  0
MTEXT
  5
B5
100
AcDbEntity
  8
256
390
0
 62
     7
100
AcDbMText
 10
406.171318
 20
6.951938
 30
0.0
 40
3.0
 41
7.472727
 71
     7
 72
     1
  1
A3
210
0.0
220
0.0
230
1.0
 73
     1
 44
1.0
  0
ENDBLK
  5
B6
100
AcDbEntity
  8
0
390
0
100
AcDbBlockEnd
  0
BLOCK
  5
2E0
100
AcDbEntity
  8
0
390
0
100
AcDbBlockBegin
  2
AID1001
 70
     0
 10
0.0
 20
0.0
 30
0.0
  3
D_GROUP
  1

  0
MTEXT
  5
2E1
100
AcDbEntity
  8
1
390
0
 62
     2
100
AcDbMText
 10
119.228473
 20
201.990071
 30
0.0
 40
6.0
 41
9.490909
 71
     7
 72
     1
  1
Φ
210
0.0
220
0.0
230
1.0
 11
0.0
 21
1.0
 31
0.0
 73
     1
 44
1.0
  0
MTEXT
  5
2E2
100
AcDbEntity
  8
1
390
0
 62
     2
100
AcDbMText
 10
119.228473
 20
207.935526
 30
0.0
 40
6.0
 41
6.054545
 71
     7
 72
     1
  1
4
210
0.0
220
0.0
230
1.0
 11
0.0
 21
1.0
 31
0.0
 73
     1
 44
1.0
  0
MTEXT
  5
2E3
100
AcDbEntity
  8
1
390
0
 62
     2
100
AcDbMText
 10
120.428473
 20
214.208253
 30
0.0
 40
4.2
 41
25.696364
 71
     7
 72
     1
  1
-0.008
210
0.0
220
0.0
230
1.0
 11
0.0
 21
1.0
 31
0.0
 73
     1
 44
1.0
  0
MTEXT
  5
2E4
100
AcDbEntity
  8
1
390
0
 62
     2
100
AcDbMText
 10
115.5412
 20
214.208253
 30
0.0
 40
4.2
 41
4.2
 71
     7
 72
     1
  1
 0
210
0.0
220
0.0
230
1.0
 11
0.0
 21
1.0
 31
0.0
 73
     1
 44
1.0
  0
LINE
  5
2E5
100
AcDbEntity
  8
1
390
0
  6
Continuous
 62
    11
100
AcDbLine
 10
121.609382
 20
227.790071
 30
0.0
 11
121.609382
 21
183.78098
 31
0.0
  0
LINE
  5
2E6
100
AcDbEntity
  8
1
390
0
  6
Continuous
 62
    11
100
AcDbLine
 10
134.131403
 20
196.78098
 30
0.0
 11
119.809382
 21
196.78098
 31
0.0
  0
LINE
  5
2E7
100
AcDbEntity
  8
1
390
0
  6
Continuous
 62
    11
100
AcDbLine
 10
134.131403
 20
192.78098
 30
0.0
 11
119.809382
 21
192.78098
 31
0.0
  0
POLYLINE
  5
2E8
100
AcDbEntity
  8
1
390
0
  6
Continuous
 62
    11
100
AcDb2dPolyline
 66
     1
 10
0.0
 20
0.0
 30
0.0
 40
3.0
 41
3.0
  0
VERTEX
  5
2E9
100
AcDbEntity
  8
1
390
0
 62
    11
100
AcDbVertex
100
AcDb2dVertex
 10
120.709382
 20
201.28098
 30
0.0
  0
VERTEX
  5
2EA
100
AcDbEntity
  8
1
390
0
 62
    11
100
AcDbVertex
100
AcDb2dVertex
 10
121.609382
 20
196.78098
 30
0.0
  0
VERTEX
  5
2EB
100
AcDbEntity
  8
1
390
0
 62
    11
100
AcDbVertex
100
AcDb2dVertex
 10
122.509382
 20
201.28098
 30
0.0
  0
SEQEND
  5
2EC
100
AcDbEntity
  8
0
390
0
  0
POLYLINE
  5
2ED
100
AcDbEntity
  8
1
390
0
  6
Continuous
 62
    11
100
AcDb2dPolyline
 66
     1
 10
0.0
 20
0.0
 30
0.0
 40
3.0
 41
3.0
  0
VERTEX
  5
2EE
100
AcDbEntity
  8
1
390
0
 62
    11
100
AcDbVertex
100
AcDb2dVertex
 10
122.509382
 20
188.28098
 30
0.0
  0
VERTEX
  5
2EF
100
AcDbEntity
  8
1
390
0
 62
    11
100
AcDbVertex
100
AcDb2dVertex
 10
121.609382
 20
192.78098
 30
0.0
  0
VERTEX
  5
2F0
100
AcDbEntity
  8
1
390
0
 62
    11
100
AcDbVertex
100
AcDb2dVertex
 10
120.709382
 20
188.28098
 30
0.0
  0
SEQEND
  5
2F1
100
AcDbEntity
  8
0
390
0
  0
ENDBLK
  5
2F2
100
AcDbEntity
  8
0
390
0
100
AcDbBlockEnd
  0
BLOCK
  5
2F5
100
AcDbEntity
  8
0
390
0
100
AcDbBlockBegin
  2
AID1020
 70
     0
 10
0.0
 20
0.0
 30
0.0
  3
D_GROUP
  1

  0
MTEXT
  5
2F6
100
AcDbEntity
  8
1
390
0
 62
     2
100
AcDbMText
 10
109.247564
 20
203.490071
 30
0.0
 40
6.0
 41
9.490909
 71
     7
 72
     1
  1
Φ
210
0.0
220
0.0
230
1.0
 11
0.0
 21
1.0
 31
0.0
 73
     1
 44
1.0
  0
MTEXT
  5
2F7
100
AcDbEntity
  8
1
390
0
 62
     2
100
AcDbMText
 10
109.247564
 20
209.435526
 30
0.0
 40
6.0
 41
5.181818
 71
     7
 72
     1
  1
7
210
0.0
220
0.0
230
1.0
 11
0.0
 21
1.0
 31
0.0
 73
     1
 44
1.0
  0
MTEXT
  5
2F8
100
AcDbEntity
  8
1
390
0
 62
     2
100
AcDbMText
 10
110.447564
 20
215.490071
 30
0.0
 40
4.2
 41
14.547273
 71
     7
 72
     1
  1
-0.1
210
0.0
220
0.0
230
1.0
 11
0.0
 21
1.0
 31
0.0
 73
     1
 44
1.0
  0
MTEXT
  5
2F9
100
AcDbEntity
  8
1
390
0
 62
     2
100
AcDbMText
 10
105.560291
 20
215.490071
 30
0.0
 40
4.2
 41
4.2
 71
     7
 72
     1
  1
 0
210
0.0
220
0.0
230
1.0
 11
0.0
 21
1.0
 31
0.0
 73
     1
 44
1.0
  0
LINE
  5
2FA
100
AcDbEntity
  8
1
390
0
  6
Continuous
 62
    11
100
AcDbLine
 10
111.609382
 20
223.497344
 30
0.0
 11
111.609382
 21
182.28098
 31
0.0
  0
LINE
  5
2FB
100
AcDbEntity
  8
1
390
0
  6
Continuous
 62
    11
100
AcDbLine
 10
142.131403
 20
198.28098
 30
0.0
 11
109.809382
 21
198.28098
 31
0.0
  0
LINE
  5
2FC
100
AcDbEntity
  8
1
390
0
  6
Continuous
 62
    11
100
AcDbLine
 10
142.131403
 20
191.28098
 30
0.0
 11
109.809382
 21
191.28098
 31
0.0
  0
POLYLINE
  5
2FD
100
AcDbEntity
  8
1
390
0
  6
Continuous
 62
    11
100
AcDb2dPolyline
 66
     1
 10
0.0
 20
0.0
 30
0.0
 40
3.0
 41
3.0
  0
VERTEX
  5
2FE
100
AcDbEntity
  8
1
390
0
 62
    11
100
AcDbVertex
100
AcDb2dVertex
 10
110.709382
 20
202.78098
 30
0.0
  0
VERTEX
  5
2FF
100
AcDbEntity
  8
1
390
0
 62
    11
100
AcDbVertex
100
AcDb2dVertex
 10
111.609382
 20
198.28098
 30
0.0
  0
VERTEX
  5
300
100
AcDbEntity
  8
1
390
0
 62
    11
100
AcDbVertex
100
AcDb2dVertex
 10
112.509382
 20
202.78098
 30
0.0
  0
SEQEND
  5
301
100
AcDbEntity
  8
0
390
0
  0
POLYLINE
  5
302
100
AcDbEntity
  8
1
390
0
  6
Continuous
 62
    11
100
AcDb2dPolyline
 66
     1
 10
0.0
 20
0.0
 30
0.0
 40
3.0
 41
3.0
  0
VERTEX
  5
303
100
AcDbEntity
  8
1
390
0
 62
    11
100
AcDbVertex
100
AcDb2dVertex
 10
112.509382
 20
186.78098
 30
0.0
  0
VERTEX
  5
304
100
AcDbEntity
  8
1
390
0
 62
    11
100
AcDbVertex
100
AcDb2dVertex
 10
111.609382
 20
191.28098
 30
0.0
  0
VERTEX
  5
305
100
AcDbEntity
  8
1
390
0
 62
    11
100
AcDbVertex
100
AcDb2dVertex
 10
110.709382
 20
186.78098
 30
0.0
  0
SEQEND
  5
306
100
AcDbEntity
  8
0
390
0
  0
ENDBLK
  5
307
100
AcDbEntity
  8
0
390
0
100
AcDbBlockEnd
  0
BLOCK
  5
3AB
100
AcDbEntity
  8
0
390
0
100
AcDbBlockBegin
  2
AID1329
 70
     0
 10
0.0
 20
0.0
 30
0.0
  3
D_GROUP
  1

  0
MTEXT
  5
3AC
100
AcDbEntity
  8
1
390
0
 62
     2
100
AcDbMText
 10
112.948676
 20
170.142799
 30
0.0
 40
6.0
 41
5.672727
 71
     7
 72
     1
  1
8
210
0.0
220
0.0
230
1.0
 73
     1
 44
1.0
  0
MTEXT
  5
3AD
100
AcDbEntity
  8
1
390
0
 62
     2
100
AcDbMText
 10
119.112313
 20
168.942799
 30
0.0
 40
4.2
 41
4.2
 71
     7
 72
     1
  1
 0
210
0.0
220
0.0
230
1.0
 73
     1
 44
1.0
  0
MTEXT
  5
3AE
100
AcDbEntity
  8
1
390
0
 62
     2
100
AcDbMText
 10
119.112313
 20
173.830071
 30
0.0
 40
4.2
 41
20.770909
 71
     7
 72
     1
  1
+0.02
210
0.0
220
0.0
230
1.0
 73
     1
 44
1.0
  0
LINE
  5
3AF
100
AcDbEntity
  8
1
390
0
  6
Continuous
 62
    11
100
AcDbLine
 10
112.675949
 20
167.78098
 30
0.0
 11
143.931403
 21
167.78098
 31
0.0
  0
LINE
  5
3B0
100
AcDbEntity
  8
1
390
0
  6
Continuous
 62
    11
100
AcDbLine
 10
135.931403
 20
190.98098
 30
0.0
 11
135.931403
 21
165.98098
 31
0.0
  0
LINE
  5
3B1
100
AcDbEntity
  8
1
390
0
  6
Continuous
 62
    11
100
AcDbLine
 10
143.931403
 20
189.48098
 30
0.0
 11
143.931403
 21
165.98098
 31
0.0
  0
POLYLINE
  5
3B2
100
AcDbEntity
  8
1
390
0
  6
Continuous
 62
    11
100
AcDb2dPolyline
 66
     1
 10
0.0
 20
0.0
 30
0.0
 40
3.0
 41
3.0
  0
VERTEX
  5
3B3
100
AcDbEntity
  8
1
390
0
 62
    11
100
AcDbVertex
100
AcDb2dVertex
 10
131.431403
 20
166.88098
 30
0.0
  0
VERTEX
  5
3B4
100
AcDbEntity
  8
1
390
0
 62
    11
100
AcDbVertex
100
AcDb2dVertex
 10
135.931403
 20
167.78098
 30
0.0
  0
VERTEX
  5
3B5
100
AcDbEntity
  8
1
390
0
 62
    11
100
AcDbVertex
100
AcDb2dVertex
 10
131.431403
 20
168.68098
 30
0.0
  0
SEQEND
  5
3B6
100
AcDbEntity
  8
0
390
0
  0
HATCH
  5
3B7
100
AcDbEntity
  8
1
390
0
 62
    11
100
AcDbHatch
 10
145.05640345528786
 20
167.78098037339876
 30
0.0
210
0.0
220
0.0
230
1.0
  2
SOLID
 70
     1
 71
     1
 91
        1
 92
        1
 93
       72
 72
     1
 10
145.05640345528786
 20
167.78098037339876
 11
145.0521224906411
 21
167.87903058398987
 72
     1
 10
145.0521224906411
 20
167.87903058398987
 11
145.03931217742661
 21
167.97633457327404
 72
     1
 10
145.03931217742661
 20
167.97633457327404
 11
145.0180700098631
 21
168.07215179913908
 72
     1
 10
145.0180700098631
 20
168.07215179913908
 11
144.98855765367202
 21
168.16575303464012
 72
     1
 10
144.98855765367202
 20
168.16575303464012
 11
144.95099971570411
 21
168.25642591785703
 72
     1
 10
144.95099971570411
 20
168.25642591785703
 11
144.90568203454538
 21
168.34348037339873
 72
     1
 10
144.90568203454538
 20
168.34348037339873
 11
144.85294950511297
 21
168.4262538642937
 72
     1
 10
144.85294950511297
 20
168.4262538642937
 11
144.79320345379674
 21
168.50411643429612
 72
     1
 10
144.79320345379674
 20
168.50411643429612
 11
144.72689858412275
 21
168.57647550223362
 72
     1
 10
144.72689858412275
 20
168.57647550223362
 11
144.65453951618522
 21
168.64278037190761
 72
     1
 10
144.65453951618522
 20
168.64278037190761
 11
144.5766769461828
 21
168.70252642322387
 72
     1
 10
144.5766769461828
 20
168.70252642322387
 11
144.49390345528786
 21
168.75525895265625
 72
     1
 10
144.49390345528786
 20
168.75525895265625
 11
144.40684899974616
 21
168.80057663381498
 72
     1
 10
144.40684899974616
 20
168.80057663381498
 11
144.31617611652925
 21
168.83813457178289
 72
     1
 10
144.31617611652925
 20
168.83813457178289
 11
144.22257488102821
 21
168.86764692797396
 72
     1
 10
144.22257488102821
 20
168.86764692797396
 11
144.12675765516317
 21
168.88888909553748
 72
     1
 10
144.12675765516317
 20
168.88888909553748
 11
144.02945366587903
 21
168.90169940875197
 72
     1
 10
144.02945366587903
 20
168.90169940875197
 11
143.93140345528786
 21
168.90598037339873
 72
     1
 10
143.93140345528786
 20
168.90598037339873
 11
143.83335324469675
 21
168.90169940875197
 72
     1
 10
143.83335324469675
 20
168.90169940875197
 11
143.73604925541258
 21
168.88888909553748
 72
     1
 10
143.73604925541258
 20
168.88888909553748
 11
143.64023202954755
 21
168.86764692797396
 72
     1
 10
143.64023202954755
 20
168.86764692797396
 11
143.54663079404651
 21
168.83813457178289
 72
     1
 10
143.54663079404651
 20
168.83813457178289
 11
143.4559579108296
 21
168.80057663381498
 72
     1
 10
143.4559579108296
 20
168.80057663381498
 11
143.36890345528789
 21
168.75525895265625
 72
     1
 10
143.36890345528789
 20
168.75525895265625
 11
143.28612996439293
 21
168.70252642322387
 72
     1
 10
143.28612996439293
 20
168.70252642322387
 11
143.20826739439056
 21
168.64278037190761
 72
     1
 10
143.20826739439056
 20
168.64278037190761
 11
143.13590832645301
 21
168.57647550223362
 72
     1
 10
143.13590832645301
 20
168.57647550223362
 11
143.06960345677902
 21
168.50411643429612
 72
     1
 10
143.06960345677902
 20
168.50411643429612
 11
143.00985740546275
 21
168.4262538642937
 72
     1
 10
143.00985740546275
 20
168.4262538642937
 11
142.95712487603038
 21
168.34348037339873
 72
     1
 10
142.95712487603038
 20
168.34348037339873
 11
142.91180719487164
 21
168.25642591785703
 72
     1
 10
142.91180719487164
 20
168.25642591785703
 11
142.87424925690374
 21
168.16575303464012
 72
     1
 10
142.87424925690374
 20
168.16575303464012
 11
142.84473690071266
 21
168.07215179913908
 72
     1
 10
142.84473690071266
 20
168.07215179913908
 11
142.82349473314915
 21
167.97633457327404
 72
     1
 10
142.82349473314915
 20
167.97633457327404
 11
142.81068441993466
 21
167.87903058398987
 72
     1
 10
142.81068441993466
 20
167.87903058398987
 11
142.80640345528789
 21
167.78098037339876
 72
     1
 10
142.80640345528789
 20
167.78098037339876
 11
142.81068441993466
 21
167.68293016280762
 72
     1
 10
142.81068441993466
 20
167.68293016280762
 11
142.82349473314915
 21
167.58562617352345
 72
     1
 10
142.82349473314915
 20
167.58562617352345
 11
142.84473690071266
 21
167.48980894765842
 72
     1
 10
142.84473690071266
 20
167.48980894765842
 11
142.87424925690374
 21
167.39620771215738
 72
     1
 10
142.87424925690374
 20
167.39620771215738
 11
142.91180719487164
 21
167.30553482894047
 72
     1
 10
142.91180719487164
 20
167.30553482894047
 11
142.95712487603038
 21
167.21848037339876
 72
     1
 10
142.95712487603038
 20
167.21848037339876
 11
143.00985740546275
 21
167.13570688250385
 72
     1
 10
143.00985740546275
 20
167.13570688250385
 11
143.06960345677902
 21
167.0578443125014
 72
     1
 10
143.06960345677902
 20
167.0578443125014
 11
143.13590832645301
 21
166.98548524456388
 72
     1
 10
143.13590832645301
 20
166.98548524456388
 11
143.20826739439056
 21
166.91918037488989
 72
     1
 10
143.20826739439056
 20
166.91918037488989
 11
143.28612996439293
 21
166.85943432357368
 72
     1
 10
143.28612996439293
 20
166.85943432357368
 11
143.36890345528789
 21
166.80670179414125
 72
     1
 10
143.36890345528789
 20
166.80670179414125
 11
143.4559579108296
 21
166.76138411298251
 72
     1
 10
143.4559579108296
 20
166.76138411298251
 11
143.54663079404651
 21
166.72382617501461
 72
     1
 10
143.54663079404651
 20
166.72382617501461
 11
143.64023202954755
 21
166.69431381882359
 72
     1
 10
143.64023202954755
 20
166.69431381882359
 11
143.73604925541258
 21
166.67307165126002
 72
     1
 10
143.73604925541258
 20
166.67307165126002
 11
143.83335324469675
 21
166.66026133804553
 72
     1
 10
143.83335324469675
 20
166.66026133804553
 11
143.93140345528786
 21
166.65598037339876
 72
     1
 10
143.93140345528786
 20
166.65598037339876
 11
144.02945366587903
 21
166.66026133804553
 72
     1
 10
144.02945366587903
 20
166.66026133804553
 11
144.12675765516317
 21
166.67307165126002
 72
     1
 10
144.12675765516317
 20
166.67307165126002
 11
144.22257488102821
 21
166.69431381882359
 72
     1
 10
144.22257488102821
 20
166.69431381882359
 11
144.31617611652925
 21
166.72382617501461
 72
     1
 10
144.31617611652925
 20
166.72382617501461
 11
144.40684899974616
 21
166.76138411298251
 72
     1
 10
144.40684899974616
 20
166.76138411298251
 11
144.49390345528786
 21
166.80670179414125
 72
     1
 10
144.49390345528786
 20
166.80670179414125
 11
144.5766769461828
 21
166.85943432357368
 72
     1
 10
144.5766769461828
 20
166.85943432357368
 11
144.65453951618522
 21
166.91918037488989
 72
     1
 10
144.65453951618522
 20
166.91918037488989
 11
144.72689858412275
 21
166.98548524456388
 72
     1
 10
144.72689858412275
 20
166.98548524456388
 11
144.79320345379674
 21
167.0578443125014
 72
     1
 10
144.79320345379674
 20
167.0578443125014
 11
144.85294950511297
 21
167.13570688250385
 72
     1
 10
144.85294950511297
 20
167.13570688250385
 11
144.90568203454538
 21
167.21848037339876
 72
     1
 10
144.90568203454538
 20
167.21848037339876
 11
144.95099971570411
 21
167.30553482894047
 72
     1
 10
144.95099971570411
 20
167.30553482894047
 11
144.98855765367202
 21
167.39620771215738
 72
     1
 10
144.98855765367202
 20
167.39620771215738
 11
145.0180700098631
 21
167.48980894765842
 72
     1
 10
145.0180700098631
 20
167.48980894765842
 11
145.03931217742661
 21
167.58562617352345
 72
     1
 10
145.03931217742661
 20
167.58562617352345
 11
145.0521224906411
 21
167.68293016280762
 72
     1
 10
145.0521224906411
 20
167.68293016280762
 11
145.05640345528786
 21
167.78098037339876
 97
        0
 75
     0
 76
     1
 98
        1
 10
0.0
 20
0.0
  0
ENDBLK
  5
3B8
100
AcDbEntity
  8
0
390
0
100
AcDbBlockEnd
  0
BLOCK
  5
3BB
100
AcDbEntity
  8
0
390
0
100
AcDbBlockBegin
  2
AID1346
 70
     0
 10
0.0
 20
0.0
 30
0.0
  3
D_GROUP
  1

  0
MTEXT
  5
3BC
100
AcDbEntity
  8
1
390
0
 62
     2
100
AcDbMText
 10
154.876858
 20
168.953708
 30
0.0
 40
6.0
 41
5.563636
 71
     7
 72
     1
  1
5
210
0.0
220
0.0
230
1.0
 73
     1
 44
1.0
  0
LINE
  5
3BD
100
AcDbEntity
  8
1
390
0
  6
Continuous
 62
    11
100
AcDbLine
 10
143.931403
 20
167.78098
 30
0.0
 11
158.613222
 21
167.78098
 31
0.0
  0
LINE
  5
3BE
100
AcDbEntity
  8
1
390
0
  6
Continuous
 62
    11
100
AcDbLine
 10
143.931403
 20
189.48098
 30
0.0
 11
143.931403
 21
165.98098
 31
0.0
  0
LINE
  5
3BF
100
AcDbEntity
  8
1
390
0
  6
Continuous
 62
    11
100
AcDbLine
 10
148.931403
 20
189.48098
 30
0.0
 11
148.931403
 21
165.98098
 31
0.0
  0
HATCH
  5
3C0
100
AcDbEntity
  8
1
390
0
 62
    11
100
AcDbHatch
 10
142.80640345528789
 20
167.78098037339876
 30
0.0
210
0.0
220
0.0
230
1.0
  2
SOLID
 70
     1
 71
     1
 91
        1
 92
        1
 93
       72
 72
     1
 10
142.80640345528789
 20
167.78098037339876
 11
142.81068441993466
 21
167.68293016280762
 72
     1
 10
142.81068441993466
 20
167.68293016280762
 11
142.82349473314915
 21
167.58562617352345
 72
     1
 10
142.82349473314915
 20
167.58562617352345
 11
142.84473690071266
 21
167.48980894765842
 72
     1
 10
142.84473690071266
 20
167.48980894765842
 11
142.87424925690374
 21
167.39620771215738
 72
     1
 10
142.87424925690374
 20
167.39620771215738
 11
142.91180719487164
 21
167.30553482894047
 72
     1
 10
142.91180719487164
 20
167.30553482894047
 11
142.95712487603038
 21
167.21848037339876
 72
     1
 10
142.95712487603038
 20
167.21848037339876
 11
143.00985740546275
 21
167.13570688250385
 72
     1
 10
143.00985740546275
 20
167.13570688250385
 11
143.06960345677902
 21
167.0578443125014
 72
     1
 10
143.06960345677902
 20
167.0578443125014
 11
143.13590832645301
 21
166.98548524456388
 72
     1
 10
143.13590832645301
 20
166.98548524456388
 11
143.20826739439056
 21
166.91918037488989
 72
     1
 10
143.20826739439056
 20
166.91918037488989
 11
143.28612996439293
 21
166.85943432357368
 72
     1
 10
143.28612996439293
 20
166.85943432357368
 11
143.36890345528789
 21
166.80670179414125
 72
     1
 10
143.36890345528789
 20
166.80670179414125
 11
143.4559579108296
 21
166.76138411298251
 72
     1
 10
143.4559579108296
 20
166.76138411298251
 11
143.54663079404651
 21
166.72382617501461
 72
     1
 10
143.54663079404651
 20
166.72382617501461
 11
143.64023202954755
 21
166.69431381882359
 72
     1
 10
143.64023202954755
 20
166.69431381882359
 11
143.73604925541258
 21
166.67307165126002
 72
     1
 10
143.73604925541258
 20
166.67307165126002
 11
143.83335324469675
 21
166.66026133804553
 72
     1
 10
143.83335324469675
 20
166.66026133804553
 11
143.93140345528786
 21
166.65598037339876
 72
     1
 10
143.93140345528786
 20
166.65598037339876
 11
144.02945366587903
 21
166.66026133804553
 72
     1
 10
144.02945366587903
 20
166.66026133804553
 11
144.12675765516317
 21
166.67307165126002
 72
     1
 10
144.12675765516317
 20
166.67307165126002
 11
144.22257488102821
 21
166.69431381882359
 72
     1
 10
144.22257488102821
 20
166.69431381882359
 11
144.31617611652925
 21
166.72382617501461
 72
     1
 10
144.31617611652925
 20
166.72382617501461
 11
144.40684899974616
 21
166.76138411298251
 72
     1
 10
144.40684899974616
 20
166.76138411298251
 11
144.49390345528786
 21
166.80670179414125
 72
     1
 10
144.49390345528786
 20
166.80670179414125
 11
144.5766769461828
 21
166.85943432357368
 72
     1
 10
144.5766769461828
 20
166.85943432357368
 11
144.65453951618522
 21
166.91918037488989
 72
     1
 10
144.65453951618522
 20
166.91918037488989
 11
144.72689858412275
 21
166.98548524456388
 72
     1
 10
144.72689858412275
 20
166.98548524456388
 11
144.79320345379674
 21
167.0578443125014
 72
     1
 10
144.79320345379674
 20
167.0578443125014
 11
144.85294950511297
 21
167.13570688250385
 72
     1
 10
144.85294950511297
 20
167.13570688250385
 11
144.90568203454538
 21
167.21848037339876
 72
     1
 10
144.90568203454538
 20
167.21848037339876
 11
144.95099971570411
 21
167.30553482894047
 72
     1
 10
144.95099971570411
 20
167.30553482894047
 11
144.98855765367202
 21
167.39620771215738
 72
     1
 10
144.98855765367202
 20
167.39620771215738
 11
145.0180700098631
 21
167.48980894765842
 72
     1
 10
145.0180700098631
 20
167.48980894765842
 11
145.03931217742661
 21
167.58562617352345
 72
     1
 10
145.03931217742661
 20
167.58562617352345
 11
145.0521224906411
 21
167.68293016280762
 72
     1
 10
145.0521224906411
 20
167.68293016280762
 11
145.05640345528786
 21
167.78098037339876
 72
     1
 10
145.05640345528786
 20
167.78098037339876
 11
145.0521224906411
 21
167.87903058398987
 72
     1
 10
145.0521224906411
 20
167.87903058398987
 11
145.03931217742661
 21
167.97633457327404
 72
     1
 10
145.03931217742661
 20
167.97633457327404
 11
145.0180700098631
 21
168.07215179913908
 72
     1
 10
145.0180700098631
 20
168.07215179913908
 11
144.98855765367202
 21
168.16575303464012
 72
     1
 10
144.98855765367202
 20
168.16575303464012
 11
144.95099971570411
 21
168.25642591785703
 72
     1
 10
144.95099971570411
 20
168.25642591785703
 11
144.90568203454538
 21
168.34348037339873
 72
     1
 10
144.90568203454538
 20
168.34348037339873
 11
144.85294950511297
 21
168.4262538642937
 72
     1
 10
144.85294950511297
 20
168.4262538642937
 11
144.79320345379674
 21
168.50411643429612
 72
     1
 10
144.79320345379674
 20
168.50411643429612
 11
144.72689858412275
 21
168.57647550223362
 72
     1
 10
144.72689858412275
 20
168.57647550223362
 11
144.65453951618522
 21
168.64278037190761
 72
     1
 10
144.65453951618522
 20
168.64278037190761
 11
144.5766769461828
 21
168.70252642322387
 72
     1
 10
144.5766769461828
 20
168.70252642322387
 11
144.49390345528786
 21
168.75525895265625
 72
     1
 10
144.49390345528786
 20
168.75525895265625
 11
144.40684899974616
 21
168.80057663381498
 72
     1
 10
144.40684899974616
 20
168.80057663381498
 11
144.31617611652925
 21
168.83813457178289
 72
     1
 10
144.31617611652925
 20
168.83813457178289
 11
144.22257488102821
 21
168.86764692797396
 72
     1
 10
144.22257488102821
 20
168.86764692797396
 11
144.12675765516317
 21
168.88888909553748
 72
     1
 10
144.12675765516317
 20
168.88888909553748
 11
144.02945366587903
 21
168.90169940875197
 72
     1
 10
144.02945366587903
 20
168.90169940875197
 11
143.93140345528786
 21
168.90598037339873
 72
     1
 10
143.93140345528786
 20
168.90598037339873
 11
143.83335324469675
 21
168.90169940875197
 72
     1
 10
143.83335324469675
 20
168.90169940875197
 11
143.73604925541258
 21
168.88888909553748
 72
     1
 10
143.73604925541258
 20
168.88888909553748
 11
143.64023202954755
 21
168.86764692797396
 72
     1
 10
143.64023202954755
 20
168.86764692797396
 11
143.54663079404651
 21
168.83813457178289
 72
     1
 10
143.54663079404651
 20
168.83813457178289
 11
143.4559579108296
 21
168.80057663381498
 72
     1
 10
143.4559579108296
 20
168.80057663381498
 11
143.36890345528789
 21
168.75525895265625
 72
     1
 10
143.36890345528789
 20
168.75525895265625
 11
143.28612996439293
 21
168.70252642322387
 72
     1
 10
143.28612996439293
 20
168.70252642322387
 11
143.20826739439056
 21
168.64278037190761
 72
     1
 10
143.20826739439056
 20
168.64278037190761
 11
143.13590832645301
 21
168.57647550223362
 72
     1
 10
143.13590832645301
 20
168.57647550223362
 11
143.06960345677902
 21
168.50411643429612
 72
     1
 10
143.06960345677902
 20
168.50411643429612
 11
143.00985740546275
 21
168.4262538642937
 72
     1
 10
143.00985740546275
 20
168.4262538642937
 11
142.95712487603038
 21
168.34348037339873
 72
     1
 10
142.95712487603038
 20
168.34348037339873
 11
142.91180719487164
 21
168.25642591785703
 72
     1
 10
142.91180719487164
 20
168.25642591785703
 11
142.87424925690374
 21
168.16575303464012
 72
     1
 10
142.87424925690374
 20
168.16575303464012
 11
142.84473690071266
 21
168.07215179913908
 72
     1
 10
142.84473690071266
 20
168.07215179913908
 11
142.82349473314915
 21
167.97633457327404
 72
     1
 10
142.82349473314915
 20
167.97633457327404
 11
142.81068441993466
 21
167.87903058398987
 72
     1
 10
142.81068441993466
 20
167.87903058398987
 11
142.80640345528789
 21
167.78098037339876
 97
        0
 75
     0
 76
     1
 98
        1
 10
0.0
 20
0.0
  0
POLYLINE
  5
3C1
100
AcDbEntity
  8
1
390
0
  6
Continuous
 62
    11
100
AcDb2dPolyline
 66
     1
 10
0.0
 20
0.0
 30
0.0
 40
3.0
 41
3.0
  0
VERTEX
  5
3C2
100
AcDbEntity
  8
1
390
0
 62
    11
100
AcDbVertex
100
AcDb2dVertex
 10
153.431403
 20
168.68098
 30
0.0
  0
VERTEX
  5
3C3
100
AcDbEntity
  8
1
390
0
 62
    11
100
AcDbVertex
100
AcDb2dVertex
 10
148.931403
 20
167.78098
 30
0.0
  0
VERTEX
  5
3C4
100
AcDbEntity
  8
1
390
0
 62
    11
100
AcDbVertex
100
AcDb2dVertex
 10
153.431403
 20
166.88098
 30
0.0
  0
SEQEND
  5
3C5
100
AcDbEntity
  8
0
390
0
  0
ENDBLK
  5
3C6
100
AcDbEntity
  8
0
390
0
100
AcDbBlockEnd
  0
BLOCK
  5
3C9
100
AcDbEntity
  8
0
390
0
100
AcDbBlockBegin
  2
AID1359
 70
     0
 10
0.0
 20
0.0
 30
0.0
  3
D_GROUP
  1

  0
MTEXT
  5
3CA
100
AcDbEntity
  8
1
390
0
 62
     2
100
AcDbMText
 10
167.876858
 20
179.953708
 30
0.0
 40
6.0
 41
5.563636
 71
     7
 72
     1
  1
5
210
0.0
220
0.0
230
1.0
 73
     1
 44
1.0
  0
LINE
  5
3CB
100
AcDbEntity
  8
1
390
0
  6
Continuous
 62
    11
100
AcDbLine
 10
171.613222
 20
178.78098
 30
0.0
 11
147.931403
 21
178.78098
 31
0.0
  0
LINE
  5
3CC
100
AcDbEntity
  8
1
390
0
  6
Continuous
 62
    11
100
AcDbLine
 10
161.931403
 20
190.75598
 30
0.0
 11
161.931403
 21
176.98098
 31
0.0
  0
LINE
  5
3CD
100
AcDbEntity
  8
1
390
0
  6
Continuous
 62
    11
100
AcDbLine
 10
156.931403
 20
190.48098
 30
0.0
 11
156.931403
 21
176.98098
 31
0.0
  0
POLYLINE
  5
3CE
100
AcDbEntity
  8
1
390
0
  6
Continuous
 62
    11
100
AcDb2dPolyline
 66
     1
 10
0.0
 20
0.0
 30
0.0
 40
3.0
 41
3.0
  0
VERTEX
  5
3CF
100
AcDbEntity
  8
1
390
0
 62
    11
100
AcDbVertex
100
AcDb2dVertex
 10
166.431403
 20
179.68098
 30
0.0
  0
VERTEX
  5
3D0
100
AcDbEntity
  8
1
390
0
 62
    11
100
AcDbVertex
100
AcDb2dVertex
 10
161.931403
 20
178.78098
 30
0.0
  0
VERTEX
  5
3D1
100
AcDbEntity
  8
1
390
0
 62
    11
100
AcDbVertex
100
AcDb2dVertex
 10
166.431403
 20
177.88098
 30
0.0
  0
SEQEND
  5
3D2
100
AcDbEntity
  8
0
390
0
  0
POLYLINE
  5
3D3
100
AcDbEntity
  8
1
390
0
  6
Continuous
 62
    11
100
AcDb2dPolyline
 66
     1
 10
0.0
 20
0.0
 30
0.0
 40
3.0
 41
3.0
  0
VERTEX
  5
3D4
100
AcDbEntity
  8
1
390
0
 62
    11
100
AcDbVertex
100
AcDb2dVertex
 10
152.431403
 20
177.88098
 30
0.0
  0
VERTEX
  5
3D5
100
AcDbEntity
  8
1
390
0
 62
    11
100
AcDbVertex
100
AcDb2dVertex
 10
156.931403
 20
178.78098
 30
0.0
  0
VERTEX
  5
3D6
100
AcDbEntity
  8
1
390
0
 62
    11
100
AcDbVertex
100
AcDb2dVertex
 10
152.431403
 20
179.68098
 30
0.0
  0
SEQEND
  5
3D7
100
AcDbEntity
  8
0
390
0
  0
ENDBLK
  5
3D8
100
AcDbEntity
  8
0
390
0
100
AcDbBlockEnd
  0
BLOCK
  5
3DB
100
AcDbEntity
  8
0
390
0
100
AcDbBlockBegin
  2
AID1372
 70
     0
 10
0.0
 20
0.0
 30
0.0
  3
D_GROUP
  1

  0
MTEXT
  5
3DC
100
AcDbEntity
  8
1
390
0
 62
     2
100
AcDbMText
 10
151.247564
 20
202.490071
 30
0.0
 40
6.0
 41
9.490909
 71
     7
 72
     1
  1
Φ
210
0.0
220
0.0
230
1.0
 11
0.0
 21
1.0
 31
0.0
 73
     1
 44
1.0
  0
MTEXT
  5
3DD
100
AcDbEntity
  8
1
390
0
 62
     2
100
AcDbMText
 10
151.247564
 20
208.435526
 30
0.0
 40
6.0
 41
5.563636
 71
     7
 72
     1
  1
5
210
0.0
220
0.0
230
1.0
 11
0.0
 21
1.0
 31
0.0
 73
     1
 44
1.0
  0
MTEXT
  5
3DE
100
AcDbEntity
  8
1
390
0
 62
     2
100
AcDbMText
 10
152.447564
 20
214.571889
 30
0.0
 40
4.2
 41
14.547273
 71
     7
 72
     1
  1
-0.1
210
0.0
220
0.0
230
1.0
 11
0.0
 21
1.0
 31
0.0
 73
     1
 44
1.0
  0
MTEXT
  5
3DF
100
AcDbEntity
  8
1
390
0
 62
     2
100
AcDbMText
 10
147.560291
 20
214.571889
 30
0.0
 40
4.2
 41
4.2
 71
     7
 72
     1
  1
 0
210
0.0
220
0.0
230
1.0
 11
0.0
 21
1.0
 31
0.0
 73
     1
 44
1.0
  0
LINE
  5
3E0
100
AcDbEntity
  8
1
390
0
  6
Continuous
 62
    11
100
AcDbLine
 10
153.609382
 20
222.579162
 30
0.0
 11
153.609382
 21
183.28098
 31
0.0
  0
POLYLINE
  5
3E1
100
AcDbEntity
  8
1
390
0
  6
Continuous
 62
    11
100
AcDb2dPolyline
 66
     1
 10
0.0
 20
0.0
 30
0.0
 40
3.0
 41
3.0
  0
VERTEX
  5
3E2
100
AcDbEntity
  8
1
390
0
 62
    11
100
AcDbVertex
100
AcDb2dVertex
 10
152.709382
 20
201.78098
 30
0.0
  0
VERTEX
  5
3E3
100
AcDbEntity
  8
1
390
0
 62
    11
100
AcDbVertex
100
AcDb2dVertex
 10
153.609382
 20
197.28098
 30
0.0
  0
VERTEX
  5
3E4
100
AcDbEntity
  8
1
390
0
 62
    11
100
AcDbVertex
100
AcDb2dVertex
 10
154.509382
 20
201.78098
 30
0.0
  0
SEQEND
  5
3E5
100
AcDbEntity
  8
0
390
0
  0
POLYLINE
  5
3E6
100
AcDbEntity
  8
1
390
0
  6
Continuous
 62
    11
100
AcDb2dPolyline
 66
     1
 10
0.0
 20
0.0
 30
0.0
 40
3.0
 41
3.0
  0
VERTEX
  5
3E7
100
AcDbEntity
  8
1
390
0
 62
    11
100
AcDbVertex
100
AcDb2dVertex
 10
154.509382
 20
187.78098
 30
0.0
  0
VERTEX
  5
3E8
100
AcDbEntity
  8
1
390
0
 62
    11
100
AcDbVertex
100
AcDb2dVertex
 10
153.609382
 20
192.28098
 30
0.0
  0
VERTEX
  5
3E9
100
AcDbEntity
  8
1
390
0
 62
    11
100
AcDbVertex
100
AcDb2dVertex
 10
152.709382
 20
187.78098
 30
0.0
  0
SEQEND
  5
3EA
100
AcDbEntity
  8
0
390
0
  0
ENDBLK
  5
3EB
100
AcDbEntity
  8
0
390
0
100
AcDbBlockEnd
  0
BLOCK
  5
3EE
100
AcDbEntity
  8
0
390
0
100
AcDbBlockBegin
  2
AID1387
 70
     0
 10
0.0
 20
0.0
 30
0.0
  3
D_GROUP
  1

  0
MTEXT
  5
3EF
100
AcDbEntity
  8
1
390
0
 62
     2
100
AcDbMText
 10
180.436655
 20
201.240071
 30
0.0
 40
6.0
 41
9.490909
 71
     7
 72
     1
  1
Φ
210
0.0
220
0.0
230
1.0
 11
0.0
 21
1.0
 31
0.0
 73
     1
 44
1.0
  0
MTEXT
  5
3F0
100
AcDbEntity
  8
1
390
0
 62
     2
100
AcDbMText
 10
180.436655
 20
207.185526
 30
0.0
 40
6.0
 41
15.381818
 71
     7
 72
     1
  1
2.5
210
0.0
220
0.0
230
1.0
 11
0.0
 21
1.0
 31
0.0
 73
     1
 44
1.0
  0
LINE
  5
3F1
100
AcDbEntity
  8
1
390
0
  6
Continuous
 62
    11
100
AcDbLine
 10
181.609382
 20
184.53098
 30
0.0
 11
181.609382
 21
215.83098
 31
0.0
  0
POLYLINE
  5
3F2
100
AcDbEntity
  8
1
390
0
  6
Continuous
 62
    11
100
AcDb2dPolyline
 66
     1
 10
0.0
 20
0.0
 30
0.0
 40
3.0
 41
3.0
  0
VERTEX
  5
3F3
100
AcDbEntity
  8
1
390
0
 62
    11
100
AcDbVertex
100
AcDb2dVertex
 10
182.509382
 20
189.03098
 30
0.0
  0
VERTEX
  5
3F4
100
AcDbEntity
  8
1
390
0
 62
    11
100
AcDbVertex
100
AcDb2dVertex
 10
181.609382
 20
193.53098
 30
0.0
  0
VERTEX
  5
3F5
100
AcDbEntity
  8
1
390
0
 62
    11
100
AcDbVertex
100
AcDb2dVertex
 10
180.709382
 20
189.03098
 30
0.0
  0
SEQEND
  5
3F6
100
AcDbEntity
  8
0
390
0
  0
POLYLINE
  5
3F7
100
AcDbEntity
  8
1
390
0
  6
Continuous
 62
    11
100
AcDb2dPolyline
 66
     1
 10
0.0
 20
0.0
 30
0.0
 40
3.0
 41
3.0
  0
VERTEX
  5
3F8
100
AcDbEntity
  8
1
390
0
 62
    11
100
AcDbVertex
100
AcDb2dVertex
 10
180.709382
 20
200.53098
 30
0.0
  0
VERTEX
  5
3F9
100
AcDbEntity
  8
1
390
0
 62
    11
100
AcDbVertex
100
AcDb2dVertex
 10
181.609382
 20
196.03098
 30
0.0
  0
VERTEX
  5
3FA
100
AcDbEntity
  8
1
390
0
 62
    11
100
AcDbVertex
100
AcDb2dVertex
 10
182.509382
 20
200.53098
 30
0.0
  0
SEQEND
  5
3FB
100
AcDbEntity
  8
0
390
0
  0
ENDBLK
  5
3FC
100
AcDbEntity
  8
0
390
0
100
AcDbBlockEnd
  0
BLOCK
  5
3FF
100
AcDbEntity
  8
0
390
0
100
AcDbBlockBegin
  2
AID1398
 70
     0
 10
0.0
 20
0.0
 30
0.0
  3
D_GROUP
  1

  0
MTEXT
  5
400
100
AcDbEntity
  8
1
390
0
 62
     2
100
AcDbMText
 10
145.454131
 20
157.953708
 30
0.0
 40
6.0
 41
12.490909
 71
     7
 72
     1
  1
26
210
0.0
220
0.0
230
1.0
 73
     1
 44
1.0
  0
LINE
  5
401
100
AcDbEntity
  8
1
390
0
  6
Continuous
 62
    11
100
AcDbLine
 10
135.931403
 20
156.78098
 30
0.0
 11
161.931403
 21
156.78098
 31
0.0
  0
LINE
  5
402
100
AcDbEntity
  8
1
390
0
  6
Continuous
 62
    11
100
AcDbLine
 10
135.931403
 20
190.98098
 30
0.0
 11
135.931403
 21
154.98098
 31
0.0
  0
LINE
  5
403
100
AcDbEntity
  8
1
390
0
  6
Continuous
 62
    11
100
AcDbLine
 10
161.931403
 20
190.75598
 30
0.0
 11
161.931403
 21
154.98098
 31
0.0
  0
POLYLINE
  5
404
100
AcDbEntity
  8
1
390
0
  6
Continuous
 62
    11
100
AcDb2dPolyline
 66
     1
 10
0.0
 20
0.0
 30
0.0
 40
3.0
 41
3.0
  0
VERTEX
  5
405
100
AcDbEntity
  8
1
390
0
 62
    11
100
AcDbVertex
100
AcDb2dVertex
 10
140.431403
 20
155.88098
 30
0.0
  0
VERTEX
  5
406
100
AcDbEntity
  8
1
390
0
 62
    11
100
AcDbVertex
100
AcDb2dVertex
 10
135.931403
 20
156.78098
 30
0.0
  0
VERTEX
  5
407
100
AcDbEntity
  8
1
390
0
 62
    11
100
AcDbVertex
100
AcDb2dVertex
 10
140.431403
 20
157.68098
 30
0.0
  0
SEQEND
  5
408
100
AcDbEntity
  8
0
390
0
  0
POLYLINE
  5
409
100
AcDbEntity
  8
1
390
0
  6
Continuous
 62
    11
100
AcDb2dPolyline
 66
     1
 10
0.0
 20
0.0
 30
0.0
 40
3.0
 41
3.0
  0
VERTEX
  5
40A
100
AcDbEntity
  8
1
390
0
 62
    11
100
AcDbVertex
100
AcDb2dVertex
 10
157.431403
 20
157.68098
 30
0.0
  0
VERTEX
  5
40B
100
AcDbEntity
  8
1
390
0
 62
    11
100
AcDbVertex
100
AcDb2dVertex
 10
161.931403
 20
156.78098
 30
0.0
  0
VERTEX
  5
40C
100
AcDbEntity
  8
1
390
0
 62
    11
100
AcDbVertex
100
AcDb2dVertex
 10
157.431403
 20
155.88098
 30
0.0
  0
SEQEND
  5
40D
100
AcDbEntity
  8
0
390
0
  0
ENDBLK
  5
40E
100
AcDbEntity
  8
0
390
0
100
AcDbBlockEnd
  0
BLOCK
  5
412
100
AcDbEntity
  8
0
390
0
100
AcDbBlockBegin
  2
AID1413
 70
     0
 10
0.0
 20
0.0
 30
0.0
  3
D_GROUP
  1

  0
MTEXT
  5
413
100
AcDbEntity
  8
1
390
0
 62
     2
100
AcDbMText
 10
208.302564
 20
159.142799
 30
0.0
 40
6.0
 41
25.963636
 71
     7
 72
     1
  1
1000
210
0.0
220
0.0
230
1.0
 73
     1
 44
1.0
  0
MTEXT
  5
414
100
AcDbEntity
  8
1
390
0
 62
     2
100
AcDbMText
 10
225.020746
 20
157.942799
 30
0.0
 40
4.2
 41
4.2
 71
     7
 72
     1
  1
 0
210
0.0
220
0.0
230
1.0
 73
     1
 44
1.0
  0
MTEXT
  5
415
100
AcDbEntity
  8
1
390
0
 62
     2
100
AcDbMText
 10
225.020746
 20
162.830071
 30
0.0
 40
4.2
 41
14.050909
 71
     7
 72
     1
  1
+50
210
0.0
220
0.0
230
1.0
 73
     1
 44
1.0
  0
LINE
  5
416
100
AcDbEntity
  8
1
390
0
  6
Continuous
 62
    11
100
AcDbLine
 10
161.931403
 20
156.78098
 30
0.0
 11
279.287361
 21
156.78098
 31
0.0
  0
LINE
  5
417
100
AcDbEntity
  8
1
390
0
  6
Continuous
 62
    11
100
AcDbLine
 10
161.931403
 20
190.75598
 30
0.0
 11
161.931403
 21
154.98098
 31
0.0
  0
LINE
  5
418
100
AcDbEntity
  8
1
390
0
  6
Continuous
 62
    11
100
AcDbLine
 10
279.287361
 20
188.85598
 30
0.0
 11
279.287361
 21
154.98098
 31
0.0
  0
POLYLINE
  5
419
100
AcDbEntity
  8
1
390
0
  6
Continuous
 62
    11
100
AcDb2dPolyline
 66
     1
 10
0.0
 20
0.0
 30
0.0
 40
3.0
 41
3.0
  0
VERTEX
  5
41A
100
AcDbEntity
  8
1
390
0
 62
    11
100
AcDbVertex
100
AcDb2dVertex
 10
166.431403
 20
155.88098
 30
0.0
  0
VERTEX
  5
41B
100
AcDbEntity
  8
1
390
0
 62
    11
100
AcDbVertex
100
AcDb2dVertex
 10
161.931403
 20
156.78098
 30
0.0
  0
VERTEX
  5
41C
100
AcDbEntity
  8
1
390
0
 62
    11
100
AcDbVertex
100
AcDb2dVertex
 10
166.431403
 20
157.68098
 30
0.0
  0
SEQEND
  5
41D
100
AcDbEntity
  8
0
390
0
  0
POLYLINE
  5
41E
100
AcDbEntity
  8
1
390
0
  6
Continuous
 62
    11
100
AcDb2dPolyline
 66
     1
 10
0.0
 20
0.0
 30
0.0
 40
3.0
 41
3.0
  0
VERTEX
  5
41F
100
AcDbEntity
  8
1
390
0
 62
    11
100
AcDbVertex
100
AcDb2dVertex
 10
274.787361
 20
157.68098
 30
0.0
  0
VERTEX
  5
420
100
AcDbEntity
  8
1
390
0
 62
    11
100
AcDbVertex
100
AcDb2dVertex
 10
279.287361
 20
156.78098
 30
0.0
  0
VERTEX
  5
421
100
AcDbEntity
  8
1
390
0
 62
    11
100
AcDbVertex
100
AcDb2dVertex
 10
274.787361
 20
155.88098
 30
0.0
  0
SEQEND
  5
422
100
AcDbEntity
  8
0
390
0
  0
ENDBLK
  5
423
100
AcDbEntity
  8
0
390
0
100
AcDbBlockEnd
  0
BLOCK
  5
426
100
AcDbEntity
  8
0
390
0
100
AcDbBlockBegin
  2
AID1430
 70
     0
 10
0.0
 20
0.0
 30
0.0
  3
D_GROUP
  1

  0
MTEXT
  5
427
100
AcDbEntity
  8
1
390
0
 62
     2
100
AcDbMText
 10
269.605543
 20
179.899162
 30
0.0
 40
6.0
 41
11.781818
 71
     7
 72
     1
  1
12
210
0.0
220
0.0
230
1.0
 73
     1
 44
1.0
  0
LINE
  5
428
100
AcDbEntity
  8
1
390
0
  6
Continuous
 62
    11
100
AcDbLine
 10
267.287361
 20
178.78098
 30
0.0
 11
279.287361
 21
178.78098
 31
0.0
  0
LINE
  5
429
100
AcDbEntity
  8
1
390
0
  6
Continuous
 62
    11
100
AcDbLine
 10
267.287361
 20
185.98098
 30
0.0
 11
267.287361
 21
176.98098
 31
0.0
  0
LINE
  5
42A
100
AcDbEntity
  8
1
390
0
  6
Continuous
 62
    11
100
AcDbLine
 10
279.287361
 20
188.85598
 30
0.0
 11
279.287361
 21
176.98098
 31
0.0
  0
POLYLINE
  5
42B
100
AcDbEntity
  8
1
390
0
  6
Continuous
 62
    11
100
AcDb2dPolyline
 66
     1
 10
0.0
 20
0.0
 30
0.0
 40
3.0
 41
3.0
  0
VERTEX
  5
42C
100
AcDbEntity
  8
1
390
0
 62
    11
100
AcDbVertex
100
AcDb2dVertex
 10
271.787361
 20
177.88098
 30
0.0
  0
VERTEX
  5
42D
100
AcDbEntity
  8
1
390
0
 62
    11
100
AcDbVertex
100
AcDb2dVertex
 10
267.287361
 20
178.78098
 30
0.0
  0
VERTEX
  5
42E
100
AcDbEntity
  8
1
390
0
 62
    11
100
AcDbVertex
100
AcDb2dVertex
 10
271.787361
 20
179.68098
 30
0.0
  0
SEQEND
  5
42F
100
AcDbEntity
  8
0
390
0
  0
POLYLINE
  5
430
100
AcDbEntity
  8
1
390
0
  6
Continuous
 62
    11
100
AcDb2dPolyline
 66
     1
 10
0.0
 20
0.0
 30
0.0
 40
3.0
 41
3.0
  0
VERTEX
  5
431
100
AcDbEntity
  8
1
390
0
 62
    11
100
AcDbVertex
100
AcDb2dVertex
 10
274.787361
 20
179.68098
 30
0.0
  0
VERTEX
  5
432
100
AcDbEntity
  8
1
390
0
 62
    11
100
AcDbVertex
100
AcDb2dVertex
 10
279.287361
 20
178.78098
 30
0.0
  0
VERTEX
  5
433
100
AcDbEntity
  8
1
390
0
 62
    11
100
AcDbVertex
100
AcDb2dVertex
 10
274.787361
 20
177.88098
 30
0.0
  0
SEQEND
  5
434
100
AcDbEntity
  8
0
390
0
  0
ENDBLK
  5
435
100
AcDbEntity
  8
0
390
0
100
AcDbBlockEnd
  0
BLOCK
  5
438
100
AcDbEntity
  8
0
390
0
100
AcDbBlockBegin
  2
AID1443
 70
     0
 10
0.0
 20
0.0
 30
0.0
  3
D_GROUP
  1

  0
MTEXT
  5
439
100
AcDbEntity
  8
1
390
0
 62
     2
100
AcDbMText
 10
254.119179
 20
179.953708
 30
0.0
 40
6.0
 41
11.727273
 71
     7
 72
     1
  1
19
210
0.0
220
0.0
230
1.0
 73
     1
 44
1.0
  0
LINE
  5
43A
100
AcDbEntity
  8
1
390
0
  6
Continuous
 62
    11
100
AcDbLine
 10
267.287361
 20
178.78098
 30
0.0
 11
248.287361
 21
178.78098
 31
0.0
  0
LINE
  5
43B
100
AcDbEntity
  8
1
390
0
  6
Continuous
 62
    11
100
AcDbLine
 10
267.287361
 20
185.98098
 30
0.0
 11
267.287361
 21
176.98098
 31
0.0
  0
LINE
  5
43C
100
AcDbEntity
  8
1
390
0
  6
Continuous
 62
    11
100
AcDbLine
 10
248.287361
 20
185.98098
 30
0.0
 11
248.287361
 21
176.98098
 31
0.0
  0
POLYLINE
  5
43D
100
AcDbEntity
  8
1
390
0
  6
Continuous
 62
    11
100
AcDb2dPolyline
 66
     1
 10
0.0
 20
0.0
 30
0.0
 40
3.0
 41
3.0
  0
VERTEX
  5
43E
100
AcDbEntity
  8
1
390
0
 62
    11
100
AcDbVertex
100
AcDb2dVertex
 10
262.787361
 20
179.68098
 30
0.0
  0
VERTEX
  5
43F
100
AcDbEntity
  8
1
390
0
 62
    11
100
AcDbVertex
100
AcDb2dVertex
 10
267.287361
 20
178.78098
 30
0.0
  0
VERTEX
  5
440
100
AcDbEntity
  8
1
390
0
 62
    11
100
AcDbVertex
100
AcDb2dVertex
 10
262.787361
 20
177.88098
 30
0.0
  0
SEQEND
  5
441
100
AcDbEntity
  8
0
390
0
  0
POLYLINE
  5
442
100
AcDbEntity
  8
1
390
0
  6
Continuous
 62
    11
100
AcDb2dPolyline
 66
     1
 10
0.0
 20
0.0
 30
0.0
 40
3.0
 41
3.0
  0
VERTEX
  5
443
100
AcDbEntity
  8
1
390
0
 62
    11
100
AcDbVertex
100
AcDb2dVertex
 10
252.787361
 20
177.88098
 30
0.0
  0
VERTEX
  5
444
100
AcDbEntity
  8
1
390
0
 62
    11
100
AcDbVertex
100
AcDb2dVertex
 10
248.287361
 20
178.78098
 30
0.0
  0
VERTEX
  5
445
100
AcDbEntity
  8
1
390
0
 62
    11
100
AcDbVertex
100
AcDb2dVertex
 10
252.787361
 20
179.68098
 30
0.0
  0
SEQEND
  5
446
100
AcDbEntity
  8
0
390
0
  0
ENDBLK
  5
447
100
AcDbEntity
  8
0
390
0
100
AcDbBlockEnd
  0
BLOCK
  5
44A
100
AcDbEntity
  8
0
390
0
100
AcDbBlockBegin
  2
AID1456
 70
     0
 10
0.0
 20
0.0
 30
0.0
  3
D_GROUP
  1

  0
MTEXT
  5
44B
100
AcDbEntity
  8
1
390
0
 62
     2
100
AcDbMText
 10
256.310088
 20
168.953708
 30
0.0
 40
6.0
 41
12.490909
 71
     7
 72
     1
  1
39
210
0.0
220
0.0
230
1.0
 73
     1
 44
1.0
  0
LINE
  5
44C
100
AcDbEntity
  8
1
390
0
  6
Continuous
 62
    11
100
AcDbLine
 10
240.287361
 20
167.78098
 30
0.0
 11
279.287361
 21
167.78098
 31
0.0
  0
LINE
  5
44D
100
AcDbEntity
  8
1
390
0
  6
Continuous
 62
    11
100
AcDbLine
 10
240.287361
 20
187.48098
 30
0.0
 11
240.287361
 21
165.98098
 31
0.0
  0
LINE
  5
44E
100
AcDbEntity
  8
1
390
0
  6
Continuous
 62
    11
100
AcDbLine
 10
279.287361
 20
188.85598
 30
0.0
 11
279.287361
 21
165.98098
 31
0.0
  0
POLYLINE
  5
44F
100
AcDbEntity
  8
1
390
0
  6
Continuous
 62
    11
100
AcDb2dPolyline
 66
     1
 10
0.0
 20
0.0
 30
0.0
 40
3.0
 41
3.0
  0
VERTEX
  5
450
100
AcDbEntity
  8
1
390
0
 62
    11
100
AcDbVertex
100
AcDb2dVertex
 10
244.787361
 20
166.88098
 30
0.0
  0
VERTEX
  5
451
100
AcDbEntity
  8
1
390
0
 62
    11
100
AcDbVertex
100
AcDb2dVertex
 10
240.287361
 20
167.78098
 30
0.0
  0
VERTEX
  5
452
100
AcDbEntity
  8
1
390
0
 62
    11
100
AcDbVertex
100
AcDb2dVertex
 10
244.787361
 20
168.68098
 30
0.0
  0
SEQEND
  5
453
100
AcDbEntity
  8
0
390
0
  0
POLYLINE
  5
454
100
AcDbEntity
  8
1
390
0
  6
Continuous
 62
    11
100
AcDb2dPolyline
 66
     1
 10
0.0
 20
0.0
 30
0.0
 40
3.0
 41
3.0
  0
VERTEX
  5
455
100
AcDbEntity
  8
1
390
0
 62
    11
100
AcDbVertex
100
AcDb2dVertex
 10
274.787361
 20
168.68098
 30
0.0
  0
VERTEX
  5
456
100
AcDbEntity
  8
1
390
0
 62
    11
100
AcDbVertex
100
AcDb2dVertex
 10
279.287361
 20
167.78098
 30
0.0
  0
VERTEX
  5
457
100
AcDbEntity
  8
1
390
0
 62
    11
100
AcDbVertex
100
AcDb2dVertex
 10
274.787361
 20
166.88098
 30
0.0
  0
SEQEND
  5
458
100
AcDbEntity
  8
0
390
0
  0
ENDBLK
  5
459
100
AcDbEntity
  8
0
390
0
100
AcDbBlockEnd
  0
BLOCK
  5
45C
100
AcDbEntity
  8
0
390
0
100
AcDbBlockBegin
  2
AID1469
 70
     0
 10
0.0
 20
0.0
 30
0.0
  3
D_GROUP
  1

  0
MTEXT
  5
45D
100
AcDbEntity
  8
1
390
0
 62
     2
100
AcDbMText
 10
289.436655
 20
191.112799
 30
0.0
 40
6.0
 41
11.727273
 71
     7
 72
     1
  1
16
210
0.0
220
0.0
230
1.0
 11
0.0
 21
1.0
 31
0.0
 73
     1
 44
1.0
  0
LINE
  5
45E
100
AcDbEntity
  8
1
390
0
  6
Continuous
 62
    11
100
AcDbLine
 10
290.609382
 20
202.78098
 30
0.0
 11
290.609382
 21
186.78098
 31
0.0
  0
LINE
  5
45F
100
AcDbEntity
  8
1
390
0
  6
Continuous
 62
    11
100
AcDbLine
 10
268.087361
 20
202.78098
 30
0.0
 11
292.409382
 21
202.78098
 31
0.0
  0
LINE
  5
460
100
AcDbEntity
  8
1
390
0
  6
Continuous
 62
    11
100
AcDbLine
 10
268.087361
 20
186.78098
 30
0.0
 11
292.409382
 21
186.78098
 31
0.0
  0
POLYLINE
  5
461
100
AcDbEntity
  8
1
390
0
  6
Continuous
 62
    11
100
AcDb2dPolyline
 66
     1
 10
0.0
 20
0.0
 30
0.0
 40
3.0
 41
3.0
  0
VERTEX
  5
462
100
AcDbEntity
  8
1
390
0
 62
    11
100
AcDbVertex
100
AcDb2dVertex
 10
289.709382
 20
198.28098
 30
0.0
  0
VERTEX
  5
463
100
AcDbEntity
  8
1
390
0
 62
    11
100
AcDbVertex
100
AcDb2dVertex
 10
290.609382
 20
202.78098
 30
0.0
  0
VERTEX
  5
464
100
AcDbEntity
  8
1
390
0
 62
    11
100
AcDbVertex
100
AcDb2dVertex
 10
291.509382
 20
198.28098
 30
0.0
  0
SEQEND
  5
465
100
AcDbEntity
  8
0
390
0
  0
POLYLINE
  5
466
100
AcDbEntity
  8
1
390
0
  6
Continuous
 62
    11
100
AcDb2dPolyline
 66
     1
 10
0.0
 20
0.0
 30
0.0
 40
3.0
 41
3.0
  0
VERTEX
  5
467
100
AcDbEntity
  8
1
390
0
 62
    11
100
AcDbVertex
100
AcDb2dVertex
 10
291.509382
 20
191.28098
 30
0.0
  0
VERTEX
  5
468
100
AcDbEntity
  8
1
390
0
 62
    11
100
AcDbVertex
100
AcDb2dVertex
 10
290.609382
 20
186.78098
 30
0.0
  0
VERTEX
  5
469
100
AcDbEntity
  8
1
390
0
 62
    11
100
AcDbVertex
100
AcDb2dVertex
 10
289.709382
 20
191.28098
 30
0.0
  0
SEQEND
  5
46A
100
AcDbEntity
  8
0
390
0
  0
ENDBLK
  5
46B
100
AcDbEntity
  8
0
390
0
100
AcDbBlockEnd
  0
BLOCK
  5
46E
100
AcDbEntity
  8
0
390
0
100
AcDbBlockBegin
  2
AID1482
 70
     0
 10
0.0
 20
0.0
 30
0.0
  3
D_GROUP
  1

  0
MTEXT
  5
46F
100
AcDbEntity
  8
1
390
0
 62
     2
100
AcDbMText
 10
292.572867
 20
139.631848
 30
0.0
 40
6.0
 41
5.672727
 71
     7
 72
     1
  1
8
210
0.0
220
0.0
230
1.0
 11
0.0
 21
1.0
 31
0.0
 73
     1
 44
1.0
  0
LINE
  5
470
100
AcDbEntity
  8
1
390
0
  6
Continuous
 62
    11
100
AcDbLine
 10
293.745594
 20
143.395484
 30
0.0
 11
293.745594
 21
116.65912
 31
0.0
  0
LINE
  5
471
100
AcDbEntity
  8
1
390
0
  6
Continuous
 62
    11
100
AcDbLine
 10
268.887361
 20
133.65912
 30
0.0
 11
295.545594
 21
133.65912
 31
0.0
  0
LINE
  5
472
100
AcDbEntity
  8
1
390
0
  6
Continuous
 62
    11
100
AcDbLine
 10
268.887361
 20
125.65912
 30
0.0
 11
295.545594
 21
125.65912
 31
0.0
  0
POLYLINE
  5
473
100
AcDbEntity
  8
1
390
0
  6
Continuous
 62
    11
100
AcDb2dPolyline
 66
     1
 10
0.0
 20
0.0
 30
0.0
 40
3.0
 41
3.0
  0
VERTEX
  5
474
100
AcDbEntity
  8
1
390
0
 62
    11
100
AcDbVertex
100
AcDb2dVertex
 10
292.845594
 20
138.15912
 30
0.0
  0
VERTEX
  5
475
100
AcDbEntity
  8
1
390
0
 62
    11
100
AcDbVertex
100
AcDb2dVertex
 10
293.745594
 20
133.65912
 30
0.0
  0
VERTEX
  5
476
100
AcDbEntity
  8
1
390
0
 62
    11
100
AcDbVertex
100
AcDb2dVertex
 10
294.645594
 20
138.15912
 30
0.0
  0
SEQEND
  5
477
100
AcDbEntity
  8
0
390
0
  0
POLYLINE
  5
478
100
AcDbEntity
  8
1
390
0
  6
Continuous
 62
    11
100
AcDb2dPolyline
 66
     1
 10
0.0
 20
0.0
 30
0.0
 40
3.0
 41
3.0
  0
VERTEX
  5
479
100
AcDbEntity
  8
1
390
0
 62
    11
100
AcDbVertex
100
AcDb2dVertex
 10
294.645594
 20
121.15912
 30
0.0
  0
VERTEX
  5
47A
100
AcDbEntity
  8
1
390
0
 62
    11
100
AcDbVertex
100
AcDb2dVertex
 10
293.745594
 20
125.65912
 30
0.0
  0
VERTEX
  5
47B
100
AcDbEntity
  8
1
390
0
 62
    11
100
AcDbVertex
100
AcDb2dVertex
 10
292.845594
 20
121.15912
 30
0.0
  0
SEQEND
  5
47C
100
AcDbEntity
  8
0
390
0
  0
ENDBLK
  5
47D
100
AcDbEntity
  8
0
390
0
100
AcDbBlockEnd
  0
BLOCK
  5
480
100
AcDbEntity
  8
0
390
0
100
AcDbBlockBegin
  2
AID1495
 70
     0
 10
0.0
 20
0.0
 30
0.0
  3
D_GROUP
  1

  0
MTEXT
  5
481
100
AcDbEntity
  8
1
390
0
 62
     2
100
AcDbMText
 10
304.243309
 20
139.577302
 30
0.0
 40
6.0
 41
5.454545
 71
     7
 72
     1
  1
9
210
0.0
220
0.0
230
1.0
 11
0.0
 21
1.0
 31
0.0
 73
     1
 44
1.0
  0
LINE
  5
482
100
AcDbEntity
  8
1
390
0
  6
Continuous
 62
    11
100
AcDbLine
 10
305.416036
 20
143.286393
 30
0.0
 11
305.416036
 21
115.65912
 31
0.0
  0
LINE
  5
483
100
AcDbEntity
  8
1
390
0
  6
Continuous
 62
    11
100
AcDbLine
 10
268.887361
 20
133.65912
 30
0.0
 11
307.216036
 21
133.65912
 31
0.0
  0
LINE
  5
484
100
AcDbEntity
  8
1
390
0
  6
Continuous
 62
    11
100
AcDbLine
 10
268.087361
 20
124.65912
 30
0.0
 11
307.216036
 21
124.65912
 31
0.0
  0
POLYLINE
  5
485
100
AcDbEntity
  8
1
390
0
  6
Continuous
 62
    11
100
AcDb2dPolyline
 66
     1
 10
0.0
 20
0.0
 30
0.0
 40
3.0
 41
3.0
  0
VERTEX
  5
486
100
AcDbEntity
  8
1
390
0
 62
    11
100
AcDbVertex
100
AcDb2dVertex
 10
304.516036
 20
138.15912
 30
0.0
  0
VERTEX
  5
487
100
AcDbEntity
  8
1
390
0
 62
    11
100
AcDbVertex
100
AcDb2dVertex
 10
305.416036
 20
133.65912
 30
0.0
  0
VERTEX
  5
488
100
AcDbEntity
  8
1
390
0
 62
    11
100
AcDbVertex
100
AcDb2dVertex
 10
306.316036
 20
138.15912
 30
0.0
  0
SEQEND
  5
489
100
AcDbEntity
  8
0
390
0
  0
POLYLINE
  5
48A
100
AcDbEntity
  8
1
390
0
  6
Continuous
 62
    11
100
AcDb2dPolyline
 66
     1
 10
0.0
 20
0.0
 30
0.0
 40
3.0
 41
3.0
  0
VERTEX
  5
48B
100
AcDbEntity
  8
1
390
0
 62
    11
100
AcDbVertex
100
AcDb2dVertex
 10
306.316036
 20
120.15912
 30
0.0
  0
VERTEX
  5
48C
100
AcDbEntity
  8
1
390
0
 62
    11
100
AcDbVertex
100
AcDb2dVertex
 10
305.416036
 20
124.65912
 30
0.0
  0
VERTEX
  5
48D
100
AcDbEntity
  8
1
390
0
 62
    11
100
AcDbVertex
100
AcDb2dVertex
 10
304.516036
 20
120.15912
 30
0.0
  0
SEQEND
  5
48E
100
AcDbEntity
  8
0
390
0
  0
ENDBLK
  5
48F
100
AcDbEntity
  8
0
390
0
100
AcDbBlockEnd
  0
BLOCK
  5
494
100
AcDbEntity
  8
0
390
0
100
AcDbBlockBegin
  2
AID1512
 70
     0
 10
0.0
 20
0.0
 30
0.0
  3
D_GROUP
  1

  0
MTEXT
  5
495
100
AcDbEntity
  8
1
390
0
 62
     7
100
AcDbMText
 10
359.814225
 20
39.767168
 30
0.0
 40
4.0
 41
80.727273
 71
     7
 72
     1
  1
金型表面温度センサ
210
0.0
220
0.0
230
1.0
 73
     1
 44
1.0
  0
ENDBLK
  5
496
100
AcDbEntity
  8
0
390
0
100
AcDbBlockEnd
  0
BLOCK
  5
499
100
AcDbEntity
  8
0
390
0
100
AcDbBlockBegin
  2
AID1515
 70
     0
 10
0.0
 20
0.0
 30
0.0
  3
D_GROUP
  1

  0
MTEXT
  5
49A
100
AcDbEntity
  8
1
390
0
 62
     7
100
AcDbMText
 10
361.100981
 20
29.096279
 30
0.0
 40
4.0
 41
72.036364
 71
     7
 72
     1
  1
STF04.0X08.0X026
210
0.0
220
0.0
230
1.0
 73
     1
 44
1.0
  0
ENDBLK
  5
49B
100
AcDbEntity
  8
0
390
0
100
AcDbBlockEnd
  0
BLOCK
  5
49E
100
AcDbEntity
  8
0
390
0
100
AcDbBlockBegin
  2
AID1518
 70
     0
 10
0.0
 20
0.0
 30
0.0
  3
D_GROUP
  1

  0
MTEXT
  5
49F
100
AcDbEntity
  8
1
390
0
 62
     7
100
AcDbMText
 10
323.392839
 20
31.799469
 30
0.0
 40
5.0
 41
14.045455
 71
     7
 72
     1
  1
1：1
210
0.0
220
0.0
230
1.0
 73
     1
 44
1.0
  0
ENDBLK
  5
4A0
100
AcDbEntity
  8
0
390
0
100
AcDbBlockEnd
  0
BLOCK
  5
4A3
100
AcDbEntity
  8
0
390
0
100
AcDbBlockBegin
  2
AID1521
 70
     0
 10
0.0
 20
0.0
 30
0.0
  3
D_GROUP
  1

  0
MTEXT
  5
4A4
100
AcDbEntity
  8
1
390
0
 62
     7
100
AcDbMText
 10
180.014397
 20
225.213302
 30
0.0
 40
6.0
 41
77.454545
 71
     7
 72
     1
  1
M5X0.5(細目)
210
0.0
220
0.0
230
1.0
 73
     1
 44
1.0
  0
LINE
  5
4A5
100
AcDbEntity
  8
1
390
0
  6
Continuous
 62
     2
100
AcDbLine
 10
180.505306
 20
223.613302
 30
0.0
 11
219.232579
 21
223.613302
 31
0.0
  0
POLYLINE
  5
4A6
100
AcDbEntity
  8
1
390
0
  6
Continuous
 62
     2
100
AcDb2dPolyline
 66
     1
 10
0.0
 20
0.0
 30
0.0
 40
3.0
 41
3.0
  0
VERTEX
  5
4A7
100
AcDbEntity
  8
1
390
0
 62
     2
100
AcDbVertex
100
AcDb2dVertex
 10
162.67732
 20
200.42428
 30
0.0
  0
VERTEX
  5
4A8
100
AcDbEntity
  8
1
390
0
 62
     2
100
AcDbVertex
100
AcDb2dVertex
 10
158.939718
 20
197.28098
 30
0.0
  0
VERTEX
  5
4A9
100
AcDbEntity
  8
1
390
0
 62
     2
100
AcDbVertex
100
AcDb2dVertex
 10
161.28474
 20
201.564772
 30
0.0
  0
SEQEND
  5
4AA
100
AcDbEntity
  8
0
390
0
  0
LINE
  5
4AB
100
AcDbEntity
  8
1
390
0
  6
Continuous
 62
    11
100
AcDbLine
 10
158.939718
 20
197.28098
 30
0.0
 11
180.505306
 21
223.613302
 31
0.0
  0
ENDBLK
  5
4AC
100
AcDbEntity
  8
0
390
0
100
AcDbBlockEnd
  0
ENDSEC
  0
SECTION
  2
ENTITIES
  0
LINE
  5
28
100
AcDbEntity
  8
256
390
0
  6
Continuous
 62
     8
100
AcDbLine
 10
222.0
 20
34.5
 30
0.0
 11
271.0
 21
34.5
 31
0.0
  0
LINE
  5
29
100
AcDbEntity
  8
256
390
0
  6
Continuous
 62
     8
100
AcDbLine
 10
390.25
 20
277.0
 30
0.0
 11
390.25
 21
287.0
 31
0.0
  0
LINE
  5
2A
100
AcDbEntity
  8
256
390
0
  6
Continuous
 62
     8
100
AcDbLine
 10
229.511017
 20
262.368011
 30
0.0
 11
234.511017
 21
262.368011
 31
0.0
  0
LINE
  5
2B
100
AcDbEntity
  8
256
390
0
  6
Continuous
 62
     8
100
AcDbLine
 10
222.0
 20
38.0
 30
0.0
 11
271.0
 21
38.0
 31
0.0
  0
LINE
  5
2C
100
AcDbEntity
  8
256
390
0
  6
Continuous
 62
     8
100
AcDbLine
 10
237.0
 20
287.0
 30
0.0
 11
237.0
 21
257.0
 31
0.0
  0
LINE
  5
2D
100
AcDbEntity
  8
256
390
0
  6
Continuous
 62
     8
100
AcDbLine
 10
303.8
 20
48.0
 30
0.0
 11
303.8
 21
10.0
 31
0.0
  0
LINE
  5
2E
100
AcDbEntity
  8
256
390
0
  6
Continuous
 62
     8
100
AcDbLine
 10
385.25
 20
277.0
 30
0.0
 11
385.25
 21
287.0
 31
0.0
  0
LINE
  5
2F
100
AcDbEntity
  8
256
390
0
  6
Continuous
 62
     8
100
AcDbLine
 10
287.4
 20
31.0
 30
0.0
 11
287.4
 21
10.0
 31
0.0
  0
LINE
  5
30
100
AcDbEntity
  8
256
390
0
  6
Continuous
 62
     8
100
AcDbLine
 10
253.750031
 20
44.0
 30
0.0
 11
253.750031
 21
10.0
 31
0.0
  0
LINE
  5
31
100
AcDbEntity
  8
256
390
0
  6
Continuous
 62
     8
100
AcDbLine
 10
410.0
 20
10.0
 30
0.0
 11
410.0
 21
287.0
 31
0.0
  0
LINE
  5
32
100
AcDbEntity
  8
256
390
0
  6
Continuous
 62
     8
100
AcDbLine
 10
335.25
 20
15.666667
 30
0.0
 11
335.25
 21
48.0
 31
0.0
  0
LINE
  5
33
100
AcDbEntity
  8
256
390
0
  6
Continuous
 62
     8
100
AcDbLine
 10
410.0
 20
287.0
 30
0.0
 11
10.0
 21
287.0
 31
0.0
  0
LINE
  5
34
100
AcDbEntity
  8
256
390
0
  6
Continuous
 62
     8
100
AcDbLine
 10
362.0
 20
287.0
 30
0.0
 11
362.0
 21
257.0
 31
0.0
  0
LINE
  5
35
100
AcDbEntity
  8
256
390
0
  6
Continuous
 62
     8
100
AcDbLine
 10
410.0
 20
267.0
 30
0.0
 11
227.0
 21
267.0
 31
0.0
  0
LINE
  5
36
100
AcDbEntity
  8
256
390
0
  6
Continuous
 62
     8
100
AcDbLine
 10
410.0
 20
277.0
 30
0.0
 11
227.0
 21
277.0
 31
0.0
  0
LINE
  5
37
100
AcDbEntity
  8
256
390
0
  6
Continuous
 62
     8
100
AcDbLine
 10
271.0
 20
41.0
 30
0.0
 11
335.25
 21
41.0
 31
0.0
  0
LINE
  5
38
100
AcDbEntity
  8
256
390
0
  6
Continuous
 62
     8
100
AcDbLine
 10
222.0
 20
44.0
 30
0.0
 11
271.0
 21
44.0
 31
0.0
  0
LINE
  5
39
100
AcDbEntity
  8
256
390
0
  6
Continuous
 62
     8
100
AcDbLine
 10
232.011017
 20
261.664886
 30
0.0
 11
229.511017
 21
257.368011
 31
0.0
  0
LINE
  5
3A
100
AcDbEntity
  8
256
390
0
  6
Continuous
 62
     8
100
AcDbLine
 10
248.000031
 20
38.0
 30
0.0
 11
222.0
 21
44.0
 31
0.0
  0
LINE
  5
3B
100
AcDbEntity
  8
256
390
0
  6
Continuous
 62
     8
100
AcDbLine
 10
357.0
 20
262.0
 30
0.0
 11
227.0
 21
262.0
 31
0.0
  0
LINE
  5
3C
100
AcDbEntity
  8
256
390
0
  6
Continuous
 62
     8
100
AcDbLine
 10
222.0
 20
31.0
 30
0.0
 11
320.25
 21
31.0
 31
0.0
  0
LINE
  5
3D
100
AcDbEntity
  8
256
390
0
  6
Continuous
 62
     8
100
AcDbLine
 10
234.511017
 20
267.368011
 30
0.0
 11
232.011017
 21
271.664886
 31
0.0
  0
LINE
  5
3E
100
AcDbEntity
  8
256
390
0
  6
Continuous
 62
     8
100
AcDbLine
 10
385.25
 20
282.0
 30
0.0
 11
362.0
 21
282.0
 31
0.0
  0
LINE
  5
3F
100
AcDbEntity
  8
256
390
0
  6
Continuous
 62
     8
100
AcDbLine
 10
10.0
 20
10.0
 30
0.0
 11
410.0
 21
10.0
 31
0.0
  0
LINE
  5
40
100
AcDbEntity
  8
256
390
0
  6
Continuous
 62
     8
100
AcDbLine
 10
222.0
 20
48.0
 30
0.0
 11
410.0
 21
48.0
 31
0.0
  0
LINE
  5
41
100
AcDbEntity
  8
256
390
0
  6
Continuous
 62
     8
100
AcDbLine
 10
227.000031
 20
10.0
 30
0.0
 11
410.0
 21
10.0
 31
0.0
  0
LINE
  5
42
100
AcDbEntity
  8
256
390
0
  6
Continuous
 62
     8
100
AcDbLine
 10
342.0
 20
287.0
 30
0.0
 11
342.0
 21
257.0
 31
0.0
  0
LINE
  5
43
100
AcDbEntity
  8
256
390
0
  6
Continuous
 62
     8
100
AcDbLine
 10
222.0
 20
13.5
 30
0.0
 11
271.000031
 21
13.5
 31
0.0
  0
LINE
  5
44
100
AcDbEntity
  8
256
390
0
  6
Continuous
 62
     8
100
AcDbLine
 10
222.0
 20
20.5
 30
0.0
 11
271.0
 21
20.5
 31
0.0
  0
LINE
  5
45
100
AcDbEntity
  8
256
390
0
  6
Continuous
 62
     8
100
AcDbLine
 10
222.0
 20
27.5
 30
0.0
 11
271.0
 21
27.5
 31
0.0
  0
LINE
  5
46
100
AcDbEntity
  8
256
390
0
  6
Continuous
 62
     8
100
AcDbLine
 10
248.000031
 20
44.0
 30
0.0
 11
248.000031
 21
10.0
 31
0.0
  0
LINE
  5
47
100
AcDbEntity
  8
256
390
0
  6
Continuous
 62
     8
100
AcDbLine
 10
222.0
 20
48.0
 30
0.0
 11
222.0
 21
10.0
 31
0.0
  0
LINE
  5
48
100
AcDbEntity
  8
256
390
0
  6
Continuous
 62
     8
100
AcDbLine
 10
232.011017
 20
276.664886
 30
0.0
 11
229.511017
 21
272.368011
 31
0.0
  0
LINE
  5
49
100
AcDbEntity
  8
256
390
0
  6
Continuous
 62
     8
100
AcDbLine
 10
357.0
 20
282.0
 30
0.0
 11
227.0
 21
282.0
 31
0.0
  0
LINE
  5
4A
100
AcDbEntity
  8
256
390
0
  6
Continuous
 62
     8
100
AcDbLine
 10
229.511017
 20
267.368011
 30
0.0
 11
234.511017
 21
267.368011
 31
0.0
  0
LINE
  5
4B
100
AcDbEntity
  8
256
390
0
  6
Continuous
 62
     8
100
AcDbLine
 10
222.0
 20
24.0
 30
0.0
 11
271.0
 21
24.0
 31
0.0
  0
LINE
  5
4C
100
AcDbEntity
  8
256
390
0
  6
Continuous
 62
     8
100
AcDbLine
 10
232.011017
 20
281.664886
 30
0.0
 11
229.511017
 21
277.368011
 31
0.0
  0
LINE
  5
4D
100
AcDbEntity
  8
256
390
0
  6
Continuous
 62
     8
100
AcDbLine
 10
265.250031
 20
44.0
 30
0.0
 11
265.250031
 21
10.0
 31
0.0
  0
LINE
  5
4E
100
AcDbEntity
  8
256
390
0
  6
Continuous
 62
     8
100
AcDbLine
 10
229.511017
 20
277.368011
 30
0.0
 11
234.511017
 21
277.368011
 31
0.0
  0
LINE
  5
4F
100
AcDbEntity
  8
256
390
0
  6
Continuous
 62
     8
100
AcDbLine
 10
320.25
 20
10.0
 30
0.0
 11
320.25
 21
48.0
 31
0.0
  0
LINE
  5
50
100
AcDbEntity
  8
256
390
0
  6
Continuous
 62
     8
100
AcDbLine
 10
232.011017
 20
271.664886
 30
0.0
 11
229.511017
 21
267.368011
 31
0.0
  0
LINE
  5
51
100
AcDbEntity
  8
256
390
0
  6
Continuous
 62
     8
100
AcDbLine
 10
234.511017
 20
277.368011
 30
0.0
 11
232.011017
 21
281.664886
 31
0.0
  0
LINE
  5
52
100
AcDbEntity
  8
256
390
0
  6
Continuous
 62
     8
100
AcDbLine
 10
222.0
 20
17.0
 30
0.0
 11
271.0
 21
17.0
 31
0.0
  0
LINE
  5
53
100
AcDbEntity
  8
256
390
0
  6
Continuous
 62
     8
100
AcDbLine
 10
271.0
 20
48.0
 30
0.0
 11
271.0
 21
10.0
 31
0.0
  0
LINE
  5
54
100
AcDbEntity
  8
256
390
0
  6
Continuous
 62
     8
100
AcDbLine
 10
357.0
 20
287.0
 30
0.0
 11
357.0
 21
257.0
 31
0.0
  0
LINE
  5
55
100
AcDbEntity
  8
256
390
0
  6
Continuous
 62
     8
100
AcDbLine
 10
335.25
 20
35.0
 30
0.0
 11
410.0
 21
35.0
 31
0.0
  0
LINE
  5
56
100
AcDbEntity
  8
256
390
0
  6
Continuous
 62
     8
100
AcDbLine
 10
227.0
 20
287.0
 30
0.0
 11
227.0
 21
257.0
 31
0.0
  0
LINE
  5
57
100
AcDbEntity
  8
256
390
0
  6
Continuous
 62
     8
100
AcDbLine
 10
327.0
 20
287.0
 30
0.0
 11
327.0
 21
257.0
 31
0.0
  0
LINE
  5
58
100
AcDbEntity
  8
256
390
0
  6
Continuous
 62
     8
100
AcDbLine
 10
229.511017
 20
272.368011
 30
0.0
 11
234.511017
 21
272.368011
 31
0.0
  0
LINE
  5
59
100
AcDbEntity
  8
256
390
0
  6
Continuous
 62
     8
100
AcDbLine
 10
259.500031
 20
44.0
 30
0.0
 11
259.500031
 21
10.0
 31
0.0
  0
LINE
  5
5A
100
AcDbEntity
  8
256
390
0
  6
Continuous
 62
     8
100
AcDbLine
 10
320.25
 20
15.666667
 30
0.0
 11
410.0
 21
15.666667
 31
0.0
  0
LINE
  5
5B
100
AcDbEntity
  8
256
390
0
  6
Continuous
 62
     8
100
AcDbLine
 10
229.511017
 20
257.368011
 30
0.0
 11
234.511017
 21
257.368011
 31
0.0
  0
LINE
  5
5C
100
AcDbEntity
  8
256
390
0
  6
Continuous
 62
     8
100
AcDbLine
 10
232.011017
 20
266.664886
 30
0.0
 11
229.511017
 21
262.368011
 31
0.0
  0
LINE
  5
5D
100
AcDbEntity
  8
256
390
0
  6
Continuous
 62
     8
100
AcDbLine
 10
410.0
 20
257.0
 30
0.0
 11
227.0
 21
257.0
 31
0.0
  0
LINE
  5
5E
100
AcDbEntity
  8
256
390
0
  6
Continuous
 62
     8
100
AcDbLine
 10
234.511017
 20
257.368011
 30
0.0
 11
232.011017
 21
261.664886
 31
0.0
  0
LINE
  5
5F
100
AcDbEntity
  8
256
390
0
  6
Continuous
 62
     8
100
AcDbLine
 10
271.0
 20
26.5
 30
0.0
 11
410.0
 21
26.5
 31
0.0
  0
LINE
  5
60
100
AcDbEntity
  8
256
390
0
  6
Continuous
 62
     8
100
AcDbLine
 10
10.0
 20
10.0
 30
0.0
 11
10.0
 21
287.0
 31
0.0
  0
LINE
  5
61
100
AcDbEntity
  8
256
390
0
  6
Continuous
 62
     8
100
AcDbLine
 10
234.511017
 20
262.368011
 30
0.0
 11
232.011017
 21
266.664886
 31
0.0
  0
LINE
  5
62
100
AcDbEntity
  8
256
390
0
  6
Continuous
 62
     8
100
AcDbLine
 10
350.25
 20
15.666667
 30
0.0
 11
350.25
 21
48.0
 31
0.0
  0
LINE
  5
63
100
AcDbEntity
  8
256
390
0
  6
Continuous
 62
     8
100
AcDbLine
 10
307.164695
 20
32.573373
 30
0.0
 11
314.235801
 21
39.644442
 31
0.0
  0
LINE
  5
64
100
AcDbEntity
  8
256
390
0
  6
Continuous
 62
     8
100
AcDbLine
 10
357.0
 20
272.0
 30
0.0
 11
227.0
 21
272.0
 31
0.0
  0
LINE
  5
65
100
AcDbEntity
  8
256
390
0
  6
Continuous
 62
     8
100
AcDbLine
 10
234.511017
 20
272.368011
 30
0.0
 11
232.011017
 21
276.664886
 31
0.0
  0
MTEXT
  5
66
100
AcDbEntity
  8
256
390
0
 62
     8
100
AcDbMText
 10
262.375031
 20
28.244792
 30
0.0
 40
1.75
 41
4.55
 71
     8
 72
     1
  1
0.5  
210
0.0
220
0.0
230
1.0
 73
     1
 44
1.0
  0
MTEXT
  5
67
100
AcDbEntity
  8
256
390
0
 62
     8
100
AcDbMText
 10
250.875031
 20
21.244792
 30
0.0
 40
1.75
 41
4.55
 71
     8
 72
     1
  1
0.2  
210
0.0
220
0.0
230
1.0
 73
     1
 44
1.0
  0
MTEXT
  5
68
100
AcDbEntity
  8
256
390
0
 62
     8
100
AcDbMText
 10
250.875031
 20
28.244792
 30
0.0
 40
1.75
 41
3.993182
 71
     8
 72
     1
  1
0.1  
210
0.0
220
0.0
230
1.0
 73
     1
 44
1.0
  0
MTEXT
  5
69
100
AcDbEntity
  8
256
390
0
 62
     8
100
AcDbMText
 10
250.875031
 20
17.744792
 30
0.0
 40
1.75
 41
4.55
 71
     8
 72
     1
  1
0.3  
210
0.0
220
0.0
230
1.0
 73
     1
 44
1.0
  0
MTEXT
  5
6A
100
AcDbEntity
  8
256
390
0
 62
     8
100
AcDbMText
 10
287.02719
 20
42.856306
 30
0.0
 40
3.386667
 41
24.56873
 71
     8
 72
     1
  1
材    質  
210
0.0
220
0.0
230
0.9999999999999999
 73
     1
 44
1.0
  0
MTEXT
  5
6B
100
AcDbEntity
  8
256
390
0
 62
     8
100
AcDbMText
 10
256.625031
 20
35.244792
 30
0.0
 40
1.75
 41
3.993182
 71
     8
 72
     1
  1
0.1  
210
0.0
220
0.0
230
1.0
 73
     1
 44
1.0
  0
MTEXT
  5
6C
100
AcDbEntity
  8
256
390
0
 62
     8
100
AcDbMText
 10
268.125015
 20
14.244792
 30
0.0
 40
1.75
 41
1.590909
 71
     8
 72
     1
  1
6  
210
0.0
220
0.0
230
1.0
 73
     1
 44
1.0
  0
MTEXT
  5
6D
100
AcDbEntity
  8
256
390
0
 62
     8
100
AcDbMText
 10
268.125015
 20
21.244792
 30
0.0
 40
1.75
 41
4.486364
 71
     8
 72
     1
  1
2.5  
210
0.0
220
0.0
230
1.0
 73
     1
 44
1.0
  0
MTEXT
  5
6E
100
AcDbEntity
  8
256
390
0
 62
     8
100
AcDbMText
 10
312.52208
 20
42.980576
 30
0.0
 40
3.386667
 41
17.518305
 71
     8
 72
     1
  1
個 数  
210
0.0
220
0.0
230
0.9999999999999999
 73
     1
 44
1.0
  0
MTEXT
  5
6F
100
AcDbEntity
  8
256
390
0
 62
     8
100
AcDbMText
 10
360.130196
 20
257.742347
 30
0.0
 40
2.822222
 41
5.926666
 71
     8
 72
     1
  1
理  
210
0.0
220
0.0
230
1.0
 73
     1
 44
1.0
  0
MTEXT
  5
70
100
AcDbEntity
  8
256
390
0
 62
     8
100
AcDbMText
 10
257.063488
 20
41.133356
 30
0.0
 40
1.7952
 41
7.6704
 71
     8
 72
     1
  1
中級  
210
0.0
220
0.0
230
1.0
 73
     1
 44
1.0
  0
MTEXT
  5
71
100
AcDbEntity
  8
256
390
0
 62
     8
100
AcDbMText
 10
268.763424
 20
39.076539
 30
0.0
 40
2.0
 41
7.581818
 71
     8
 72
     1
  1
v %%p  
210
0.0
220
0.0
230
1.0
 73
     1
 44
1.0
  0
MTEXT
  5
72
100
AcDbEntity
  8
256
390
0
 62
     8
100
AcDbMText
 10
246.361108
 20
10.744792
 30
0.0
 40
1.75
 41
35.111364
 71
     9
 72
     1
  1
2000を超え4000以下  
210
0.0
220
0.0
230
1.0
 73
     1
 44
1.0
  0
MTEXT
  5
73
100
AcDbEntity
  8
256
390
0
 62
     8
100
AcDbMText
 10
315.229673
 20
32.880846
 30
0.0
 40
3.386667
 41
10.375516
 71
     8
 72
     1
  1
1台  
210
0.0
220
0.0
230
0.9999999999999999
 73
     1
 44
1.0
  0
MTEXT
  5
74
100
AcDbEntity
  8
256
390
0
 62
     8
100
AcDbMText
 10
246.383663
 20
21.244792
 30
0.0
 40
1.75
 41
32.056818
 71
     9
 72
     1
  1
 120を超え 400以下  
210
0.0
220
0.0
230
1.0
 73
     1
 44
1.0
  0
MTEXT
  5
75
100
AcDbEntity
  8
256
390
0
 62
     8
100
AcDbMText
 10
388.380196
 20
278.047566
 30
0.0
 40
3.386667
 41
6.958061
 71
     8
 72
     1
  1
取  
210
0.0
220
0.0
230
0.9999999999999999
 73
     1
 44
1.0
  0
MTEXT
  5
76
100
AcDbEntity
  8
256
390
0
 62
     8
100
AcDbMText
 10
388.380196
 20
282.575181
 30
0.0
 40
3.386667
 41
6.68097
 71
     8
 72
     1
  1
面  
210
0.0
220
0.0
230
0.9999999999999999
 73
     1
 44
1.0
  0
MTEXT
  5
77
100
AcDbEntity
  8
256
390
0
 62
     8
100
AcDbMText
 10
230.223858
 20
38.623908
 30
0.0
 40
1.5
 41
24.272727
 71
     8
 72
     1
  1
寸法の区分(mm)  
210
0.0
220
0.0
230
1.0
 73
     1
 44
1.0
  0
MTEXT
  5
78
100
AcDbEntity
  8
256
390
0
 62
     8
100
AcDbMText
 10
343.211504
 20
19.692223
 30
0.0
 40
3.386667
 41
16.902547
 71
     8
 72
     1
  1
図 番  
210
0.0
220
0.0
230
0.9999999999999999
 73
     1
 44
1.0
  0
MTEXT
  5
79
100
AcDbEntity
  8
256
390
0
 62
     8
100
AcDbMText
 10
262.375031
 20
31.744792
 30
0.0
 40
1.75
 41
4.55
 71
     8
 72
     1
  1
0.3  
210
0.0
220
0.0
230
1.0
 73
     1
 44
1.0
  0
MTEXT
  5
7A
100
AcDbEntity
  8
256
390
0
 62
     8
100
AcDbMText
 10
360.130196
 20
268.089407
 30
0.0
 40
3.386667
 41
7.112001
 71
     8
 72
     1
  1
理  
210
0.0
220
0.0
230
0.9999999999999999
 73
     1
 44
1.0
  0
MTEXT
  5
7B
100
AcDbEntity
  8
256
390
0
 62
     8
100
AcDbMText
 10
246.369552
 20
14.244792
 30
0.0
 40
1.75
 41
34.888636
 71
     9
 72
     1
  1
1000を超え2000以下  
210
0.0
220
0.0
230
1.0
 73
     1
 44
1.0
  0
MTEXT
  5
7C
100
AcDbEntity
  8
256
390
0
 62
     8
100
AcDbMText
 10
268.125015
 20
24.744792
 30
0.0
 40
1.75
 41
4.263636
 71
     8
 72
     1
  1
1.5  
210
0.0
220
0.0
230
1.0
 73
     1
 44
1.0
  0
MTEXT
  5
7D
100
AcDbEntity
  8
256
390
0
 62
     8
100
AcDbMText
 10
262.375031
 20
35.244792
 30
0.0
 40
1.75
 41
4.55
 71
     8
 72
     1
  1
0.2  
210
0.0
220
0.0
230
1.0
 73
     1
 44
1.0
  0
MTEXT
  5
7E
100
AcDbEntity
  8
256
390
0
 62
     8
100
AcDbMText
 10
351.983257
 20
283.013492
 30
0.0
 40
3.386667
 41
21.551517
 71
     8
 72
     1
  1
年月日     
210
0.0
220
0.0
230
0.9999999999999999
 73
     1
 44
1.0
  0
MTEXT
  5
7F
100
AcDbEntity
  8
256
390
0
 62
     8
100
AcDbMText
 10
250.875031
 20
31.744792
 30
0.0
 40
1.75
 41
6.586364
 71
     8
 72
     1
  1
0.05  
210
0.0
220
0.0
230
1.0
 73
     1
 44
1.0
  0
MTEXT
  5
80
100
AcDbEntity
  8
256
390
0
 62
     8
100
AcDbMText
 10
250.875031
 20
35.244792
 30
0.0
 40
1.75
 41
6.586364
 71
     8
 72
     1
  1
0.05  
210
0.0
220
0.0
230
1.0
 73
     1
 44
1.0
  0
MTEXT
  5
81
100
AcDbEntity
  8
256
390
0
 62
     8
100
AcDbMText
 10
262.375031
 20
10.744792
 30
0.0
 40
1.75
 41
1.765909
 71
     8
 72
     1
  1
4  
210
0.0
220
0.0
230
1.0
 73
     1
 44
1.0
  0
MTEXT
  5
82
100
AcDbEntity
  8
256
390
0
 62
     8
100
AcDbMText
 10
343.259623
 20
40.051182
 30
0.0
 40
3.386667
 41
17.210426
 71
     8
 72
     1
  1
名 称  
210
0.0
220
0.0
230
0.9999999999999999
 73
     1
 44
1.0
  0
MTEXT
  5
83
100
AcDbEntity
  8
256
390
0
 62
     8
100
AcDbMText
 10
280.042689
 20
27.073014
 30
0.0
 40
3.386667
 41
17.241214
 71
     8
 72
     1
  1
設 計  
210
0.0
220
0.0
230
0.9999999999999999
 73
     1
 44
1.0
  0
MTEXT
  5
84
100
AcDbEntity
  8
256
390
0
 62
     8
100
AcDbMText
 10
268.125015
 20
17.744792
 30
0.0
 40
1.75
 41
1.765909
 71
     8
 72
     1
  1
4  
210
0.0
220
0.0
230
1.0
 73
     1
 44
1.0
  0
MTEXT
  5
85
100
AcDbEntity
  8
256
390
0
 62
     8
100
AcDbMText
 10
256.625031
 20
28.244792
 30
0.0
 40
1.75
 41
4.55
 71
     8
 72
     1
  1
0.2  
210
0.0
220
0.0
230
1.0
 73
     1
 44
1.0
  0
MTEXT
  5
86
100
AcDbEntity
  8
256
390
0
 62
     8
100
AcDbMText
 10
246.368174
 20
17.744792
 30
0.0
 40
1.75
 41
33.138636
 71
     9
 72
     1
  1
 400を超え1000以下  
210
0.0
220
0.0
230
1.0
 73
     1
 44
1.0
  0
MTEXT
  5
87
100
AcDbEntity
  8
256
390
0
 62
     8
100
AcDbMText
 10
250.875031
 20
14.244792
 30
0.0
 40
1.75
 41
4.55
 71
     8
 72
     1
  1
0.5  
210
0.0
220
0.0
230
1.0
 73
     1
 44
1.0
  0
MTEXT
  5
88
100
AcDbEntity
  8
256
390
0
 62
     8
100
AcDbMText
 10
257.26344
 20
39.076539
 30
0.0
 40
2.0
 41
8.563636
 71
     8
 72
     1
  1
m %%p  
210
0.0
220
0.0
230
1.0
 73
     1
 44
1.0
  0
MTEXT
  5
89
100
AcDbEntity
  8
256
390
0
 62
     8
100
AcDbMText
 10
246.444454
 20
35.244792
 30
0.0
 40
1.75
 41
29.543182
 71
     9
 72
     1
  1
 0.5を超え   3以下  
210
0.0
220
0.0
230
1.0
 73
     1
 44
1.0
  0
MTEXT
  5
8A
100
AcDbEntity
  8
256
390
0
 62
     8
100
AcDbMText
 10
246.445896
 20
31.744792
 30
0.0
 40
1.75
 41
26.615909
 71
     9
 72
     1
  1
   3を超え   6以下  
210
0.0
220
0.0
230
1.0
 73
     1
 44
1.0
  0
MTEXT
  5
8B
100
AcDbEntity
  8
256
390
0
 62
     8
100
AcDbMText
 10
343.228244
 20
29.512776
 30
0.0
 40
2.54
 41
22.998545
 71
     8
 72
     1
  1
部品番号  
210
0.0
220
0.0
230
1.0
 73
     1
 44
1.0
  0
MTEXT
  5
8C
100
AcDbEntity
  8
256
390
0
 62
     8
100
AcDbMText
 10
251.19527
 20
41.133356
 30
0.0
 40
1.7952
 41
8.04576
 71
     8
 72
     1
  1
精級  
210
0.0
220
0.0
230
1.0
 73
     1
 44
1.0
  0
MTEXT
  5
8D
100
AcDbEntity
  8
256
390
0
 62
     8
100
AcDbMText
 10
246.399214
 20
24.744792
 30
0.0
 40
1.75
 41
30.243182
 71
     9
 72
     1
  1
  30を超え 120以下  
210
0.0
220
0.0
230
1.0
 73
     1
 44
1.0
  0
MTEXT
  5
8E
100
AcDbEntity
  8
256
390
0
 62
     8
100
AcDbMText
 10
262.375031
 20
24.744792
 30
0.0
 40
1.75
 41
4.565909
 71
     8
 72
     1
  1
0.8  
210
0.0
220
0.0
230
1.0
 73
     1
 44
1.0
  0
MTEXT
  5
8F
100
AcDbEntity
  8
256
390
0
 62
     8
100
AcDbMText
 10
242.4153
 20
40.925781
 30
0.0
 40
1.5
 41
13.636364
 71
     8
 72
     1
  1
公差等級  
210
0.0
220
0.0
230
1.0
 73
     1
 44
1.0
  0
MTEXT
  5
90
100
AcDbEntity
  8
256
390
0
 62
     8
100
AcDbMText
 10
246.430153
 20
28.244792
 30
0.0
 40
1.75
 41
27.395455
 71
     9
 72
     1
  1
   6を超え  30以下  
210
0.0
220
0.0
230
1.0
 73
     1
 44
1.0
  0
MTEXT
  5
91
100
AcDbEntity
  8
256
390
0
 62
     8
100
AcDbMText
 10
285.330511
 20
282.942152
 30
0.0
 40
3.386667
 41
59.482188
 71
     8
 72
     1
  1
訂    正    内    容  
210
0.0
220
0.0
230
0.9999999999999999
 73
     1
 44
1.0
  0
MTEXT
  5
92
100
AcDbEntity
  8
256
390
0
 62
     8
100
AcDbMText
 10
256.625031
 20
24.744792
 30
0.0
 40
1.75
 41
4.55
 71
     8
 72
     1
  1
0.3  
210
0.0
220
0.0
230
1.0
 73
     1
 44
1.0
  0
MTEXT
  5
93
100
AcDbEntity
  8
256
390
0
 62
     8
100
AcDbMText
 10
262.375031
 20
17.744792
 30
0.0
 40
1.75
 41
1.622727
 71
     8
 72
     1
  1
2  
210
0.0
220
0.0
230
1.0
 73
     1
 44
1.0
  0
MTEXT
  5
94
100
AcDbEntity
  8
256
390
0
 62
     8
100
AcDbMText
 10
262.375031
 20
14.244792
 30
0.0
 40
1.75
 41
1.622727
 71
     8
 72
     1
  1
3  
210
0.0
220
0.0
230
1.0
 73
     1
 44
1.0
  0
MTEXT
  5
95
100
AcDbEntity
  8
256
390
0
 62
     8
100
AcDbMText
 10
328.687321
 20
19.668163
 30
0.0
 40
3.386667
 41
22.536729
 71
     8
 72
     1
  1
三角法  
210
0.0
220
0.0
230
0.9999999999999999
 73
     1
 44
1.0
  0
MTEXT
  5
96
100
AcDbEntity
  8
256
390
0
 62
     8
100
AcDbMText
 10
365.92539
 20
11.0735
 30
0.0
 40
3.386667
 41
99.506434
 71
     8
 72
     1
  1
双 葉 電 子 工 業 株 式 会 社  
210
0.0
220
0.0
230
0.9999999999999999
 73
     1
 44
1.0
  0
MTEXT
  5
97
100
AcDbEntity
  8
256
390
0
 62
     8
100
AcDbMText
 10
256.625031
 20
17.744792
 30
0.0
 40
1.75
 41
4.565909
 71
     8
 72
     1
  1
0.8  
210
0.0
220
0.0
230
1.0
 73
     1
 44
1.0
  0
MTEXT
  5
98
100
AcDbEntity
  8
256
390
0
 62
     8
100
AcDbMText
 10
312.769883
 20
27.273035
 30
0.0
 40
3.386667
 41
17.518305
 71
     8
 72
     1
  1
承 認  
210
0.0
220
0.0
230
0.9999999999999999
 73
     1
 44
1.0
  0
MTEXT
  5
99
100
AcDbEntity
  8
256
390
0
 62
     8
100
AcDbMText
 10
268.125015
 20
28.244792
 30
0.0
 40
1.75
 41
0.843182
 71
     8
 72
     1
  1
1  
210
0.0
220
0.0
230
1.0
 73
     1
 44
1.0
  0
MTEXT
  5
9A
100
AcDbEntity
  8
256
390
0
 62
     8
100
AcDbMText
 10
247.07562
 20
45.235875
 30
0.0
 40
1.7
 41
74.846364
 71
     8
 72
     1
  1
削り加工寸法の普通許容差 JIS B 0405-1991  
210
0.0
220
0.0
230
1.0
 73
     1
 44
1.0
  0
MTEXT
  5
9B
100
AcDbEntity
  8
256
390
0
 62
     8
100
AcDbMText
 10
250.875031
 20
24.744792
 30
0.0
 40
1.75
 41
6.586364
 71
     8
 72
     1
  1
0.15  
210
0.0
220
0.0
230
1.0
 73
     1
 44
1.0
  0
MTEXT
  5
9C
100
AcDbEntity
  8
256
390
0
 62
     8
100
AcDbMText
 10
250.875031
 20
9.839584
 30
0.0
 40
2.54
 41
2.632364
 71
     8
 72
     1
  1
-  
210
0.0
220
0.0
230
1.0
 73
     1
 44
1.0
  0
MTEXT
  5
9D
100
AcDbEntity
  8
256
390
0
 62
     8
100
AcDbMText
 10
296.045235
 20
27.214792
 30
0.0
 40
3.386667
 41
17.025699
 71
     8
 72
     1
  1
検 図  
210
0.0
220
0.0
230
0.9999999999999999
 73
     1
 44
1.0
  0
MTEXT
  5
9E
100
AcDbEntity
  8
256
390
0
 62
     8
100
AcDbMText
 10
268.125015
 20
34.339584
 30
0.0
 40
2.54
 41
2.632364
 71
     8
 72
     1
  1
-  
210
0.0
220
0.0
230
1.0
 73
     1
 44
1.0
  0
MTEXT
  5
9F
100
AcDbEntity
  8
256
390
0
 62
     8
100
AcDbMText
 10
256.625031
 20
31.744792
 30
0.0
 40
1.75
 41
3.993182
 71
     8
 72
     1
  1
0.1  
210
0.0
220
0.0
230
1.0
 73
     1
 44
1.0
  0
MTEXT
  5
A0
100
AcDbEntity
  8
256
390
0
 62
     8
100
AcDbMText
 10
263.01344
 20
39.076539
 30
0.0
 40
2.0
 41
7.527273
 71
     8
 72
     1
  1
c %%p  
210
0.0
220
0.0
230
1.0
 73
     1
 44
1.0
  0
MTEXT
  5
A1
100
AcDbEntity
  8
256
390
0
 62
     8
100
AcDbMText
 10
360.130196
 20
278.047566
 30
0.0
 40
3.386667
 41
6.68097
 71
     8
 72
     1
  1
上  
210
0.0
220
0.0
230
0.9999999999999999
 73
     1
 44
1.0
  0
MTEXT
  5
A2
100
AcDbEntity
  8
256
390
0
 62
     8
100
AcDbMText
 10
232.748022
 20
282.92144
 30
0.0
 40
3.386667
 41
14.870547
 71
     8
 72
     1
  1
記号  
210
0.0
220
0.0
230
0.9999999999999999
 73
     1
 44
1.0
  0
MTEXT
  5
A3
100
AcDbEntity
  8
256
390
0
 62
     8
100
AcDbMText
 10
256.625031
 20
21.244792
 30
0.0
 40
1.75
 41
4.55
 71
     8
 72
     1
  1
0.5  
210
0.0
220
0.0
230
1.0
 73
     1
 44
1.0
  0
MTEXT
  5
A4
100
AcDbEntity
  8
256
390
0
 62
     8
100
AcDbMText
 10
256.625031
 20
10.744792
 30
0.0
 40
1.75
 41
1.622727
 71
     8
 72
     1
  1
2  
210
0.0
220
0.0
230
1.0
 73
     1
 44
1.0
  0
MTEXT
  5
A5
100
AcDbEntity
  8
256
390
0
 62
     8
100
AcDbMText
 10
262.375031
 20
21.244792
 30
0.0
 40
1.75
 41
4.263636
 71
     8
 72
     1
  1
1.2  
210
0.0
220
0.0
230
1.0
 73
     1
 44
1.0
  0
MTEXT
  5
A6
100
AcDbEntity
  8
256
390
0
 62
     8
100
AcDbMText
 10
360.130196
 20
282.575181
 30
0.0
 40
3.386667
 41
7.050425
 71
     8
 72
     1
  1
仕  
210
0.0
220
0.0
230
0.9999999999999999
 73
     1
 44
1.0
  0
MTEXT
  5
A7
100
AcDbEntity
  8
256
390
0
 62
     8
100
AcDbMText
 10
268.125015
 20
10.744792
 30
0.0
 40
1.75
 41
1.654545
 71
     8
 72
     1
  1
8  
210
0.0
220
0.0
230
1.0
 73
     1
 44
1.0
  0
MTEXT
  5
A8
100
AcDbEntity
  8
256
390
0
 62
     8
100
AcDbMText
 10
360.130196
 20
260.858133
 30
0.0
 40
2.822222
 41
5.875353
 71
     8
 72
     1
  1
処  
210
0.0
220
0.0
230
1.0
 73
     1
 44
1.0
  0
MTEXT
  5
A9
100
AcDbEntity
  8
256
390
0
 62
     8
100
AcDbMText
 10
336.870941
 20
283.013492
 30
0.0
 40
3.386667
 41
22.81382
 71
     8
 72
     1
  1
担当者     
210
0.0
220
0.0
230
0.9999999999999999
 73
     1
 44
1.0
  0
MTEXT
  5
AA
100
AcDbEntity
  8
256
390
0
 62
     8
100
AcDbMText
 10
251.577735
 20
39.076539
 30
0.0
 40
2.0
 41
6.836364
 71
     8
 72
     1
  1
f %%p  
210
0.0
220
0.0
230
1.0
 73
     1
 44
1.0
  0
MTEXT
  5
AB
100
AcDbEntity
  8
256
390
0
 62
     8
100
AcDbMText
 10
360.130196
 20
263.973919
 30
0.0
 40
2.822222
 41
5.952323
 71
     8
 72
     1
  1
熱  
210
0.0
220
0.0
230
1.0
 73
     1
 44
1.0
  0
MTEXT
  5
AC
100
AcDbEntity
  8
256
390
0
 62
     8
100
AcDbMText
 10
268.125015
 20
31.744792
 30
0.0
 40
1.75
 41
4.55
 71
     8
 72
     1
  1
0.5  
210
0.0
220
0.0
230
1.0
 73
     1
 44
1.0
  0
MTEXT
  5
AD
100
AcDbEntity
  8
256
390
0
 62
     8
100
AcDbMText
 10
328.494219
 20
43.012096
 30
0.0
 40
3.386667
 41
17.30279
 71
     8
 72
     1
  1
尺 度  
210
0.0
220
0.0
230
0.9999999999999999
 73
     1
 44
1.0
  0
MTEXT
  5
AE
100
AcDbEntity
  8
256
390
0
 62
     8
100
AcDbMText
 10
262.660189
 20
41.133356
 30
0.0
 40
1.7952
 41
7.9968
 71
     8
 72
     1
  1
粗級  
210
0.0
220
0.0
230
1.0
 73
     1
 44
1.0
  0
MTEXT
  5
AF
100
AcDbEntity
  8
256
390
0
 62
     8
100
AcDbMText
 10
225.086682
 20
40.357732
 30
0.0
 40
1.5
 41
6.640909
 71
     8
 72
     1
  1
基準  
210
0.0
220
0.0
230
1.0
 73
     1
 44
1.0
  0
MTEXT
  5
B0
100
AcDbEntity
  8
256
390
0
 62
     8
100
AcDbMText
 10
268.384088
 20
41.201556
 30
0.0
 40
1.584
 41
10.8
 71
     8
 72
     1
  1
極粗級  
210
0.0
220
0.0
230
1.0
 73
     1
 44
1.0
  0
MTEXT
  5
B1
100
AcDbEntity
  8
256
390
0
 62
     8
100
AcDbMText
 10
256.625031
 20
14.244792
 30
0.0
 40
1.75
 41
4.263636
 71
     8
 72
     1
  1
1.2  
210
0.0
220
0.0
230
1.0
 73
     1
 44
1.0
  0
MTEXT
  5
B2
100
AcDbEntity
  8
256
390
0
 62
     8
100
AcDbMText
 10
360.130196
 20
272.53334
 30
0.0
 40
3.386667
 41
7.050425
 71
     8
 72
     1
  1
処  
210
0.0
220
0.0
230
0.9999999999999999
 73
     1
 44
1.0
  0
INSERT
  5
B7
100
AcDbEntity
  8
256
390
0
100
AcDbBlockReference
  2
AID278
 10
0.0
 20
0.0
 30
0.0
  0
LINE
  5
B9
100
AcDbEntity
  8
1
390
0
  6
Continuous
 62
     7
100
AcDbLine
 10
143.931403
 20
191.28098
 30
0.0
 11
143.931403
 21
194.78098
 31
0.0
  0
LINE
  5
BA
100
AcDbEntity
  8
1
390
0
  6
Continuous
 62
     7
100
AcDbLine
 10
148.931403
 20
191.28098
 30
0.0
 11
148.931403
 21
194.78098
 31
0.0
  0
LINE
  5
BB
100
AcDbEntity
  8
1
390
0
  6
Continuous
 62
     7
100
AcDbLine
 10
143.931403
 20
194.78098
 30
0.0
 11
143.931403
 21
198.28098
 31
0.0
  0
LINE
  5
BC
100
AcDbEntity
  8
1
390
0
  6
Continuous
 62
     7
100
AcDbLine
 10
148.931403
 20
194.78098
 30
0.0
 11
148.931403
 21
198.28098
 31
0.0
  0
LINE
  5
BD
100
AcDbEntity
  8
1
390
0
  6
Continuous
 62
     7
100
AcDbLine
 10
161.656403
 20
192.28098
 30
0.0
 11
161.656403
 21
194.78098
 31
0.0
  0
LINE
  5
BE
100
AcDbEntity
  8
1
390
0
  6
Continuous
 62
     7
100
AcDbLine
 10
161.931403
 20
192.55598
 30
0.0
 11
161.931403
 21
194.78098
 31
0.0
  0
LINE
  5
BF
100
AcDbEntity
  8
1
390
0
  6
Continuous
 62
     7
100
AcDbLine
 10
161.656403
 20
194.78098
 30
0.0
 11
161.656403
 21
197.28098
 31
0.0
  0
LINE
  5
C0
100
AcDbEntity
  8
1
390
0
  6
Continuous
 62
     7
100
AcDbLine
 10
161.931403
 20
194.78098
 30
0.0
 11
161.931403
 21
197.00598
 31
0.0
  0
LINE
  5
C1
100
AcDbEntity
  8
1
390
0
  6
Continuous
 62
     7
100
AcDbLine
 10
135.931403
 20
192.78098
 30
0.0
 11
135.931403
 21
194.78098
 31
0.0
  0
LINE
  5
C2
100
AcDbEntity
  8
1
390
0
  6
Continuous
 62
     7
100
AcDbLine
 10
142.931403
 20
192.78098
 30
0.0
 11
142.931403
 21
194.78098
 31
0.0
  0
LINE
  5
C3
100
AcDbEntity
  8
1
390
0
  6
Continuous
 62
     7
100
AcDbLine
 10
135.931403
 20
194.78098
 30
0.0
 11
135.931403
 21
196.78098
 31
0.0
  0
LINE
  5
C4
100
AcDbEntity
  8
1
390
0
  6
Continuous
 62
     7
100
AcDbLine
 10
142.931403
 20
194.78098
 30
0.0
 11
142.931403
 21
196.78098
 31
0.0
  0
LINE
  5
C5
100
AcDbEntity
  8
1
390
0
  6
Continuous
 62
     7
100
AcDbLine
 10
143.931403
 20
191.28098
 30
0.0
 11
148.931403
 21
191.28098
 31
0.0
  0
LINE
  5
C6
100
AcDbEntity
  8
1
390
0
  6
Continuous
 62
     7
100
AcDbLine
 10
148.931403
 20
198.28098
 30
0.0
 11
143.931403
 21
198.28098
 31
0.0
  0
LINE
  5
C7
100
AcDbEntity
  8
1
390
0
  6
Continuous
 62
     7
100
AcDbLine
 10
161.656403
 20
192.28098
 30
0.0
 11
161.931403
 21
192.55598
 31
0.0
  0
LINE
  5
C8
100
AcDbEntity
  8
1
390
0
  6
Continuous
 62
     7
100
AcDbLine
 10
161.931403
 20
197.00598
 30
0.0
 11
161.656403
 21
197.28098
 31
0.0
  0
LINE
  5
C9
100
AcDbEntity
  8
1
390
0
  6
Continuous
 62
     7
100
AcDbLine
 10
148.931403
 20
192.28098
 30
0.0
 11
161.656403
 21
192.28098
 31
0.0
  0
LINE
  5
CA
100
AcDbEntity
  8
1
390
0
  6
Continuous
 62
     7
100
AcDbLine
 10
161.656403
 20
197.28098
 30
0.0
 11
148.931403
 21
197.28098
 31
0.0
  0
LINE
  5
CB
100
AcDbEntity
  8
1
390
0
  6
Continuous
 62
     7
100
AcDbLine
 10
135.931403
 20
192.78098
 30
0.0
 11
142.931403
 21
192.78098
 31
0.0
  0
LINE
  5
CC
100
AcDbEntity
  8
1
390
0
  6
Continuous
 62
     7
100
AcDbLine
 10
142.931403
 20
196.78098
 30
0.0
 11
135.931403
 21
196.78098
 31
0.0
  0
LINE
  5
CD
100
AcDbEntity
  8
1
390
0
  6
Continuous
 62
     7
100
AcDbLine
 10
142.931403
 20
192.88098
 30
0.0
 11
143.931403
 21
192.88098
 31
0.0
  0
LINE
  5
CE
100
AcDbEntity
  8
1
390
0
  6
Continuous
 62
     7
100
AcDbLine
 10
143.931403
 20
196.68098
 30
0.0
 11
142.931403
 21
196.68098
 31
0.0
  0
LINE
  5
CF
100
AcDbEntity
  8
1
390
0
  6
Continuous
 62
     7
100
AcDbLine
 10
188.933905
 20
196.03098
 30
0.0
 11
161.931403
 21
196.03098
 31
0.0
  0
LINE
  5
D0
100
AcDbEntity
  8
1
390
0
  6
Continuous
 62
     7
100
AcDbLine
 10
161.931403
 20
193.53098
 30
0.0
 11
187.763179
 21
193.53098
 31
0.0
  0
POLYLINE
  5
D1
100
AcDbEntity
  8
1
390
0
  6
Continuous
 62
     7
100
AcDb2dPolyline
 66
     1
 10
0.0
 20
0.0
 30
0.0
 40
3.0
 41
3.0
  0
VERTEX
  5
D2
100
AcDbEntity
  8
1
390
0
 62
     7
100
AcDbVertex
100
AcDb2dVertex
 10
256.343229
 20
186.98098
 30
0.0
  0
VERTEX
  5
D3
100
AcDbEntity
  8
1
390
0
 62
     7
100
AcDbVertex
100
AcDb2dVertex
 10
256.286039
 20
186.887707
 30
0.0
  0
VERTEX
  5
D4
100
AcDbEntity
  8
1
390
0
 62
     7
100
AcDbVertex
100
AcDb2dVertex
 10
256.229032
 20
186.799893
 30
0.0
  0
VERTEX
  5
D5
100
AcDbEntity
  8
1
390
0
 62
     7
100
AcDbVertex
100
AcDb2dVertex
 10
256.216296
 20
186.78098
 30
0.0
  0
SEQEND
  5
D6
100
AcDbEntity
  8
0
390
0
  0
ARC
  5
D7
100
AcDbEntity
  8
1
390
0
  6
Continuous
 62
     7
100
AcDbCircle
 10
255.286892
 20
186.410649
 30
0.0
 40
1.000469
210
0.0
220
0.0
230
1.0
100
AcDbArc
 50
21.72536
 51
158.27464
  0
POLYLINE
  5
D8
100
AcDbEntity
  8
1
390
0
  6
Continuous
 62
     7
100
AcDb2dPolyline
 66
     1
 10
0.0
 20
0.0
 30
0.0
 40
3.0
 41
3.0
  0
VERTEX
  5
D9
100
AcDbEntity
  8
1
390
0
 62
     7
100
AcDbVertex
100
AcDb2dVertex
 10
254.230556
 20
186.98098
 30
0.0
  0
VERTEX
  5
DA
100
AcDbEntity
  8
1
390
0
 62
     7
100
AcDbVertex
100
AcDb2dVertex
 10
254.287746
 20
186.887707
 30
0.0
  0
VERTEX
  5
DB
100
AcDbEntity
  8
1
390
0
 62
     7
100
AcDbVertex
100
AcDb2dVertex
 10
254.344753
 20
186.799893
 30
0.0
  0
VERTEX
  5
DC
100
AcDbEntity
  8
1
390
0
 62
     7
100
AcDbVertex
100
AcDb2dVertex
 10
254.357488
 20
186.78098
 30
0.0
  0
SEQEND
  5
DD
100
AcDbEntity
  8
0
390
0
  0
ARC
  5
DE
100
AcDbEntity
  8
1
390
0
  6
Continuous
 62
     7
100
AcDbCircle
 10
260.787361
 20
203.151312
 30
0.0
 40
1.0
210
0.0
220
0.0
230
1.0
100
AcDbArc
 50
201.736056
 51
338.263944
  0
POLYLINE
  5
DF
100
AcDbEntity
  8
1
390
0
  6
Continuous
 62
     7
100
AcDb2dPolyline
 66
     1
 10
0.0
 20
0.0
 30
0.0
 40
3.0
 41
3.0
  0
VERTEX
  5
E0
100
AcDbEntity
  8
1
390
0
 62
     7
100
AcDbVertex
100
AcDb2dVertex
 10
261.716261
 20
202.78098
 30
0.0
  0
VERTEX
  5
E1
100
AcDbEntity
  8
1
390
0
 62
     7
100
AcDbVertex
100
AcDb2dVertex
 10
261.774254
 20
202.692754
 30
0.0
  0
VERTEX
  5
E2
100
AcDbEntity
  8
1
390
0
 62
     7
100
AcDbVertex
100
AcDb2dVertex
 10
261.829136
 20
202.604344
 30
0.0
  0
VERTEX
  5
E3
100
AcDbEntity
  8
1
390
0
 62
     7
100
AcDbVertex
100
AcDb2dVertex
 10
261.843165
 20
202.58098
 30
0.0
  0
SEQEND
  5
E4
100
AcDbEntity
  8
0
390
0
  0
POLYLINE
  5
E5
100
AcDbEntity
  8
1
390
0
  6
Continuous
 62
     7
100
AcDb2dPolyline
 66
     1
 10
0.0
 20
0.0
 30
0.0
 40
3.0
 41
3.0
  0
VERTEX
  5
E6
100
AcDbEntity
  8
1
390
0
 62
     7
100
AcDbVertex
100
AcDb2dVertex
 10
259.858461
 20
202.78098
 30
0.0
  0
VERTEX
  5
E7
100
AcDbEntity
  8
1
390
0
 62
     7
100
AcDbVertex
100
AcDb2dVertex
 10
259.800468
 20
202.692754
 30
0.0
  0
VERTEX
  5
E8
100
AcDbEntity
  8
1
390
0
 62
     7
100
AcDbVertex
100
AcDb2dVertex
 10
259.745586
 20
202.604344
 30
0.0
  0
VERTEX
  5
E9
100
AcDbEntity
  8
1
390
0
 62
     7
100
AcDbVertex
100
AcDb2dVertex
 10
259.731557
 20
202.58098
 30
0.0
  0
SEQEND
  5
EA
100
AcDbEntity
  8
0
390
0
  0
POLYLINE
  5
EB
100
AcDbEntity
  8
1
390
0
  6
Continuous
 62
     7
100
AcDb2dPolyline
 66
     1
 10
0.0
 20
0.0
 30
0.0
 40
3.0
 41
3.0
  0
VERTEX
  5
EC
100
AcDbEntity
  8
1
390
0
 62
     7
100
AcDbVertex
100
AcDb2dVertex
 10
256.981024
 20
186.98098
 30
0.0
  0
VERTEX
  5
ED
100
AcDbEntity
  8
1
390
0
 62
     7
100
AcDbVertex
100
AcDb2dVertex
 10
257.038215
 20
186.887707
 30
0.0
  0
VERTEX
  5
EE
100
AcDbEntity
  8
1
390
0
 62
     7
100
AcDbVertex
100
AcDb2dVertex
 10
257.095221
 20
186.799893
 30
0.0
  0
VERTEX
  5
EF
100
AcDbEntity
  8
1
390
0
 62
     7
100
AcDbVertex
100
AcDb2dVertex
 10
257.107957
 20
186.78098
 30
0.0
  0
SEQEND
  5
F0
100
AcDbEntity
  8
0
390
0
  0
LINE
  5
F1
100
AcDbEntity
  8
1
390
0
  6
Continuous
 62
     7
100
AcDbLine
 10
257.107957
 20
186.78098
 30
0.0
 11
256.216296
 21
186.78098
 31
0.0
  0
LINE
  5
F2
100
AcDbEntity
  8
1
390
0
  6
Continuous
 62
     7
100
AcDbLine
 10
261.716261
 20
202.78098
 30
0.0
 11
266.287361
 21
202.78098
 31
0.0
  0
POLYLINE
  5
F3
100
AcDbEntity
  8
1
390
0
  6
Continuous
 62
     7
100
AcDb2dPolyline
 66
     1
 10
0.0
 20
0.0
 30
0.0
 40
3.0
 41
3.0
  0
VERTEX
  5
F4
100
AcDbEntity
  8
1
390
0
 62
     7
100
AcDbVertex
100
AcDb2dVertex
 10
259.093697
 20
186.98098
 30
0.0
  0
VERTEX
  5
F5
100
AcDbEntity
  8
1
390
0
 62
     7
100
AcDbVertex
100
AcDb2dVertex
 10
259.036507
 20
186.887707
 30
0.0
  0
VERTEX
  5
F6
100
AcDbEntity
  8
1
390
0
 62
     7
100
AcDbVertex
100
AcDb2dVertex
 10
258.9795
 20
186.799893
 30
0.0
  0
VERTEX
  5
F7
100
AcDbEntity
  8
1
390
0
 62
     7
100
AcDbVertex
100
AcDb2dVertex
 10
258.966765
 20
186.78098
 30
0.0
  0
SEQEND
  5
F8
100
AcDbEntity
  8
0
390
0
  0
ARC
  5
F9
100
AcDbEntity
  8
1
390
0
  6
Continuous
 62
     7
100
AcDbCircle
 10
258.037361
 20
186.410649
 30
0.0
 40
1.000469
210
0.0
220
0.0
230
1.0
100
AcDbArc
 50
21.72536
 51
158.27464
  0
ARC
  5
FA
100
AcDbEntity
  8
1
390
0
  6
Continuous
 62
     7
100
AcDbCircle
 10
266.287361
 20
201.78098
 30
0.0
 40
1.0
210
0.0
220
0.0
230
1.0
100
AcDbArc
 50
0.0
 51
90.0
  0
POLYLINE
  5
FB
100
AcDbEntity
  8
1
390
0
  6
Continuous
 62
     7
100
AcDb2dPolyline
 66
     1
 10
0.0
 20
0.0
 30
0.0
 40
3.0
 41
3.0
  0
VERTEX
  5
FC
100
AcDbEntity
  8
1
390
0
 62
     7
100
AcDbVertex
100
AcDb2dVertex
 10
259.731557
 20
186.98098
 30
0.0
  0
VERTEX
  5
FD
100
AcDbEntity
  8
1
390
0
 62
     7
100
AcDbVertex
100
AcDb2dVertex
 10
259.788728
 20
186.887716
 30
0.0
  0
VERTEX
  5
FE
100
AcDbEntity
  8
1
390
0
 62
     7
100
AcDbVertex
100
AcDb2dVertex
 10
259.845727
 20
186.799895
 30
0.0
  0
VERTEX
  5
FF
100
AcDbEntity
  8
1
390
0
 62
     7
100
AcDbVertex
100
AcDb2dVertex
 10
259.858461
 20
186.78098
 30
0.0
  0
SEQEND
  5
100
100
AcDbEntity
  8
0
390
0
  0
LINE
  5
101
100
AcDbEntity
  8
1
390
0
  6
Continuous
 62
     7
100
AcDbLine
 10
259.858461
 20
186.78098
 30
0.0
 11
258.966765
 21
186.78098
 31
0.0
  0
LINE
  5
102
100
AcDbEntity
  8
1
390
0
  6
Continuous
 62
     7
100
AcDbLine
 10
267.287361
 20
201.78098
 30
0.0
 11
267.287361
 21
187.78098
 31
0.0
  0
POLYLINE
  5
103
100
AcDbEntity
  8
1
390
0
  6
Continuous
 62
     7
100
AcDb2dPolyline
 66
     1
 10
0.0
 20
0.0
 30
0.0
 40
3.0
 41
3.0
  0
VERTEX
  5
104
100
AcDbEntity
  8
1
390
0
 62
     7
100
AcDbVertex
100
AcDb2dVertex
 10
261.843165
 20
186.98098
 30
0.0
  0
VERTEX
  5
105
100
AcDbEntity
  8
1
390
0
 62
     7
100
AcDbVertex
100
AcDb2dVertex
 10
261.785994
 20
186.887716
 30
0.0
  0
VERTEX
  5
106
100
AcDbEntity
  8
1
390
0
 62
     7
100
AcDbVertex
100
AcDb2dVertex
 10
261.728995
 20
186.799895
 30
0.0
  0
VERTEX
  5
107
100
AcDbEntity
  8
1
390
0
 62
     7
100
AcDbVertex
100
AcDb2dVertex
 10
261.716261
 20
186.78098
 30
0.0
  0
SEQEND
  5
108
100
AcDbEntity
  8
0
390
0
  0
ARC
  5
109
100
AcDbEntity
  8
1
390
0
  6
Continuous
 62
     7
100
AcDbCircle
 10
260.787361
 20
186.410649
 30
0.0
 40
1.0
210
0.0
220
0.0
230
1.0
100
AcDbArc
 50
21.736056
 51
158.263944
  0
ARC
  5
10A
100
AcDbEntity
  8
1
390
0
  6
Continuous
 62
     7
100
AcDbCircle
 10
266.287361
 20
187.78098
 30
0.0
 40
1.0
210
0.0
220
0.0
230
1.0
100
AcDbArc
 50
270.0
 51
360.0
  0
LINE
  5
10B
100
AcDbEntity
  8
1
390
0
  6
Continuous
 62
     7
100
AcDbLine
 10
266.287361
 20
186.78098
 30
0.0
 11
261.716261
 21
186.78098
 31
0.0
  0
LINE
  5
10C
100
AcDbEntity
  8
1
390
0
  6
Continuous
 62
     7
100
AcDbLine
 10
248.287361
 20
187.78098
 30
0.0
 11
248.287361
 21
201.78098
 31
0.0
  0
LINE
  5
10D
100
AcDbEntity
  8
1
390
0
  6
Continuous
 62
     7
100
AcDbLine
 10
256.216296
 20
202.78098
 30
0.0
 11
257.107957
 21
202.78098
 31
0.0
  0
POLYLINE
  5
10E
100
AcDbEntity
  8
1
390
0
  6
Continuous
 62
     7
100
AcDb2dPolyline
 66
     1
 10
0.0
 20
0.0
 30
0.0
 40
3.0
 41
3.0
  0
VERTEX
  5
10F
100
AcDbEntity
  8
1
390
0
 62
     7
100
AcDbVertex
100
AcDb2dVertex
 10
257.107957
 20
202.78098
 30
0.0
  0
VERTEX
  5
110
100
AcDbEntity
  8
1
390
0
 62
     7
100
AcDbVertex
100
AcDb2dVertex
 10
257.049956
 20
202.692762
 30
0.0
  0
VERTEX
  5
111
100
AcDbEntity
  8
1
390
0
 62
     7
100
AcDbVertex
100
AcDb2dVertex
 10
256.995059
 20
202.604347
 30
0.0
  0
VERTEX
  5
112
100
AcDbEntity
  8
1
390
0
 62
     7
100
AcDbVertex
100
AcDb2dVertex
 10
256.981024
 20
202.58098
 30
0.0
  0
SEQEND
  5
113
100
AcDbEntity
  8
0
390
0
  0
POLYLINE
  5
114
100
AcDbEntity
  8
1
390
0
  6
Continuous
 62
     7
100
AcDb2dPolyline
 66
     1
 10
0.0
 20
0.0
 30
0.0
 40
3.0
 41
3.0
  0
VERTEX
  5
115
100
AcDbEntity
  8
1
390
0
 62
     7
100
AcDbVertex
100
AcDb2dVertex
 10
256.216296
 20
202.78098
 30
0.0
  0
VERTEX
  5
116
100
AcDbEntity
  8
1
390
0
 62
     7
100
AcDbVertex
100
AcDb2dVertex
 10
256.274297
 20
202.692762
 30
0.0
  0
VERTEX
  5
117
100
AcDbEntity
  8
1
390
0
 62
     7
100
AcDbVertex
100
AcDb2dVertex
 10
256.329195
 20
202.604347
 30
0.0
  0
VERTEX
  5
118
100
AcDbEntity
  8
1
390
0
 62
     7
100
AcDbVertex
100
AcDb2dVertex
 10
256.343229
 20
202.58098
 30
0.0
  0
SEQEND
  5
119
100
AcDbEntity
  8
0
390
0
  0
LINE
  5
11A
100
AcDbEntity
  8
1
390
0
  6
Continuous
 62
     7
100
AcDbLine
 10
249.287361
 20
202.78098
 30
0.0
 11
254.357488
 21
202.78098
 31
0.0
  0
POLYLINE
  5
11B
100
AcDbEntity
  8
1
390
0
  6
Continuous
 62
     7
100
AcDb2dPolyline
 66
     1
 10
0.0
 20
0.0
 30
0.0
 40
3.0
 41
3.0
  0
VERTEX
  5
11C
100
AcDbEntity
  8
1
390
0
 62
     7
100
AcDbVertex
100
AcDb2dVertex
 10
254.357488
 20
202.78098
 30
0.0
  0
VERTEX
  5
11D
100
AcDbEntity
  8
1
390
0
 62
     7
100
AcDbVertex
100
AcDb2dVertex
 10
254.299488
 20
202.692762
 30
0.0
  0
VERTEX
  5
11E
100
AcDbEntity
  8
1
390
0
 62
     7
100
AcDbVertex
100
AcDb2dVertex
 10
254.24459
 20
202.604347
 30
0.0
  0
VERTEX
  5
11F
100
AcDbEntity
  8
1
390
0
 62
     7
100
AcDbVertex
100
AcDb2dVertex
 10
254.230556
 20
202.58098
 30
0.0
  0
SEQEND
  5
120
100
AcDbEntity
  8
0
390
0
  0
ARC
  5
121
100
AcDbEntity
  8
1
390
0
  6
Continuous
 62
     7
100
AcDbCircle
 10
249.287361
 20
201.78098
 30
0.0
 40
1.0
210
0.0
220
0.0
230
1.0
100
AcDbArc
 50
90.0
 51
180.0
  0
ARC
  5
122
100
AcDbEntity
  8
1
390
0
  6
Continuous
 62
     7
100
AcDbCircle
 10
255.286892
 20
203.151312
 30
0.0
 40
1.000469
210
0.0
220
0.0
230
1.0
100
AcDbArc
 50
201.72536
 51
338.27464
  0
LINE
  5
123
100
AcDbEntity
  8
1
390
0
  6
Continuous
 62
     7
100
AcDbLine
 10
258.966765
 20
202.78098
 30
0.0
 11
259.858461
 21
202.78098
 31
0.0
  0
POLYLINE
  5
124
100
AcDbEntity
  8
1
390
0
  6
Continuous
 62
     7
100
AcDb2dPolyline
 66
     1
 10
0.0
 20
0.0
 30
0.0
 40
3.0
 41
3.0
  0
VERTEX
  5
125
100
AcDbEntity
  8
1
390
0
 62
     7
100
AcDbVertex
100
AcDb2dVertex
 10
258.966765
 20
202.78098
 30
0.0
  0
VERTEX
  5
126
100
AcDbEntity
  8
1
390
0
 62
     7
100
AcDbVertex
100
AcDb2dVertex
 10
259.024766
 20
202.692762
 30
0.0
  0
VERTEX
  5
127
100
AcDbEntity
  8
1
390
0
 62
     7
100
AcDbVertex
100
AcDb2dVertex
 10
259.079663
 20
202.604347
 30
0.0
  0
VERTEX
  5
128
100
AcDbEntity
  8
1
390
0
 62
     7
100
AcDbVertex
100
AcDb2dVertex
 10
259.093697
 20
202.58098
 30
0.0
  0
SEQEND
  5
129
100
AcDbEntity
  8
0
390
0
  0
ARC
  5
12A
100
AcDbEntity
  8
1
390
0
  6
Continuous
 62
     7
100
AcDbCircle
 10
258.037361
 20
203.151312
 30
0.0
 40
1.000469
210
0.0
220
0.0
230
1.0
100
AcDbArc
 50
201.72536
 51
338.27464
  0
ARC
  5
12B
100
AcDbEntity
  8
1
390
0
  6
Continuous
 62
     7
100
AcDbCircle
 10
249.287361
 20
187.78098
 30
0.0
 40
1.0
210
0.0
220
0.0
230
1.0
100
AcDbArc
 50
180.0
 51
270.0
  0
LINE
  5
12C
100
AcDbEntity
  8
1
390
0
  6
Continuous
 62
     7
100
AcDbLine
 10
254.357488
 20
186.78098
 30
0.0
 11
249.287361
 21
186.78098
 31
0.0
  0
LINE
  5
12D
100
AcDbEntity
  8
1
390
0
  6
Continuous
 62
     7
100
AcDbLine
 10
242.586024
 20
190.25598
 30
0.0
 11
243.262361
 21
190.25598
 31
0.0
  0
LINE
  5
12E
100
AcDbEntity
  8
1
390
0
  6
Continuous
 62
     7
100
AcDbLine
 10
243.262361
 20
190.25598
 30
0.0
 11
243.262361
 21
189.579644
 31
0.0
  0
LINE
  5
12F
100
AcDbEntity
  8
1
390
0
  6
Continuous
 62
     7
100
AcDbLine
 10
244.488697
 20
198.75598
 30
0.0
 11
243.812361
 21
198.75598
 31
0.0
  0
LINE
  5
130
100
AcDbEntity
  8
1
390
0
  6
Continuous
 62
     7
100
AcDbLine
 10
243.812361
 20
198.75598
 30
0.0
 11
243.812361
 21
198.079644
 31
0.0
  0
LINE
  5
131
100
AcDbEntity
  8
1
390
0
  6
Continuous
 62
     7
100
AcDbLine
 10
243.262361
 20
191.482317
 30
0.0
 11
243.262361
 21
190.80598
 31
0.0
  0
LINE
  5
132
100
AcDbEntity
  8
1
390
0
  6
Continuous
 62
     7
100
AcDbLine
 10
243.262361
 20
190.80598
 30
0.0
 11
242.586024
 21
190.80598
 31
0.0
  0
LINE
  5
133
100
AcDbEntity
  8
1
390
0
  6
Continuous
 62
     7
100
AcDbLine
 10
243.262361
 20
199.30598
 30
0.0
 11
243.262361
 21
199.982317
 31
0.0
  0
LINE
  5
134
100
AcDbEntity
  8
1
390
0
  6
Continuous
 62
     7
100
AcDbLine
 10
242.586024
 20
199.30598
 30
0.0
 11
243.262361
 21
199.30598
 31
0.0
  0
LINE
  5
135
100
AcDbEntity
  8
1
390
0
  6
Continuous
 62
     7
100
AcDbLine
 10
243.262361
 20
198.079644
 30
0.0
 11
243.262361
 21
198.75598
 31
0.0
  0
LINE
  5
136
100
AcDbEntity
  8
1
390
0
  6
Continuous
 62
     7
100
AcDbLine
 10
243.262361
 20
198.75598
 30
0.0
 11
242.586024
 21
198.75598
 31
0.0
  0
LINE
  5
137
100
AcDbEntity
  8
1
390
0
  6
Continuous
 62
     7
100
AcDbLine
 10
243.812361
 20
199.30598
 30
0.0
 11
244.488697
 21
199.30598
 31
0.0
  0
LINE
  5
138
100
AcDbEntity
  8
1
390
0
  6
Continuous
 62
     7
100
AcDbLine
 10
243.812361
 20
199.982317
 30
0.0
 11
243.812361
 21
199.30598
 31
0.0
  0
LINE
  5
139
100
AcDbEntity
  8
1
390
0
  6
Continuous
 62
     7
100
AcDbLine
 10
243.812361
 20
189.579644
 30
0.0
 11
243.812361
 21
190.25598
 31
0.0
  0
LINE
  5
13A
100
AcDbEntity
  8
1
390
0
  6
Continuous
 62
     7
100
AcDbLine
 10
243.812361
 20
190.25598
 30
0.0
 11
244.488697
 21
190.25598
 31
0.0
  0
LINE
  5
13B
100
AcDbEntity
  8
1
390
0
  6
Continuous
 62
     7
100
AcDbLine
 10
244.488697
 20
190.80598
 30
0.0
 11
243.812361
 21
190.80598
 31
0.0
  0
LINE
  5
13C
100
AcDbEntity
  8
1
390
0
  6
Continuous
 62
     7
100
AcDbLine
 10
243.812361
 20
190.80598
 30
0.0
 11
243.812361
 21
191.482317
 31
0.0
  0
ARC
  5
13D
100
AcDbEntity
  8
1
390
0
  6
Continuous
 62
     7
100
AcDbCircle
 10
243.537361
 20
199.03098
 30
0.0
 40
1.75
210
0.0
220
0.0
230
1.0
100
AcDbArc
 50
350.06071
 51
360.0
  0
ARC
  5
13E
100
AcDbEntity
  8
1
390
0
  6
Continuous
 62
     7
100
AcDbCircle
 10
243.537361
 20
199.03098
 30
0.0
 40
1.75
210
0.0
220
0.0
230
1.0
100
AcDbArc
 50
189.93929
 51
350.06071
  0
ARC
  5
13F
100
AcDbEntity
  8
1
390
0
  6
Continuous
 62
     7
100
AcDbCircle
 10
243.537361
 20
199.03098
 30
0.0
 40
1.75
210
0.0
220
0.0
230
1.0
100
AcDbArc
 50
170.06071
 51
189.93929
  0
ARC
  5
140
100
AcDbEntity
  8
1
390
0
  6
Continuous
 62
     7
100
AcDbCircle
 10
243.537361
 20
199.03098
 30
0.0
 40
1.75
210
0.0
220
0.0
230
1.0
100
AcDbArc
 50
9.93929
 51
170.06071
  0
ARC
  5
141
100
AcDbEntity
  8
1
390
0
  6
Continuous
 62
     7
100
AcDbCircle
 10
243.537361
 20
199.03098
 30
0.0
 40
1.75
210
0.0
220
0.0
230
1.0
100
AcDbArc
 50
0.0
 51
9.93929
  0
LINE
  5
142
100
AcDbEntity
  8
1
390
0
  6
Continuous
 62
     7
100
AcDbLine
 10
243.262361
 20
200.13098
 30
0.0
 11
243.812361
 21
200.13098
 31
0.0
  0
ARC
  5
143
100
AcDbEntity
  8
1
390
0
  6
Continuous
 62
     7
100
AcDbCircle
 10
243.537361
 20
199.03098
 30
0.0
 40
1.670201
210
0.0
220
0.0
230
1.0
100
AcDbArc
 50
170.523047
 51
189.476953
  0
LINE
  5
144
100
AcDbEntity
  8
1
390
0
  6
Continuous
 62
     7
100
AcDbLine
 10
243.812361
 20
197.93098
 30
0.0
 11
243.262361
 21
197.93098
 31
0.0
  0
ARC
  5
145
100
AcDbEntity
  8
1
390
0
  6
Continuous
 62
     7
100
AcDbCircle
 10
243.537361
 20
199.03098
 30
0.0
 40
1.670201
210
0.0
220
0.0
230
1.0
100
AcDbArc
 50
350.523047
 51
7.55601
  0
ARC
  5
146
100
AcDbEntity
  8
1
390
0
  6
Continuous
 62
     7
100
AcDbCircle
 10
243.537361
 20
199.03098
 30
0.0
 40
1.670201
210
0.0
220
0.0
230
1.0
100
AcDbArc
 50
7.55601
 51
9.476953
  0
LINE
  5
147
100
AcDbEntity
  8
1
390
0
  6
Continuous
 62
     7
100
AcDbLine
 10
243.812361
 20
198.079644
 30
0.0
 11
243.812361
 21
197.93098
 31
0.0
  0
LINE
  5
148
100
AcDbEntity
  8
1
390
0
  6
Continuous
 62
     7
100
AcDbLine
 10
243.262361
 20
197.93098
 30
0.0
 11
243.262361
 21
198.079644
 31
0.0
  0
LINE
  5
149
100
AcDbEntity
  8
1
390
0
  6
Continuous
 62
     7
100
AcDbLine
 10
245.184767
 20
198.75598
 30
0.0
 11
244.488697
 21
198.75598
 31
0.0
  0
LINE
  5
14A
100
AcDbEntity
  8
1
390
0
  6
Continuous
 62
     7
100
AcDbLine
 10
243.262361
 20
199.982317
 30
0.0
 11
243.262361
 21
200.13098
 31
0.0
  0
LINE
  5
14B
100
AcDbEntity
  8
1
390
0
  6
Continuous
 62
     7
100
AcDbLine
 10
242.586024
 20
198.75598
 30
0.0
 11
241.889955
 21
198.75598
 31
0.0
  0
LINE
  5
14C
100
AcDbEntity
  8
1
390
0
  6
Continuous
 62
     7
100
AcDbLine
 10
244.488697
 20
199.30598
 30
0.0
 11
245.184767
 21
199.30598
 31
0.0
  0
LINE
  5
14D
100
AcDbEntity
  8
1
390
0
  6
Continuous
 62
     7
100
AcDbLine
 10
241.889955
 20
199.30598
 30
0.0
 11
242.586024
 21
199.30598
 31
0.0
  0
LINE
  5
14E
100
AcDbEntity
  8
1
390
0
  6
Continuous
 62
     7
100
AcDbLine
 10
243.812361
 20
200.13098
 30
0.0
 11
243.812361
 21
199.982317
 31
0.0
  0
ARC
  5
14F
100
AcDbEntity
  8
1
390
0
  6
Continuous
 62
     7
100
AcDbCircle
 10
243.537361
 20
190.53098
 30
0.0
 40
1.75
210
0.0
220
0.0
230
1.0
100
AcDbArc
 50
0.0
 51
9.93929
  0
ARC
  5
150
100
AcDbEntity
  8
1
390
0
  6
Continuous
 62
     7
100
AcDbCircle
 10
243.537361
 20
190.53098
 30
0.0
 40
1.75
210
0.0
220
0.0
230
1.0
100
AcDbArc
 50
9.93929
 51
170.06071
  0
ARC
  5
151
100
AcDbEntity
  8
1
390
0
  6
Continuous
 62
     7
100
AcDbCircle
 10
243.537361
 20
190.53098
 30
0.0
 40
1.75
210
0.0
220
0.0
230
1.0
100
AcDbArc
 50
170.06071
 51
189.93929
  0
ARC
  5
152
100
AcDbEntity
  8
1
390
0
  6
Continuous
 62
     7
100
AcDbCircle
 10
243.537361
 20
190.53098
 30
0.0
 40
1.75
210
0.0
220
0.0
230
1.0
100
AcDbArc
 50
189.93929
 51
350.06071
  0
ARC
  5
153
100
AcDbEntity
  8
1
390
0
  6
Continuous
 62
     7
100
AcDbCircle
 10
243.537361
 20
190.53098
 30
0.0
 40
1.75
210
0.0
220
0.0
230
1.0
100
AcDbArc
 50
350.06071
 51
360.0
  0
LINE
  5
154
100
AcDbEntity
  8
1
390
0
  6
Continuous
 62
     7
100
AcDbLine
 10
243.812361
 20
191.63098
 30
0.0
 11
243.262361
 21
191.63098
 31
0.0
  0
ARC
  5
155
100
AcDbEntity
  8
1
390
0
  6
Continuous
 62
     7
100
AcDbCircle
 10
243.537361
 20
190.53098
 30
0.0
 40
1.670201
210
0.0
220
0.0
230
1.0
100
AcDbArc
 50
170.523047
 51
189.476953
  0
ARC
  5
156
100
AcDbEntity
  8
1
390
0
  6
Continuous
 62
     7
100
AcDbCircle
 10
243.537361
 20
190.53098
 30
0.0
 40
1.670201
210
0.0
220
0.0
230
1.0
100
AcDbArc
 50
352.44399
 51
9.476953
  0
ARC
  5
157
100
AcDbEntity
  8
1
390
0
  6
Continuous
 62
     7
100
AcDbCircle
 10
243.537361
 20
190.53098
 30
0.0
 40
1.670201
210
0.0
220
0.0
230
1.0
100
AcDbArc
 50
350.523047
 51
352.44399
  0
LINE
  5
158
100
AcDbEntity
  8
1
390
0
  6
Continuous
 62
     7
100
AcDbLine
 10
243.262361
 20
189.43098
 30
0.0
 11
243.812361
 21
189.43098
 31
0.0
  0
LINE
  5
159
100
AcDbEntity
  8
1
390
0
  6
Continuous
 62
     7
100
AcDbLine
 10
241.889955
 20
190.25598
 30
0.0
 11
242.586024
 21
190.25598
 31
0.0
  0
LINE
  5
15A
100
AcDbEntity
  8
1
390
0
  6
Continuous
 62
     7
100
AcDbLine
 10
243.262361
 20
189.579644
 30
0.0
 11
243.262361
 21
189.43098
 31
0.0
  0
LINE
  5
15B
100
AcDbEntity
  8
1
390
0
  6
Continuous
 62
     7
100
AcDbLine
 10
243.812361
 20
189.43098
 30
0.0
 11
243.812361
 21
189.579644
 31
0.0
  0
LINE
  5
15C
100
AcDbEntity
  8
1
390
0
  6
Continuous
 62
     7
100
AcDbLine
 10
244.488697
 20
190.25598
 30
0.0
 11
245.184767
 21
190.25598
 31
0.0
  0
LINE
  5
15D
100
AcDbEntity
  8
1
390
0
  6
Continuous
 62
     7
100
AcDbLine
 10
245.184767
 20
190.80598
 30
0.0
 11
244.488697
 21
190.80598
 31
0.0
  0
LINE
  5
15E
100
AcDbEntity
  8
1
390
0
  6
Continuous
 62
     7
100
AcDbLine
 10
243.812361
 20
191.482317
 30
0.0
 11
243.812361
 21
191.63098
 31
0.0
  0
LINE
  5
15F
100
AcDbEntity
  8
1
390
0
  6
Continuous
 62
     7
100
AcDbLine
 10
243.262361
 20
191.63098
 30
0.0
 11
243.262361
 21
191.482317
 31
0.0
  0
LINE
  5
160
100
AcDbEntity
  8
1
390
0
  6
Continuous
 62
     7
100
AcDbLine
 10
242.586024
 20
190.80598
 30
0.0
 11
241.889955
 21
190.80598
 31
0.0
  0
LINE
  5
161
100
AcDbEntity
  8
1
390
0
  6
Continuous
 62
     7
100
AcDbLine
 10
245.787361
 20
200.28098
 30
0.0
 11
245.787361
 21
189.28098
 31
0.0
  0
ARC
  5
162
100
AcDbEntity
  8
1
390
0
  6
Continuous
 62
     7
100
AcDbCircle
 10
244.787361
 20
189.28098
 30
0.0
 40
1.0
210
0.0
220
0.0
230
1.0
100
AcDbArc
 50
270.0
 51
360.0
  0
LINE
  5
163
100
AcDbEntity
  8
1
390
0
  6
Continuous
 62
     7
100
AcDbLine
 10
244.787361
 20
188.28098
 30
0.0
 11
242.287361
 21
188.28098
 31
0.0
  0
ARC
  5
164
100
AcDbEntity
  8
1
390
0
  6
Continuous
 62
     7
100
AcDbCircle
 10
242.287361
 20
189.28098
 30
0.0
 40
1.0
210
0.0
220
0.0
230
1.0
100
AcDbArc
 50
180.0
 51
270.0
  0
LINE
  5
165
100
AcDbEntity
  8
1
390
0
  6
Continuous
 62
     7
100
AcDbLine
 10
241.287361
 20
189.28098
 30
0.0
 11
241.287361
 21
200.28098
 31
0.0
  0
ARC
  5
166
100
AcDbEntity
  8
1
390
0
  6
Continuous
 62
     7
100
AcDbCircle
 10
242.287361
 20
200.28098
 30
0.0
 40
1.0
210
0.0
220
0.0
230
1.0
100
AcDbArc
 50
90.0
 51
180.0
  0
LINE
  5
167
100
AcDbEntity
  8
1
390
0
  6
Continuous
 62
     7
100
AcDbLine
 10
242.287361
 20
201.28098
 30
0.0
 11
244.787361
 21
201.28098
 31
0.0
  0
ARC
  5
168
100
AcDbEntity
  8
1
390
0
  6
Continuous
 62
     7
100
AcDbCircle
 10
244.787361
 20
200.28098
 30
0.0
 40
1.0
210
0.0
220
0.0
230
1.0
100
AcDbArc
 50
0.0
 51
90.0
  0
LINE
  5
16A
100
AcDbEntity
  8
1
390
0
  6
DOT
 62
     9
100
AcDbLine
 10
240.287361
 20
196.005725
 30
0.0
 11
241.287361
 21
196.005725
 31
0.0
  0
POLYLINE
  5
16B
100
AcDbEntity
  8
1
390
0
  6
DOT
 62
     9
100
AcDb2dPolyline
 66
     1
 10
0.0
 20
0.0
 30
0.0
 40
3.0
 41
3.0
  0
VERTEX
  5
16C
100
AcDbEntity
  8
1
390
0
 62
     9
100
AcDbVertex
100
AcDb2dVertex
 10
245.787361
 20
193.556236
 30
0.0
  0
VERTEX
  5
16D
100
AcDbEntity
  8
1
390
0
 62
     9
100
AcDbVertex
100
AcDb2dVertex
 10
245.892271
 20
193.561938
 30
0.0
  0
VERTEX
  5
16E
100
AcDbEntity
  8
1
390
0
 62
     9
100
AcDbVertex
100
AcDb2dVertex
 10
245.995045
 20
193.578905
 30
0.0
  0
VERTEX
  5
16F
100
AcDbEntity
  8
1
390
0
 62
     9
100
AcDbVertex
100
AcDb2dVertex
 10
246.092739
 20
193.607021
 30
0.0
  0
VERTEX
  5
170
100
AcDbEntity
  8
1
390
0
 62
     9
100
AcDbVertex
100
AcDb2dVertex
 10
246.212988
 20
193.661536
 30
0.0
  0
VERTEX
  5
171
100
AcDbEntity
  8
1
390
0
 62
     9
100
AcDbVertex
100
AcDb2dVertex
 10
246.302267
 20
193.72146
 30
0.0
  0
VERTEX
  5
172
100
AcDbEntity
  8
1
390
0
 62
     9
100
AcDbVertex
100
AcDb2dVertex
 10
246.384002
 20
193.797517
 30
0.0
  0
VERTEX
  5
173
100
AcDbEntity
  8
1
390
0
 62
     9
100
AcDbVertex
100
AcDb2dVertex
 10
246.459538
 20
193.895899
 30
0.0
  0
VERTEX
  5
174
100
AcDbEntity
  8
1
390
0
 62
     9
100
AcDbVertex
100
AcDb2dVertex
 10
246.522621
 20
194.012585
 30
0.0
 42
0.155112
  0
VERTEX
  5
175
100
AcDbEntity
  8
1
390
0
 62
     9
100
AcDbVertex
100
AcDb2dVertex
 10
246.562385
 20
195.447579
 30
0.0
  0
VERTEX
  5
176
100
AcDbEntity
  8
1
390
0
 62
     9
100
AcDbVertex
100
AcDb2dVertex
 10
246.512286
 20
195.571537
 30
0.0
  0
VERTEX
  5
177
100
AcDbEntity
  8
1
390
0
 62
     9
100
AcDbVertex
100
AcDb2dVertex
 10
246.446864
 20
195.685158
 30
0.0
  0
VERTEX
  5
178
100
AcDbEntity
  8
1
390
0
 62
     9
100
AcDbVertex
100
AcDb2dVertex
 10
246.375198
 20
195.773826
 30
0.0
  0
VERTEX
  5
179
100
AcDbEntity
  8
1
390
0
 62
     9
100
AcDbVertex
100
AcDb2dVertex
 10
246.295595
 20
195.845682
 30
0.0
  0
VERTEX
  5
17A
100
AcDbEntity
  8
1
390
0
 62
     9
100
AcDbVertex
100
AcDb2dVertex
 10
246.208346
 20
195.903019
 30
0.0
  0
VERTEX
  5
17B
100
AcDbEntity
  8
1
390
0
 62
     9
100
AcDbVertex
100
AcDb2dVertex
 10
246.087797
 20
195.956617
 30
0.0
  0
VERTEX
  5
17C
100
AcDbEntity
  8
1
390
0
 62
     9
100
AcDbVertex
100
AcDb2dVertex
 10
245.990078
 20
195.984169
 30
0.0
  0
VERTEX
  5
17D
100
AcDbEntity
  8
1
390
0
 62
     9
100
AcDbVertex
100
AcDb2dVertex
 10
245.889807
 20
196.00031
 30
0.0
  0
VERTEX
  5
17E
100
AcDbEntity
  8
1
390
0
 62
     9
100
AcDbVertex
100
AcDb2dVertex
 10
245.787361
 20
196.005725
 30
0.0
  0
SEQEND
  5
17F
100
AcDbEntity
  8
0
390
0
  0
LINE
  5
180
100
AcDbEntity
  8
1
390
0
  6
DOT
 62
     9
100
AcDbLine
 10
241.287361
 20
193.556236
 30
0.0
 11
240.287361
 21
193.556236
 31
0.0
  0
LINE
  5
181
100
AcDbEntity
  8
1
390
0
  6
DOT
 62
     9
100
AcDbLine
 10
240.287361
 20
196.005725
 30
0.0
 11
240.287361
 21
193.556236
 31
0.0
  0
LINE
  5
182
100
AcDbEntity
  8
1
390
0
  6
DOT
 62
     9
100
AcDbLine
 10
241.287361
 20
196.005725
 30
0.0
 11
245.787361
 21
196.005725
 31
0.0
  0
LINE
  5
183
100
AcDbEntity
  8
1
390
0
  6
DOT
 62
     9
100
AcDbLine
 10
245.787361
 20
193.556236
 30
0.0
 11
241.287361
 21
193.556236
 31
0.0
  0
LINE
  5
184
100
AcDbEntity
  8
1
390
0
  6
Continuous
 62
     7
100
AcDbLine
 10
208.287361
 20
196.53098
 30
0.0
 11
208.287361
 21
193.03098
 31
0.0
  0
CIRCLE
  5
185
100
AcDbEntity
  8
1
390
0
  6
DOT
 62
     9
100
AcDbCircle
 10
243.537361
 20
190.53098
 30
0.0
 40
1.0
210
0.0
220
0.0
230
1.0
  0
CIRCLE
  5
186
100
AcDbEntity
  8
1
390
0
  6
DOT
 62
     9
100
AcDbCircle
 10
243.537361
 20
199.03098
 30
0.0
 40
1.0
210
0.0
220
0.0
230
1.0
  0
LINE
  5
187
100
AcDbEntity
  8
1
390
0
  6
Continuous
 62
     7
100
AcDbLine
 10
267.287361
 20
191.78098
 30
0.0
 11
278.916338
 21
191.78098
 31
0.0
  0
ARC
  5
188
100
AcDbEntity
  8
1
390
0
  6
Continuous
 62
     7
100
AcDbCircle
 10
277.396262
 20
190.65598
 30
0.0
 40
1.891099
210
0.0
220
0.0
230
1.0
100
AcDbArc
 50
323.49506
 51
36.50494
  0
LINE
  5
189
100
AcDbEntity
  8
1
390
0
  6
Continuous
 62
     7
100
AcDbLine
 10
278.916338
 20
189.53098
 30
0.0
 11
267.287361
 21
189.53098
 31
0.0
  0
ARC
  5
18A
100
AcDbEntity
  8
1
390
0
  6
Continuous
 62
     7
100
AcDbCircle
 10
277.084699
 20
199.28098
 30
0.0
 40
2.202662
210
0.0
220
0.0
230
1.0
100
AcDbArc
 50
317.078609
 51
42.921391
  0
LINE
  5
18B
100
AcDbEntity
  8
1
390
0
  6
Continuous
 62
     7
100
AcDbLine
 10
278.697683
 20
197.78098
 30
0.0
 11
267.287361
 21
197.78098
 31
0.0
  0
LINE
  5
18C
100
AcDbEntity
  8
1
390
0
  6
Continuous
 62
     7
100
AcDbLine
 10
267.287361
 20
200.78098
 30
0.0
 11
278.697683
 21
200.78098
 31
0.0
  0
LINE
  5
18D
100
AcDbEntity
  8
1
390
0
  6
Continuous
 62
     7
100
AcDbLine
 10
250.287361
 20
202.78098
 30
0.0
 11
250.287361
 21
203.78098
 31
0.0
  0
LINE
  5
18E
100
AcDbEntity
  8
1
390
0
  6
Continuous
 62
     7
100
AcDbLine
 10
250.287361
 20
203.78098
 30
0.0
 11
250.487361
 21
203.78098
 31
0.0
  0
LINE
  5
18F
100
AcDbEntity
  8
1
390
0
  6
Continuous
 62
     7
100
AcDbLine
 10
254.287361
 20
203.78098
 30
0.0
 11
254.287361
 21
202.78098
 31
0.0
  0
LINE
  5
190
100
AcDbEntity
  8
1
390
0
  6
Continuous
 62
     7
100
AcDbLine
 10
254.087361
 20
203.78098
 30
0.0
 11
254.287361
 21
203.78098
 31
0.0
  0
LINE
  5
191
100
AcDbEntity
  8
1
390
0
  6
Continuous
 62
     7
100
AcDbLine
 10
250.487361
 20
203.78098
 30
0.0
 11
254.087361
 21
203.78098
 31
0.0
  0
LINE
  5
192
100
AcDbEntity
  8
1
390
0
  6
Continuous
 62
     7
100
AcDbLine
 10
254.287361
 20
186.78098
 30
0.0
 11
254.287361
 21
185.78098
 31
0.0
  0
LINE
  5
193
100
AcDbEntity
  8
1
390
0
  6
Continuous
 62
     7
100
AcDbLine
 10
254.287361
 20
185.78098
 30
0.0
 11
254.087361
 21
185.78098
 31
0.0
  0
LINE
  5
194
100
AcDbEntity
  8
1
390
0
  6
Continuous
 62
     7
100
AcDbLine
 10
250.487361
 20
185.78098
 30
0.0
 11
254.087361
 21
185.78098
 31
0.0
  0
LINE
  5
195
100
AcDbEntity
  8
1
390
0
  6
Continuous
 62
     7
100
AcDbLine
 10
250.287361
 20
185.78098
 30
0.0
 11
250.287361
 21
186.78098
 31
0.0
  0
LINE
  5
196
100
AcDbEntity
  8
1
390
0
  6
Continuous
 62
     7
100
AcDbLine
 10
250.487361
 20
185.78098
 30
0.0
 11
250.287361
 21
185.78098
 31
0.0
  0
LINE
  5
197
100
AcDbEntity
  8
1
390
0
  6
Continuous
 62
     7
100
AcDbLine
 10
245.787361
 20
188.28098
 30
0.0
 11
244.787361
 21
188.28098
 31
0.0
  0
LINE
  5
198
100
AcDbEntity
  8
1
390
0
  6
Continuous
 62
     7
100
AcDbLine
 10
242.287361
 20
188.28098
 30
0.0
 11
241.287361
 21
188.28098
 31
0.0
  0
ARC
  5
199
100
AcDbEntity
  8
1
390
0
  6
Continuous
 62
     7
100
AcDbCircle
 10
241.287361
 20
189.28098
 30
0.0
 40
1.0
210
0.0
220
0.0
230
1.0
100
AcDbArc
 50
180.0
 51
270.0
  0
LINE
  5
19A
100
AcDbEntity
  8
1
390
0
  6
Continuous
 62
     7
100
AcDbLine
 10
240.287361
 20
189.28098
 30
0.0
 11
240.287361
 21
193.03098
 31
0.0
  0
LINE
  5
19B
100
AcDbEntity
  8
1
390
0
  6
DOT
 62
     9
100
AcDbLine
 10
240.287361
 20
193.03098
 30
0.0
 11
240.287361
 21
193.556236
 31
0.0
  0
LINE
  5
19C
100
AcDbEntity
  8
1
390
0
  6
Continuous
 62
     7
100
AcDbLine
 10
241.287361
 20
201.28098
 30
0.0
 11
242.287361
 21
201.28098
 31
0.0
  0
LINE
  5
19D
100
AcDbEntity
  8
1
390
0
  6
Continuous
 62
     7
100
AcDbLine
 10
244.787361
 20
201.28098
 30
0.0
 11
245.787361
 21
201.28098
 31
0.0
  0
LINE
  5
19E
100
AcDbEntity
  8
1
390
0
  6
DOT
 62
     9
100
AcDbLine
 10
240.287361
 20
196.005725
 30
0.0
 11
240.287361
 21
196.53098
 31
0.0
  0
LINE
  5
19F
100
AcDbEntity
  8
1
390
0
  6
Continuous
 62
     7
100
AcDbLine
 10
240.287361
 20
196.53098
 30
0.0
 11
240.287361
 21
200.28098
 31
0.0
  0
ARC
  5
1A0
100
AcDbEntity
  8
1
390
0
  6
Continuous
 62
     7
100
AcDbCircle
 10
241.287361
 20
200.28098
 30
0.0
 40
1.0
210
0.0
220
0.0
230
1.0
100
AcDbArc
 50
90.0
 51
180.0
  0
LINE
  5
1A1
100
AcDbEntity
  8
1
390
0
  6
Continuous
 62
     7
100
AcDbLine
 10
245.787361
 20
201.28098
 30
0.0
 11
246.787361
 21
201.28098
 31
0.0
  0
LINE
  5
1A2
100
AcDbEntity
  8
1
390
0
  6
Continuous
 62
     7
100
AcDbLine
 10
246.787361
 20
201.28098
 30
0.0
 11
246.787361
 21
196.53098
 31
0.0
  0
LINE
  5
1A3
100
AcDbEntity
  8
1
390
0
  6
DOT
 62
     9
100
AcDbLine
 10
246.787361
 20
196.53098
 30
0.0
 11
246.787361
 21
193.03098
 31
0.0
  0
LINE
  5
1A4
100
AcDbEntity
  8
1
390
0
  6
Continuous
 62
     7
100
AcDbLine
 10
246.787361
 20
193.03098
 30
0.0
 11
246.787361
 21
188.28098
 31
0.0
  0
LINE
  5
1A5
100
AcDbEntity
  8
1
390
0
  6
Continuous
 62
     7
100
AcDbLine
 10
246.787361
 20
188.28098
 30
0.0
 11
245.787361
 21
188.28098
 31
0.0
  0
LINE
  5
1A6
100
AcDbEntity
  8
1
390
0
  6
DOT
 62
     9
100
AcDbLine
 10
245.787361
 20
188.28098
 30
0.0
 11
245.787361
 21
189.28098
 31
0.0
  0
LINE
  5
1A7
100
AcDbEntity
  8
1
390
0
  6
DOT
 62
     9
100
AcDbLine
 10
245.787361
 20
200.28098
 30
0.0
 11
245.787361
 21
201.28098
 31
0.0
  0
CIRCLE
  5
1A8
100
AcDbEntity
  8
1
390
0
  6
DOT
 62
     9
100
AcDbCircle
 10
243.537361
 20
190.53098
 30
0.0
 40
0.8
210
0.0
220
0.0
230
1.0
  0
CIRCLE
  5
1A9
100
AcDbEntity
  8
1
390
0
  6
DOT
 62
     9
100
AcDbCircle
 10
243.537361
 20
199.03098
 30
0.0
 40
0.8
210
0.0
220
0.0
230
1.0
  0
ARC
  5
1AA
100
AcDbEntity
  8
1
390
0
  6
DOT
 62
     9
100
AcDbCircle
 10
255.286892
 20
203.151312
 30
0.0
 40
1.200469
210
0.0
220
0.0
230
1.0
100
AcDbArc
 50
208.365254
 51
213.6314
  0
ARC
  5
1AB
100
AcDbEntity
  8
1
390
0
  6
DOT
 62
     9
100
AcDbCircle
 10
255.286892
 20
186.410649
 30
0.0
 40
1.200469
210
0.0
220
0.0
230
1.0
100
AcDbArc
 50
146.3686
 51
151.634746
  0
LINE
  5
1AC
100
AcDbEntity
  8
1
390
0
  6
DOT
 62
     9
100
AcDbLine
 10
254.230556
 20
202.58098
 30
0.0
 11
250.287361
 21
202.58098
 31
0.0
  0
LINE
  5
1AD
100
AcDbEntity
  8
1
390
0
  6
DOT
 62
     9
100
AcDbLine
 10
254.230556
 20
186.98098
 30
0.0
 11
250.287361
 21
186.98098
 31
0.0
  0
LINE
  5
1AE
100
AcDbEntity
  8
1
390
0
  6
DOT
 62
     9
100
AcDbLine
 10
248.487361
 20
188.28098
 30
0.0
 11
248.487361
 21
201.28098
 31
0.0
  0
LINE
  5
1AF
100
AcDbEntity
  8
1
390
0
  6
DOT
 62
     9
100
AcDbLine
 10
248.487361
 20
188.28098
 30
0.0
 11
248.287361
 21
188.28098
 31
0.0
  0
LINE
  5
1B0
100
AcDbEntity
  8
1
390
0
  6
Continuous
 62
     7
100
AcDbLine
 10
248.287361
 20
188.28098
 30
0.0
 11
246.787361
 21
188.28098
 31
0.0
  0
LINE
  5
1B1
100
AcDbEntity
  8
1
390
0
  6
Continuous
 62
     7
100
AcDbLine
 10
246.787361
 20
201.28098
 30
0.0
 11
248.287361
 21
201.28098
 31
0.0
  0
LINE
  5
1B2
100
AcDbEntity
  8
1
390
0
  6
DOT
 62
     9
100
AcDbLine
 10
248.287361
 20
201.28098
 30
0.0
 11
248.487361
 21
201.28098
 31
0.0
  0
LINE
  5
1B3
100
AcDbEntity
  8
1
390
0
  6
DOT
 62
     9
100
AcDbLine
 10
248.487361
 20
201.28098
 30
0.0
 11
250.287361
 21
201.28098
 31
0.0
  0
LINE
  5
1B4
100
AcDbEntity
  8
1
390
0
  6
DOT
 62
     9
100
AcDbLine
 10
250.287361
 20
201.28098
 30
0.0
 11
250.287361
 21
202.58098
 31
0.0
  0
LINE
  5
1B5
100
AcDbEntity
  8
1
390
0
  6
DOT
 62
     9
100
AcDbLine
 10
254.287361
 20
187.075526
 30
0.0
 11
254.287361
 21
186.78098
 31
0.0
  0
LINE
  5
1B6
100
AcDbEntity
  8
1
390
0
  6
DOT
 62
     9
100
AcDbLine
 10
250.287361
 20
186.78098
 30
0.0
 11
250.287361
 21
186.98098
 31
0.0
  0
LINE
  5
1B7
100
AcDbEntity
  8
1
390
0
  6
DOT
 62
     9
100
AcDbLine
 10
254.287361
 20
202.78098
 30
0.0
 11
254.287361
 21
202.486435
 31
0.0
  0
LINE
  5
1B8
100
AcDbEntity
  8
1
390
0
  6
DOT
 62
     9
100
AcDbLine
 10
250.287361
 20
202.58098
 30
0.0
 11
250.287361
 21
202.78098
 31
0.0
  0
LINE
  5
1B9
100
AcDbEntity
  8
1
390
0
  6
DOT
 62
     9
100
AcDbLine
 10
250.287361
 20
188.28098
 30
0.0
 11
248.487361
 21
188.28098
 31
0.0
  0
LINE
  5
1BA
100
AcDbEntity
  8
1
390
0
  6
DOT
 62
     9
100
AcDbLine
 10
250.287361
 20
186.98098
 30
0.0
 11
250.287361
 21
188.28098
 31
0.0
  0
LINE
  5
1BB
100
AcDbEntity
  8
1
390
0
  6
DOT
 62
     9
100
AcDbLine
 10
266.287361
 20
200.28098
 30
0.0
 11
266.287361
 21
189.28098
 31
0.0
  0
ARC
  5
1BC
100
AcDbEntity
  8
1
390
0
  6
DOT
 62
     9
100
AcDbCircle
 10
265.287361
 20
189.28098
 30
0.0
 40
1.0
210
0.0
220
0.0
230
1.0
100
AcDbArc
 50
270.0
 51
360.0
  0
LINE
  5
1BD
100
AcDbEntity
  8
1
390
0
  6
DOT
 62
     9
100
AcDbLine
 10
265.287361
 20
188.28098
 30
0.0
 11
254.287361
 21
188.28098
 31
0.0
  0
LINE
  5
1BE
100
AcDbEntity
  8
1
390
0
  6
DOT
 62
     9
100
AcDbLine
 10
254.287361
 20
188.28098
 30
0.0
 11
254.287361
 21
187.075526
 31
0.0
  0
LINE
  5
1BF
100
AcDbEntity
  8
1
390
0
  6
DOT
 62
     9
100
AcDbLine
 10
254.287361
 20
202.486435
 30
0.0
 11
254.287361
 21
201.28098
 31
0.0
  0
LINE
  5
1C0
100
AcDbEntity
  8
1
390
0
  6
DOT
 62
     9
100
AcDbLine
 10
254.287361
 20
201.28098
 30
0.0
 11
265.287361
 21
201.28098
 31
0.0
  0
ARC
  5
1C1
100
AcDbEntity
  8
1
390
0
  6
DOT
 62
     9
100
AcDbCircle
 10
265.287361
 20
200.28098
 30
0.0
 40
1.0
210
0.0
220
0.0
230
1.0
100
AcDbArc
 50
0.0
 51
90.0
  0
LINE
  5
1C2
100
AcDbEntity
  8
1
390
0
  6
Continuous
 62
     7
100
AcDbLine
 10
208.287361
 20
193.03098
 30
0.0
 11
241.287361
 21
193.03098
 31
0.0
  0
LINE
  5
1C3
100
AcDbEntity
  8
1
390
0
  6
DOT
 62
     9
100
AcDbLine
 10
241.287361
 20
193.03098
 30
0.0
 11
245.787361
 21
193.03098
 31
0.0
  0
LINE
  5
1C4
100
AcDbEntity
  8
1
390
0
  6
Continuous
 62
     7
100
AcDbLine
 10
245.787361
 20
193.03098
 30
0.0
 11
248.287361
 21
193.03098
 31
0.0
  0
LINE
  5
1C5
100
AcDbEntity
  8
1
390
0
  6
Continuous
 62
     7
100
AcDbLine
 10
248.287361
 20
196.53098
 30
0.0
 11
245.787361
 21
196.53098
 31
0.0
  0
LINE
  5
1C6
100
AcDbEntity
  8
1
390
0
  6
DOT
 62
     9
100
AcDbLine
 10
245.787361
 20
196.53098
 30
0.0
 11
241.287361
 21
196.53098
 31
0.0
  0
LINE
  5
1C7
100
AcDbEntity
  8
1
390
0
  6
Continuous
 62
     7
100
AcDbLine
 10
241.287361
 20
196.53098
 30
0.0
 11
208.287361
 21
196.53098
 31
0.0
  0
LINE
  5
1C8
100
AcDbEntity
  8
1
390
0
  6
Continuous
 62
     7
100
AcDbLine
 10
208.287361
 20
196.03098
 30
0.0
 11
193.933905
 21
196.03098
 31
0.0
  0
LINE
  5
1C9
100
AcDbEntity
  8
1
390
0
  6
Continuous
 62
     7
100
AcDbLine
 10
192.763179
 20
193.53098
 30
0.0
 11
208.287361
 21
193.53098
 31
0.0
  0
LINE
  5
1CA
100
AcDbEntity
  8
1
390
0
  6
Continuous
 62
     9
100
AcDbLine
 10
186.740667
 20
191.34748
 30
0.0
 11
189.931885
 21
198.162092
 31
0.0
  0
LINE
  5
1CB
100
AcDbEntity
  8
1
390
0
  6
Continuous
 62
     9
100
AcDbLine
 10
191.740667
 20
191.34748
 30
0.0
 11
194.931885
 21
198.162092
 31
0.0
  0
LINE
  5
1CD
100
AcDbEntity
  8
1
390
0
  6
CENTER
 62
     1
100
AcDbLine
 10
134.351798
 20
194.78098
 30
0.0
 11
269.22971
 21
194.78098
 31
0.0
  0
POINT
  5
1CF
100
AcDbEntity
  8
5
390
0
 62
     7
100
AcDbPoint
 10
269.22971
 20
192.936659
 30
0.0
  0
POINT
  5
1D0
100
AcDbEntity
  8
5
390
0
 62
     7
100
AcDbPoint
 10
134.351798
 20
199.889693
 30
0.0
  0
LINE
  5
1D1
100
AcDbEntity
  8
1
390
0
  6
Continuous
 62
     7
100
AcDbLine
 10
143.931403
 20
126.15912
 30
0.0
 11
143.931403
 21
133.15912
 31
0.0
  0
LINE
  5
1D2
100
AcDbEntity
  8
1
390
0
  6
Continuous
 62
     7
100
AcDbLine
 10
148.931403
 20
126.15912
 30
0.0
 11
148.931403
 21
133.15912
 31
0.0
  0
LINE
  5
1D3
100
AcDbEntity
  8
1
390
0
  6
Continuous
 62
     7
100
AcDbLine
 10
161.656403
 20
127.15912
 30
0.0
 11
161.656403
 21
132.15912
 31
0.0
  0
LINE
  5
1D4
100
AcDbEntity
  8
1
390
0
  6
Continuous
 62
     7
100
AcDbLine
 10
161.931403
 20
127.43412
 30
0.0
 11
161.931403
 21
131.88412
 31
0.0
  0
LINE
  5
1D5
100
AcDbEntity
  8
1
390
0
  6
Continuous
 62
     7
100
AcDbLine
 10
135.931403
 20
127.65912
 30
0.0
 11
135.931403
 21
131.65912
 31
0.0
  0
LINE
  5
1D6
100
AcDbEntity
  8
1
390
0
  6
Continuous
 62
     7
100
AcDbLine
 10
142.931403
 20
127.65912
 30
0.0
 11
142.931403
 21
131.65912
 31
0.0
  0
LINE
  5
1D7
100
AcDbEntity
  8
1
390
0
  6
Continuous
 62
     7
100
AcDbLine
 10
143.931403
 20
126.15912
 30
0.0
 11
148.931403
 21
126.15912
 31
0.0
  0
LINE
  5
1D8
100
AcDbEntity
  8
1
390
0
  6
Continuous
 62
     7
100
AcDbLine
 10
148.931403
 20
133.15912
 30
0.0
 11
143.931403
 21
133.15912
 31
0.0
  0
LINE
  5
1D9
100
AcDbEntity
  8
1
390
0
  6
Continuous
 62
     7
100
AcDbLine
 10
148.931403
 20
127.15912
 30
0.0
 11
161.656403
 21
127.15912
 31
0.0
  0
LINE
  5
1DA
100
AcDbEntity
  8
1
390
0
  6
Continuous
 62
     7
100
AcDbLine
 10
161.656403
 20
132.15912
 30
0.0
 11
148.931403
 21
132.15912
 31
0.0
  0
LINE
  5
1DB
100
AcDbEntity
  8
1
390
0
  6
Continuous
 62
     7
100
AcDbLine
 10
161.656403
 20
127.15912
 30
0.0
 11
161.931403
 21
127.43412
 31
0.0
  0
LINE
  5
1DC
100
AcDbEntity
  8
1
390
0
  6
Continuous
 62
     7
100
AcDbLine
 10
161.931403
 20
131.88412
 30
0.0
 11
161.656403
 21
132.15912
 31
0.0
  0
LINE
  5
1DD
100
AcDbEntity
  8
1
390
0
  6
Continuous
 62
     7
100
AcDbLine
 10
135.931403
 20
127.65912
 30
0.0
 11
142.931403
 21
127.65912
 31
0.0
  0
LINE
  5
1DE
100
AcDbEntity
  8
1
390
0
  6
Continuous
 62
     7
100
AcDbLine
 10
142.931403
 20
131.65912
 30
0.0
 11
135.931403
 21
131.65912
 31
0.0
  0
LINE
  5
1DF
100
AcDbEntity
  8
1
390
0
  6
Continuous
 62
     7
100
AcDbLine
 10
142.931403
 20
127.75912
 30
0.0
 11
143.931403
 21
127.75912
 31
0.0
  0
LINE
  5
1E0
100
AcDbEntity
  8
1
390
0
  6
Continuous
 62
     7
100
AcDbLine
 10
143.931403
 20
131.55912
 30
0.0
 11
142.931403
 21
131.55912
 31
0.0
  0
LINE
  5
1E1
100
AcDbEntity
  8
1
390
0
  6
Continuous
 62
     7
100
AcDbLine
 10
189.931885
 20
130.90912
 30
0.0
 11
161.931403
 21
130.90912
 31
0.0
  0
LINE
  5
1E2
100
AcDbEntity
  8
1
390
0
  6
Continuous
 62
     7
100
AcDbLine
 10
161.931403
 20
128.40912
 30
0.0
 11
187.646107
 21
128.40912
 31
0.0
  0
LINE
  5
1E3
100
AcDbEntity
  8
1
390
0
  6
Continuous
 62
     7
100
AcDbLine
 10
254.287361
 20
124.65912
 30
0.0
 11
250.287361
 21
124.65912
 31
0.0
  0
LINE
  5
1E4
100
AcDbEntity
  8
1
390
0
  6
Continuous
 62
     7
100
AcDbLine
 10
250.287361
 20
124.65912
 30
0.0
 11
250.287361
 21
125.65912
 31
0.0
  0
LINE
  5
1E5
100
AcDbEntity
  8
1
390
0
  6
Continuous
 62
     7
100
AcDbLine
 10
254.287361
 20
125.65912
 30
0.0
 11
254.287361
 21
124.65912
 31
0.0
  0
ARC
  5
1E6
100
AcDbEntity
  8
1
390
0
  6
Continuous
 62
     7
100
AcDbCircle
 10
254.087361
 20
129.45912
 30
0.0
 40
0.2
210
0.0
220
0.0
230
1.0
100
AcDbArc
 50
0.0
 51
90.0
  0
LINE
  5
1E7
100
AcDbEntity
  8
1
390
0
  6
Continuous
 62
     7
100
AcDbLine
 10
254.287361
 20
125.65912
 30
0.0
 11
254.287361
 21
129.45912
 31
0.0
  0
ARC
  5
1E8
100
AcDbEntity
  8
1
390
0
  6
Continuous
 62
     7
100
AcDbCircle
 10
250.487361
 20
129.45912
 30
0.0
 40
0.2
210
0.0
220
0.0
230
0.9999999999999999
100
AcDbArc
 50
90.0
 51
180.0
  0
LINE
  5
1E9
100
AcDbEntity
  8
1
390
0
  6
Continuous
 62
     7
100
AcDbLine
 10
250.487361
 20
129.65912
 30
0.0
 11
254.087361
 21
129.65912
 31
0.0
  0
LINE
  5
1EA
100
AcDbEntity
  8
1
390
0
  6
Continuous
 62
     7
100
AcDbLine
 10
250.287361
 20
125.65912
 30
0.0
 11
250.287361
 21
129.45912
 31
0.0
  0
LINE
  5
1EB
100
AcDbEntity
  8
1
390
0
  6
Continuous
 62
     7
100
AcDbLine
 10
256.343229
 20
133.65912
 30
0.0
 11
256.981024
 21
133.65912
 31
0.0
  0
POLYLINE
  5
1EC
100
AcDbEntity
  8
1
390
0
  6
Continuous
 62
     7
100
AcDb2dPolyline
 66
     1
 10
0.0
 20
0.0
 30
0.0
 40
3.0
 41
3.0
  0
VERTEX
  5
1ED
100
AcDbEntity
  8
1
390
0
 62
     7
100
AcDbVertex
100
AcDb2dVertex
 10
256.981024
 20
133.65912
 30
0.0
  0
VERTEX
  5
1EE
100
AcDbEntity
  8
1
390
0
 62
     7
100
AcDbVertex
100
AcDb2dVertex
 10
257.070134
 20
133.598855
 30
0.0
  0
VERTEX
  5
1EF
100
AcDbEntity
  8
1
390
0
 62
     7
100
AcDbVertex
100
AcDb2dVertex
 10
257.104612
 20
133.503304
 30
0.0
  0
VERTEX
  5
1F0
100
AcDbEntity
  8
1
390
0
 62
     7
100
AcDbVertex
100
AcDb2dVertex
 10
257.107957
 20
133.45912
 30
0.0
  0
SEQEND
  5
1F1
100
AcDbEntity
  8
0
390
0
  0
POLYLINE
  5
1F2
100
AcDbEntity
  8
1
390
0
  6
Continuous
 62
     7
100
AcDb2dPolyline
 66
     1
 10
0.0
 20
0.0
 30
0.0
 40
3.0
 41
3.0
  0
VERTEX
  5
1F3
100
AcDbEntity
  8
1
390
0
 62
     7
100
AcDbVertex
100
AcDb2dVertex
 10
256.343229
 20
133.65912
 30
0.0
  0
VERTEX
  5
1F4
100
AcDbEntity
  8
1
390
0
 62
     7
100
AcDbVertex
100
AcDb2dVertex
 10
256.254119
 20
133.598855
 30
0.0
  0
VERTEX
  5
1F5
100
AcDbEntity
  8
1
390
0
 62
     7
100
AcDbVertex
100
AcDb2dVertex
 10
256.219642
 20
133.503304
 30
0.0
  0
VERTEX
  5
1F6
100
AcDbEntity
  8
1
390
0
 62
     7
100
AcDbVertex
100
AcDb2dVertex
 10
256.216296
 20
133.45912
 30
0.0
  0
SEQEND
  5
1F7
100
AcDbEntity
  8
0
390
0
  0
LINE
  5
1F8
100
AcDbEntity
  8
1
390
0
  6
Continuous
 62
     7
100
AcDbLine
 10
259.093697
 20
133.65912
 30
0.0
 11
259.731557
 21
133.65912
 31
0.0
  0
POLYLINE
  5
1F9
100
AcDbEntity
  8
1
390
0
  6
Continuous
 62
     7
100
AcDb2dPolyline
 66
     1
 10
0.0
 20
0.0
 30
0.0
 40
3.0
 41
3.0
  0
VERTEX
  5
1FA
100
AcDbEntity
  8
1
390
0
 62
     7
100
AcDbVertex
100
AcDb2dVertex
 10
259.731557
 20
133.65912
 30
0.0
  0
VERTEX
  5
1FB
100
AcDbEntity
  8
1
390
0
 62
     7
100
AcDbVertex
100
AcDb2dVertex
 10
259.820643
 20
133.598861
 30
0.0
  0
VERTEX
  5
1FC
100
AcDbEntity
  8
1
390
0
 62
     7
100
AcDbVertex
100
AcDb2dVertex
 10
259.855116
 20
133.503306
 30
0.0
  0
VERTEX
  5
1FD
100
AcDbEntity
  8
1
390
0
 62
     7
100
AcDbVertex
100
AcDb2dVertex
 10
259.858461
 20
133.45912
 30
0.0
  0
SEQEND
  5
1FE
100
AcDbEntity
  8
0
390
0
  0
POLYLINE
  5
1FF
100
AcDbEntity
  8
1
390
0
  6
Continuous
 62
     7
100
AcDb2dPolyline
 66
     1
 10
0.0
 20
0.0
 30
0.0
 40
3.0
 41
3.0
  0
VERTEX
  5
200
100
AcDbEntity
  8
1
390
0
 62
     7
100
AcDbVertex
100
AcDb2dVertex
 10
259.093697
 20
133.65912
 30
0.0
  0
VERTEX
  5
201
100
AcDbEntity
  8
1
390
0
 62
     7
100
AcDbVertex
100
AcDb2dVertex
 10
259.004587
 20
133.598855
 30
0.0
  0
VERTEX
  5
202
100
AcDbEntity
  8
1
390
0
 62
     7
100
AcDbVertex
100
AcDb2dVertex
 10
258.97011
 20
133.503304
 30
0.0
  0
VERTEX
  5
203
100
AcDbEntity
  8
1
390
0
 62
     7
100
AcDbVertex
100
AcDb2dVertex
 10
258.966765
 20
133.45912
 30
0.0
  0
SEQEND
  5
204
100
AcDbEntity
  8
0
390
0
  0
LINE
  5
205
100
AcDbEntity
  8
1
390
0
  6
Continuous
 62
     7
100
AcDbLine
 10
259.093697
 20
133.65912
 30
0.0
 11
256.981024
 21
133.65912
 31
0.0
  0
LINE
  5
206
100
AcDbEntity
  8
1
390
0
  6
Continuous
 62
     7
100
AcDbLine
 10
256.343229
 20
133.65912
 30
0.0
 11
254.230556
 21
133.65912
 31
0.0
  0
POLYLINE
  5
207
100
AcDbEntity
  8
1
390
0
  6
Continuous
 62
     7
100
AcDb2dPolyline
 66
     1
 10
0.0
 20
0.0
 30
0.0
 40
3.0
 41
3.0
  0
VERTEX
  5
208
100
AcDbEntity
  8
1
390
0
 62
     7
100
AcDbVertex
100
AcDb2dVertex
 10
254.230556
 20
133.65912
 30
0.0
  0
VERTEX
  5
209
100
AcDbEntity
  8
1
390
0
 62
     7
100
AcDbVertex
100
AcDb2dVertex
 10
254.319666
 20
133.598855
 30
0.0
  0
VERTEX
  5
20A
100
AcDbEntity
  8
1
390
0
 62
     7
100
AcDbVertex
100
AcDb2dVertex
 10
254.354143
 20
133.503304
 30
0.0
  0
VERTEX
  5
20B
100
AcDbEntity
  8
1
390
0
 62
     7
100
AcDbVertex
100
AcDb2dVertex
 10
254.357488
 20
133.45912
 30
0.0
  0
SEQEND
  5
20C
100
AcDbEntity
  8
0
390
0
  0
LINE
  5
20D
100
AcDbEntity
  8
1
390
0
  6
Continuous
 62
     7
100
AcDbLine
 10
261.843165
 20
133.65912
 30
0.0
 11
266.287361
 21
133.65912
 31
0.0
  0
POLYLINE
  5
20E
100
AcDbEntity
  8
1
390
0
  6
Continuous
 62
     7
100
AcDb2dPolyline
 66
     1
 10
0.0
 20
0.0
 30
0.0
 40
3.0
 41
3.0
  0
VERTEX
  5
20F
100
AcDbEntity
  8
1
390
0
 62
     7
100
AcDbVertex
100
AcDb2dVertex
 10
261.843165
 20
133.65912
 30
0.0
  0
VERTEX
  5
210
100
AcDbEntity
  8
1
390
0
 62
     7
100
AcDbVertex
100
AcDb2dVertex
 10
261.754079
 20
133.598861
 30
0.0
  0
VERTEX
  5
211
100
AcDbEntity
  8
1
390
0
 62
     7
100
AcDbVertex
100
AcDb2dVertex
 10
261.719605
 20
133.503306
 30
0.0
  0
VERTEX
  5
212
100
AcDbEntity
  8
1
390
0
 62
     7
100
AcDbVertex
100
AcDb2dVertex
 10
261.716261
 20
133.45912
 30
0.0
  0
SEQEND
  5
213
100
AcDbEntity
  8
0
390
0
  0
LINE
  5
214
100
AcDbEntity
  8
1
390
0
  6
Continuous
 62
     7
100
AcDbLine
 10
261.843165
 20
133.65912
 30
0.0
 11
259.731557
 21
133.65912
 31
0.0
  0
LINE
  5
215
100
AcDbEntity
  8
1
390
0
  6
Continuous
 62
     7
100
AcDbLine
 10
249.287361
 20
133.65912
 30
0.0
 11
254.230556
 21
133.65912
 31
0.0
  0
LINE
  5
216
100
AcDbEntity
  8
1
390
0
  6
Continuous
 62
     7
100
AcDbLine
 10
254.287361
 20
125.65912
 30
0.0
 11
256.343229
 21
125.65912
 31
0.0
  0
LINE
  5
217
100
AcDbEntity
  8
1
390
0
  6
DOT
 62
     9
100
AcDbLine
 10
254.230556
 20
125.65912
 30
0.0
 11
254.278682
 21
125.675315
 31
0.0
  0
LINE
  5
218
100
AcDbEntity
  8
1
390
0
  6
DOT
 62
     9
100
AcDbLine
 10
254.278682
 20
125.675315
 30
0.0
 11
254.287364
 21
125.681886
 31
0.0
  0
POLYLINE
  5
219
100
AcDbEntity
  8
1
390
0
  6
Continuous
 62
     7
100
AcDb2dPolyline
 66
     1
 10
0.0
 20
0.0
 30
0.0
 40
3.0
 41
3.0
  0
VERTEX
  5
21A
100
AcDbEntity
  8
1
390
0
 62
     7
100
AcDbVertex
100
AcDb2dVertex
 10
254.287364
 20
125.681886
 30
0.0
  0
VERTEX
  5
21B
100
AcDbEntity
  8
1
390
0
 62
     7
100
AcDbVertex
100
AcDb2dVertex
 10
254.344753
 20
125.774255
 30
0.0
  0
VERTEX
  5
21C
100
AcDbEntity
  8
1
390
0
 62
     7
100
AcDbVertex
100
AcDb2dVertex
 10
254.357488
 20
125.85912
 30
0.0
  0
SEQEND
  5
21D
100
AcDbEntity
  8
0
390
0
  0
POLYLINE
  5
21E
100
AcDbEntity
  8
1
390
0
  6
Continuous
 62
     7
100
AcDb2dPolyline
 66
     1
 10
0.0
 20
0.0
 30
0.0
 40
3.0
 41
3.0
  0
VERTEX
  5
21F
100
AcDbEntity
  8
1
390
0
 62
     7
100
AcDbVertex
100
AcDb2dVertex
 10
256.343229
 20
125.65912
 30
0.0
  0
VERTEX
  5
220
100
AcDbEntity
  8
1
390
0
 62
     7
100
AcDbVertex
100
AcDb2dVertex
 10
256.254119
 20
125.719386
 30
0.0
  0
VERTEX
  5
221
100
AcDbEntity
  8
1
390
0
 62
     7
100
AcDbVertex
100
AcDb2dVertex
 10
256.219642
 20
125.814937
 30
0.0
  0
VERTEX
  5
222
100
AcDbEntity
  8
1
390
0
 62
     7
100
AcDbVertex
100
AcDb2dVertex
 10
256.216296
 20
125.85912
 30
0.0
  0
SEQEND
  5
223
100
AcDbEntity
  8
0
390
0
  0
LINE
  5
224
100
AcDbEntity
  8
1
390
0
  6
Continuous
 62
     7
100
AcDbLine
 10
259.858461
 20
125.85912
 30
0.0
 11
259.858461
 21
133.45912
 31
0.0
  0
LINE
  5
225
100
AcDbEntity
  8
1
390
0
  6
Continuous
 62
     7
100
AcDbLine
 10
258.966765
 20
125.85912
 30
0.0
 11
258.966765
 21
133.45912
 31
0.0
  0
LINE
  5
226
100
AcDbEntity
  8
1
390
0
  6
Continuous
 62
     7
100
AcDbLine
 10
257.107957
 20
125.85912
 30
0.0
 11
257.107957
 21
133.45912
 31
0.0
  0
LINE
  5
227
100
AcDbEntity
  8
1
390
0
  6
Continuous
 62
     7
100
AcDbLine
 10
259.731557
 20
125.65912
 30
0.0
 11
259.093697
 21
125.65912
 31
0.0
  0
POLYLINE
  5
228
100
AcDbEntity
  8
1
390
0
  6
Continuous
 62
     7
100
AcDb2dPolyline
 66
     1
 10
0.0
 20
0.0
 30
0.0
 40
3.0
 41
3.0
  0
VERTEX
  5
229
100
AcDbEntity
  8
1
390
0
 62
     7
100
AcDbVertex
100
AcDb2dVertex
 10
259.093697
 20
125.65912
 30
0.0
  0
VERTEX
  5
22A
100
AcDbEntity
  8
1
390
0
 62
     7
100
AcDbVertex
100
AcDb2dVertex
 10
259.004587
 20
125.719386
 30
0.0
  0
VERTEX
  5
22B
100
AcDbEntity
  8
1
390
0
 62
     7
100
AcDbVertex
100
AcDb2dVertex
 10
258.97011
 20
125.814937
 30
0.0
  0
VERTEX
  5
22C
100
AcDbEntity
  8
1
390
0
 62
     7
100
AcDbVertex
100
AcDb2dVertex
 10
258.966765
 20
125.85912
 30
0.0
  0
SEQEND
  5
22D
100
AcDbEntity
  8
0
390
0
  0
POLYLINE
  5
22E
100
AcDbEntity
  8
1
390
0
  6
Continuous
 62
     7
100
AcDb2dPolyline
 66
     1
 10
0.0
 20
0.0
 30
0.0
 40
3.0
 41
3.0
  0
VERTEX
  5
22F
100
AcDbEntity
  8
1
390
0
 62
     7
100
AcDbVertex
100
AcDb2dVertex
 10
259.731557
 20
125.65912
 30
0.0
  0
VERTEX
  5
230
100
AcDbEntity
  8
1
390
0
 62
     7
100
AcDbVertex
100
AcDb2dVertex
 10
259.820643
 20
125.71938
 30
0.0
  0
VERTEX
  5
231
100
AcDbEntity
  8
1
390
0
 62
     7
100
AcDbVertex
100
AcDb2dVertex
 10
259.855116
 20
125.814935
 30
0.0
  0
VERTEX
  5
232
100
AcDbEntity
  8
1
390
0
 62
     7
100
AcDbVertex
100
AcDb2dVertex
 10
259.858461
 20
125.85912
 30
0.0
  0
SEQEND
  5
233
100
AcDbEntity
  8
0
390
0
  0
LINE
  5
234
100
AcDbEntity
  8
1
390
0
  6
Continuous
 62
     7
100
AcDbLine
 10
256.981024
 20
125.65912
 30
0.0
 11
259.093697
 21
125.65912
 31
0.0
  0
POLYLINE
  5
235
100
AcDbEntity
  8
1
390
0
  6
Continuous
 62
     7
100
AcDb2dPolyline
 66
     1
 10
0.0
 20
0.0
 30
0.0
 40
3.0
 41
3.0
  0
VERTEX
  5
236
100
AcDbEntity
  8
1
390
0
 62
     7
100
AcDbVertex
100
AcDb2dVertex
 10
256.981024
 20
125.65912
 30
0.0
  0
VERTEX
  5
237
100
AcDbEntity
  8
1
390
0
 62
     7
100
AcDbVertex
100
AcDb2dVertex
 10
257.070134
 20
125.719386
 30
0.0
  0
VERTEX
  5
238
100
AcDbEntity
  8
1
390
0
 62
     7
100
AcDbVertex
100
AcDb2dVertex
 10
257.104612
 20
125.814937
 30
0.0
  0
VERTEX
  5
239
100
AcDbEntity
  8
1
390
0
 62
     7
100
AcDbVertex
100
AcDb2dVertex
 10
257.107957
 20
125.85912
 30
0.0
  0
SEQEND
  5
23A
100
AcDbEntity
  8
0
390
0
  0
LINE
  5
23B
100
AcDbEntity
  8
1
390
0
  6
Continuous
 62
     7
100
AcDbLine
 10
248.487361
 20
133.65912
 30
0.0
 11
249.287361
 21
133.65912
 31
0.0
  0
ARC
  5
23C
100
AcDbEntity
  8
1
390
0
  6
Continuous
 62
     7
100
AcDbCircle
 10
248.487361
 20
133.45912
 30
0.0
 40
0.2
210
0.0
220
0.0
230
1.0
100
AcDbArc
 50
90.0
 51
180.0
  0
LINE
  5
23D
100
AcDbEntity
  8
1
390
0
  6
Continuous
 62
     7
100
AcDbLine
 10
249.287361
 20
125.65912
 30
0.0
 11
248.487361
 21
125.65912
 31
0.0
  0
ARC
  5
23E
100
AcDbEntity
  8
1
390
0
  6
Continuous
 62
     7
100
AcDbCircle
 10
248.487361
 20
125.85912
 30
0.0
 40
0.2
210
0.0
220
0.0
230
1.0
100
AcDbArc
 50
180.0
 51
270.0
  0
LINE
  5
23F
100
AcDbEntity
  8
1
390
0
  6
Continuous
 62
     7
100
AcDbLine
 10
267.087361
 20
125.65912
 30
0.0
 11
266.287361
 21
125.65912
 31
0.0
  0
ARC
  5
240
100
AcDbEntity
  8
1
390
0
  6
Continuous
 62
     7
100
AcDbCircle
 10
267.087361
 20
125.85912
 30
0.0
 40
0.2
210
0.0
220
0.0
230
0.9999999999999999
100
AcDbArc
 50
270.0
 51
360.0
  0
LINE
  5
241
100
AcDbEntity
  8
1
390
0
  6
Continuous
 62
     7
100
AcDbLine
 10
256.216296
 20
125.85912
 30
0.0
 11
256.216296
 21
133.45912
 31
0.0
  0
LINE
  5
242
100
AcDbEntity
  8
1
390
0
  6
Continuous
 62
     7
100
AcDbLine
 10
254.357488
 20
125.85912
 30
0.0
 11
254.357488
 21
133.45912
 31
0.0
  0
LINE
  5
243
100
AcDbEntity
  8
1
390
0
  6
Continuous
 62
     7
100
AcDbLine
 10
261.716261
 20
125.85912
 30
0.0
 11
261.716261
 21
133.45912
 31
0.0
  0
LINE
  5
244
100
AcDbEntity
  8
1
390
0
  6
Continuous
 62
     7
100
AcDbLine
 10
256.981024
 20
125.65912
 30
0.0
 11
256.343229
 21
125.65912
 31
0.0
  0
LINE
  5
245
100
AcDbEntity
  8
1
390
0
  6
Continuous
 62
     7
100
AcDbLine
 10
248.287361
 20
125.85912
 30
0.0
 11
248.287361
 21
133.45912
 31
0.0
  0
LINE
  5
246
100
AcDbEntity
  8
1
390
0
  6
Continuous
 62
     7
100
AcDbLine
 10
250.287361
 20
125.65912
 30
0.0
 11
249.287361
 21
125.65912
 31
0.0
  0
LINE
  5
247
100
AcDbEntity
  8
1
390
0
  6
DOT
 62
     9
100
AcDbLine
 10
250.287361
 20
125.85912
 30
0.0
 11
254.287361
 21
125.85912
 31
0.0
  0
LINE
  5
248
100
AcDbEntity
  8
1
390
0
  6
Continuous
 62
     7
100
AcDbLine
 10
259.731557
 20
125.65912
 30
0.0
 11
261.843165
 21
125.65912
 31
0.0
  0
POLYLINE
  5
249
100
AcDbEntity
  8
1
390
0
  6
Continuous
 62
     7
100
AcDb2dPolyline
 66
     1
 10
0.0
 20
0.0
 30
0.0
 40
3.0
 41
3.0
  0
VERTEX
  5
24A
100
AcDbEntity
  8
1
390
0
 62
     7
100
AcDbVertex
100
AcDb2dVertex
 10
261.843165
 20
125.65912
 30
0.0
  0
VERTEX
  5
24B
100
AcDbEntity
  8
1
390
0
 62
     7
100
AcDbVertex
100
AcDb2dVertex
 10
261.754079
 20
125.71938
 30
0.0
  0
VERTEX
  5
24C
100
AcDbEntity
  8
1
390
0
 62
     7
100
AcDbVertex
100
AcDb2dVertex
 10
261.719605
 20
125.814935
 30
0.0
  0
VERTEX
  5
24D
100
AcDbEntity
  8
1
390
0
 62
     7
100
AcDbVertex
100
AcDb2dVertex
 10
261.716261
 20
125.85912
 30
0.0
  0
SEQEND
  5
24E
100
AcDbEntity
  8
0
390
0
  0
LINE
  5
24F
100
AcDbEntity
  8
1
390
0
  6
Continuous
 62
     7
100
AcDbLine
 10
267.287361
 20
125.85912
 30
0.0
 11
267.287361
 21
133.45912
 31
0.0
  0
LINE
  5
250
100
AcDbEntity
  8
1
390
0
  6
Continuous
 62
     7
100
AcDbLine
 10
266.287361
 20
125.65912
 30
0.0
 11
261.843165
 21
125.65912
 31
0.0
  0
LINE
  5
251
100
AcDbEntity
  8
1
390
0
  6
Continuous
 62
     7
100
AcDbLine
 10
266.287361
 20
133.65912
 30
0.0
 11
267.087361
 21
133.65912
 31
0.0
  0
ARC
  5
252
100
AcDbEntity
  8
1
390
0
  6
Continuous
 62
     7
100
AcDbCircle
 10
267.087361
 20
133.45912
 30
0.0
 40
0.2
210
0.0
220
0.0
230
1.0
100
AcDbArc
 50
0.0
 51
90.0
  0
LINE
  5
253
100
AcDbEntity
  8
1
390
0
  6
DOT
 62
     9
100
AcDbLine
 10
254.287361
 20
125.65912
 30
0.0
 11
250.287361
 21
125.65912
 31
0.0
  0
LINE
  5
254
100
AcDbEntity
  8
1
390
0
  6
Continuous
 62
     7
100
AcDbLine
 10
245.787361
 20
127.40912
 30
0.0
 11
241.287361
 21
127.40912
 31
0.0
  0
LINE
  5
255
100
AcDbEntity
  8
1
390
0
  6
Continuous
 62
     7
100
AcDbLine
 10
245.787361
 20
128.40912
 30
0.0
 11
241.287361
 21
128.40912
 31
0.0
  0
ARC
  5
256
100
AcDbEntity
  8
1
390
0
  6
Continuous
 62
     7
100
AcDbCircle
 10
245.787361
 20
127.40912
 30
0.0
 40
1.0
210
0.0
220
0.0
230
1.0
100
AcDbArc
 50
0.0
 51
90.0
  0
LINE
  5
257
100
AcDbEntity
  8
1
390
0
  6
Continuous
 62
     7
100
AcDbLine
 10
248.487361
 20
125.65912
 30
0.0
 11
246.787361
 21
125.65912
 31
0.0
  0
ARC
  5
258
100
AcDbEntity
  8
1
390
0
  6
Continuous
 62
     7
100
AcDbCircle
 10
246.787361
 20
125.65912
 30
0.0
 40
1.0
210
0.0
220
0.0
230
1.0
100
AcDbArc
 50
180.0
 51
270.0
  0
LINE
  5
259
100
AcDbEntity
  8
1
390
0
  6
Continuous
 62
     7
100
AcDbLine
 10
245.787361
 20
125.65912
 30
0.0
 11
245.787361
 21
127.40912
 31
0.0
  0
LINE
  5
25A
100
AcDbEntity
  8
1
390
0
  6
Continuous
 62
     7
100
AcDbLine
 10
246.787361
 20
125.65912
 30
0.0
 11
246.787361
 21
127.40912
 31
0.0
  0
LINE
  5
25B
100
AcDbEntity
  8
1
390
0
  6
Continuous
 62
     7
100
AcDbLine
 10
250.287361
 20
124.65912
 30
0.0
 11
246.787361
 21
124.65912
 31
0.0
  0
LINE
  5
25C
100
AcDbEntity
  8
1
390
0
  6
Continuous
 62
     7
100
AcDbLine
 10
241.287361
 20
131.90912
 30
0.0
 11
241.287361
 21
130.90912
 31
0.0
  0
LINE
  5
25D
100
AcDbEntity
  8
1
390
0
  6
Continuous
 62
     7
100
AcDbLine
 10
242.287361
 20
131.90912
 30
0.0
 11
241.287361
 21
131.90912
 31
0.0
  0
LINE
  5
25E
100
AcDbEntity
  8
1
390
0
  6
Continuous
 62
     7
100
AcDbLine
 10
242.287361
 20
130.90912
 30
0.0
 11
241.287361
 21
130.90912
 31
0.0
  0
LINE
  5
25F
100
AcDbEntity
  8
1
390
0
  6
Continuous
 62
     7
100
AcDbLine
 10
244.787361
 20
131.90912
 30
0.0
 11
242.287361
 21
131.90912
 31
0.0
  0
LINE
  5
260
100
AcDbEntity
  8
1
390
0
  6
Continuous
 62
     7
100
AcDbLine
 10
244.787361
 20
130.90912
 30
0.0
 11
242.287361
 21
130.90912
 31
0.0
  0
LINE
  5
261
100
AcDbEntity
  8
1
390
0
  6
Continuous
 62
     7
100
AcDbLine
 10
245.787361
 20
131.90912
 30
0.0
 11
245.787361
 21
130.90912
 31
0.0
  0
LINE
  5
262
100
AcDbEntity
  8
1
390
0
  6
Continuous
 62
     7
100
AcDbLine
 10
245.787361
 20
131.90912
 30
0.0
 11
244.787361
 21
131.90912
 31
0.0
  0
LINE
  5
263
100
AcDbEntity
  8
1
390
0
  6
Continuous
 62
     7
100
AcDbLine
 10
245.787361
 20
130.90912
 30
0.0
 11
244.787361
 21
130.90912
 31
0.0
  0
LINE
  5
264
100
AcDbEntity
  8
1
390
0
  6
Continuous
 62
     7
100
AcDbLine
 10
265.287361
 20
124.65912
 30
0.0
 11
254.287361
 21
124.65912
 31
0.0
  0
LINE
  5
265
100
AcDbEntity
  8
1
390
0
  6
Continuous
 62
     7
100
AcDbLine
 10
266.287361
 20
124.65912
 30
0.0
 11
266.287361
 21
125.65912
 31
0.0
  0
LINE
  5
266
100
AcDbEntity
  8
1
390
0
  6
Continuous
 62
     7
100
AcDbLine
 10
266.287361
 20
124.65912
 30
0.0
 11
265.287361
 21
124.65912
 31
0.0
  0
LINE
  5
267
100
AcDbEntity
  8
1
390
0
  6
Continuous
 62
     7
100
AcDbLine
 10
240.287361
 20
127.40912
 30
0.0
 11
240.287361
 21
128.40912
 31
0.0
  0
LINE
  5
268
100
AcDbEntity
  8
1
390
0
  6
Continuous
 62
     7
100
AcDbLine
 10
241.287361
 20
127.40912
 30
0.0
 11
240.287361
 21
127.40912
 31
0.0
  0
LINE
  5
269
100
AcDbEntity
  8
1
390
0
  6
Continuous
 62
     7
100
AcDbLine
 10
241.287361
 20
128.40912
 30
0.0
 11
240.287361
 21
128.40912
 31
0.0
  0
LINE
  5
26A
100
AcDbEntity
  8
1
390
0
  6
Continuous
 62
     7
100
AcDbLine
 10
245.207562
 20
132.50912
 30
0.0
 11
245.184767
 21
132.50912
 31
0.0
  0
LINE
  5
26B
100
AcDbEntity
  8
1
390
0
  6
Continuous
 62
     7
100
AcDbLine
 10
241.889955
 20
132.50912
 30
0.0
 11
241.86716
 21
132.50912
 31
0.0
  0
POLYLINE
  5
26C
100
AcDbEntity
  8
1
390
0
  6
Continuous
 62
     7
100
AcDb2dPolyline
 66
     1
 10
0.0
 20
0.0
 30
0.0
 40
3.0
 41
3.0
  0
VERTEX
  5
26D
100
AcDbEntity
  8
1
390
0
 62
     7
100
AcDbVertex
100
AcDb2dVertex
 10
241.889955
 20
132.50912
 30
0.0
  0
VERTEX
  5
26E
100
AcDbEntity
  8
1
390
0
 62
     7
100
AcDbVertex
100
AcDb2dVertex
 10
241.907149
 20
132.546793
 30
0.0
  0
VERTEX
  5
26F
100
AcDbEntity
  8
1
390
0
 62
     7
100
AcDbVertex
100
AcDb2dVertex
 10
241.925918
 20
132.583747
 30
0.0
  0
VERTEX
  5
270
100
AcDbEntity
  8
1
390
0
 62
     7
100
AcDbVertex
100
AcDb2dVertex
 10
241.946211
 20
132.619887
 30
0.0
  0
VERTEX
  5
271
100
AcDbEntity
  8
1
390
0
 62
     7
100
AcDbVertex
100
AcDb2dVertex
 10
241.967974
 20
132.655119
 30
0.0
  0
VERTEX
  5
272
100
AcDbEntity
  8
1
390
0
 62
     7
100
AcDbVertex
100
AcDb2dVertex
 10
241.991893
 20
132.690397
 30
0.0
  0
VERTEX
  5
273
100
AcDbEntity
  8
1
390
0
 62
     7
100
AcDbVertex
100
AcDb2dVertex
 10
242.017325
 20
132.72465
 30
0.0
  0
VERTEX
  5
274
100
AcDbEntity
  8
1
390
0
 62
     7
100
AcDbVertex
100
AcDb2dVertex
 10
242.044197
 20
132.757786
 30
0.0
  0
VERTEX
  5
275
100
AcDbEntity
  8
1
390
0
 62
     7
100
AcDbVertex
100
AcDb2dVertex
 10
242.072434
 20
132.789714
 30
0.0
  0
VERTEX
  5
276
100
AcDbEntity
  8
1
390
0
 62
     7
100
AcDbVertex
100
AcDb2dVertex
 10
242.101152
 20
132.819544
 30
0.0
  0
VERTEX
  5
277
100
AcDbEntity
  8
1
390
0
 62
     7
100
AcDbVertex
100
AcDb2dVertex
 10
242.131106
 20
132.848185
 30
0.0
  0
VERTEX
  5
278
100
AcDbEntity
  8
1
390
0
 62
     7
100
AcDbVertex
100
AcDb2dVertex
 10
242.162216
 20
132.875567
 30
0.0
  0
VERTEX
  5
279
100
AcDbEntity
  8
1
390
0
 62
     7
100
AcDbVertex
100
AcDb2dVertex
 10
242.1944
 20
132.901621
 30
0.0
  0
VERTEX
  5
27A
100
AcDbEntity
  8
1
390
0
 62
     7
100
AcDbVertex
100
AcDb2dVertex
 10
242.228596
 20
132.927006
 30
0.0
  0
VERTEX
  5
27B
100
AcDbEntity
  8
1
390
0
 62
     7
100
AcDbVertex
100
AcDb2dVertex
 10
242.263865
 20
132.950947
 30
0.0
  0
VERTEX
  5
27C
100
AcDbEntity
  8
1
390
0
 62
     7
100
AcDbVertex
100
AcDb2dVertex
 10
242.300108
 20
132.973385
 30
0.0
  0
VERTEX
  5
27D
100
AcDbEntity
  8
1
390
0
 62
     7
100
AcDbVertex
100
AcDb2dVertex
 10
242.337228
 20
132.994264
 30
0.0
  0
VERTEX
  5
27E
100
AcDbEntity
  8
1
390
0
 62
     7
100
AcDbVertex
100
AcDb2dVertex
 10
242.376529
 20
133.014212
 30
0.0
  0
VERTEX
  5
27F
100
AcDbEntity
  8
1
390
0
 62
     7
100
AcDbVertex
100
AcDb2dVertex
 10
242.41667
 20
133.032458
 30
0.0
  0
VERTEX
  5
280
100
AcDbEntity
  8
1
390
0
 62
     7
100
AcDbVertex
100
AcDb2dVertex
 10
242.457538
 20
133.048959
 30
0.0
  0
VERTEX
  5
281
100
AcDbEntity
  8
1
390
0
 62
     7
100
AcDbVertex
100
AcDb2dVertex
 10
242.499782
 20
133.063933
 30
0.0
  0
VERTEX
  5
282
100
AcDbEntity
  8
1
390
0
 62
     7
100
AcDbVertex
100
AcDb2dVertex
 10
242.542652
 20
133.077079
 30
0.0
  0
VERTEX
  5
283
100
AcDbEntity
  8
1
390
0
 62
     7
100
AcDbVertex
100
AcDb2dVertex
 10
242.586024
 20
133.088376
 30
0.0
  0
SEQEND
  5
284
100
AcDbEntity
  8
0
390
0
  0
LINE
  5
285
100
AcDbEntity
  8
1
390
0
  6
Continuous
 62
     7
100
AcDbLine
 10
243.262361
 20
133.088376
 30
0.0
 11
243.262361
 21
133.041067
 31
0.0
  0
ARC
  5
286
100
AcDbEntity
  8
1
390
0
  6
Continuous
 62
     7
100
AcDbCircle
 10
243.537361
 20
130.216606
 30
0.0
 40
2.837817
210
0.0
220
0.0
230
1.0
100
AcDbArc
 50
84.438998
 51
95.561002
  0
LINE
  5
287
100
AcDbEntity
  8
1
390
0
  6
Continuous
 62
     7
100
AcDbLine
 10
243.812361
 20
133.041067
 30
0.0
 11
243.812361
 21
133.088376
 31
0.0
  0
POLYLINE
  5
288
100
AcDbEntity
  8
1
390
0
  6
Continuous
 62
     7
100
AcDb2dPolyline
 66
     1
 10
0.0
 20
0.0
 30
0.0
 40
3.0
 41
3.0
  0
VERTEX
  5
289
100
AcDbEntity
  8
1
390
0
 62
     7
100
AcDbVertex
100
AcDb2dVertex
 10
244.488697
 20
133.088376
 30
0.0
  0
VERTEX
  5
28A
100
AcDbEntity
  8
1
390
0
 62
     7
100
AcDbVertex
100
AcDb2dVertex
 10
244.530326
 20
133.07757
 30
0.0
  0
VERTEX
  5
28B
100
AcDbEntity
  8
1
390
0
 62
     7
100
AcDbVertex
100
AcDb2dVertex
 10
244.57151
 20
133.065054
 30
0.0
  0
VERTEX
  5
28C
100
AcDbEntity
  8
1
390
0
 62
     7
100
AcDbVertex
100
AcDb2dVertex
 10
244.612143
 20
133.050851
 30
0.0
  0
VERTEX
  5
28D
100
AcDbEntity
  8
1
390
0
 62
     7
100
AcDbVertex
100
AcDb2dVertex
 10
244.652116
 20
133.034984
 30
0.0
  0
VERTEX
  5
28E
100
AcDbEntity
  8
1
390
0
 62
     7
100
AcDbVertex
100
AcDb2dVertex
 10
244.692523
 20
133.016914
 30
0.0
  0
VERTEX
  5
28F
100
AcDbEntity
  8
1
390
0
 62
     7
100
AcDbVertex
100
AcDb2dVertex
 10
244.732148
 20
132.997095
 30
0.0
  0
VERTEX
  5
290
100
AcDbEntity
  8
1
390
0
 62
     7
100
AcDbVertex
100
AcDb2dVertex
 10
244.770877
 20
132.975579
 30
0.0
  0
VERTEX
  5
291
100
AcDbEntity
  8
1
390
0
 62
     7
100
AcDbVertex
100
AcDb2dVertex
 10
244.808596
 20
132.952417
 30
0.0
  0
VERTEX
  5
292
100
AcDbEntity
  8
1
390
0
 62
     7
100
AcDbVertex
100
AcDb2dVertex
 10
244.844062
 20
132.928467
 30
0.0
  0
VERTEX
  5
293
100
AcDbEntity
  8
1
390
0
 62
     7
100
AcDbVertex
100
AcDb2dVertex
 10
244.878512
 20
132.903012
 30
0.0
  0
VERTEX
  5
294
100
AcDbEntity
  8
1
390
0
 62
     7
100
AcDbVertex
100
AcDb2dVertex
 10
244.911851
 20
132.876119
 30
0.0
  0
VERTEX
  5
295
100
AcDbEntity
  8
1
390
0
 62
     7
100
AcDbVertex
100
AcDb2dVertex
 10
244.943984
 20
132.847856
 30
0.0
  0
VERTEX
  5
296
100
AcDbEntity
  8
1
390
0
 62
     7
100
AcDbVertex
100
AcDb2dVertex
 10
244.975803
 20
132.817309
 30
0.0
  0
VERTEX
  5
297
100
AcDbEntity
  8
1
390
0
 62
     7
100
AcDbVertex
100
AcDb2dVertex
 10
245.006275
 20
132.785358
 30
0.0
  0
VERTEX
  5
298
100
AcDbEntity
  8
1
390
0
 62
     7
100
AcDbVertex
100
AcDb2dVertex
 10
245.035308
 20
132.752096
 30
0.0
  0
VERTEX
  5
299
100
AcDbEntity
  8
1
390
0
 62
     7
100
AcDbVertex
100
AcDb2dVertex
 10
245.062815
 20
132.717615
 30
0.0
  0
VERTEX
  5
29A
100
AcDbEntity
  8
1
390
0
 62
     7
100
AcDbVertex
100
AcDb2dVertex
 10
245.08644
 20
132.685278
 30
0.0
  0
VERTEX
  5
29B
100
AcDbEntity
  8
1
390
0
 62
     7
100
AcDbVertex
100
AcDb2dVertex
 10
245.108754
 20
132.652004
 30
0.0
  0
VERTEX
  5
29C
100
AcDbEntity
  8
1
390
0
 62
     7
100
AcDbVertex
100
AcDb2dVertex
 10
245.1297
 20
132.617871
 30
0.0
  0
VERTEX
  5
29D
100
AcDbEntity
  8
1
390
0
 62
     7
100
AcDbVertex
100
AcDb2dVertex
 10
245.149534
 20
132.582388
 30
0.0
  0
VERTEX
  5
29E
100
AcDbEntity
  8
1
390
0
 62
     7
100
AcDbVertex
100
AcDb2dVertex
 10
245.167905
 20
132.546108
 30
0.0
  0
VERTEX
  5
29F
100
AcDbEntity
  8
1
390
0
 62
     7
100
AcDbVertex
100
AcDb2dVertex
 10
245.184767
 20
132.50912
 30
0.0
  0
SEQEND
  5
2A0
100
AcDbEntity
  8
0
390
0
  0
LINE
  5
2A1
100
AcDbEntity
  8
1
390
0
  6
DOT
 62
     9
100
AcDbLine
 10
243.262361
 20
132.50912
 30
0.0
 11
243.262361
 21
132.991057
 31
0.0
  0
LINE
  5
2A2
100
AcDbEntity
  8
1
390
0
  6
DOT
 62
     9
100
AcDbLine
 10
243.262361
 20
132.991057
 30
0.0
 11
243.262361
 21
133.041067
 31
0.0
  0
LINE
  5
2A3
100
AcDbEntity
  8
1
390
0
  6
DOT
 62
     9
100
AcDbLine
 10
243.812361
 20
132.50912
 30
0.0
 11
243.812361
 21
132.991057
 31
0.0
  0
LINE
  5
2A4
100
AcDbEntity
  8
1
390
0
  6
DOT
 62
     9
100
AcDbLine
 10
243.812361
 20
132.991057
 30
0.0
 11
243.812361
 21
133.041067
 31
0.0
  0
LINE
  5
2A5
100
AcDbEntity
  8
1
390
0
  6
DOT
 62
     9
100
AcDbLine
 10
243.812361
 20
132.50912
 30
0.0
 11
243.262361
 21
132.50912
 31
0.0
  0
LINE
  5
2A6
100
AcDbEntity
  8
1
390
0
  6
Continuous
 62
     7
100
AcDbLine
 10
279.287361
 20
130.05912
 30
0.0
 11
278.916338
 21
130.05912
 31
0.0
  0
LINE
  5
2A7
100
AcDbEntity
  8
1
390
0
  6
Continuous
 62
     7
100
AcDbLine
 10
279.287361
 20
129.25912
 30
0.0
 11
278.916338
 21
129.25912
 31
0.0
  0
LINE
  5
2A8
100
AcDbEntity
  8
1
390
0
  6
Continuous
 62
     7
100
AcDbLine
 10
278.916338
 20
130.05912
 30
0.0
 11
278.916338
 21
129.25912
 31
0.0
  0
LINE
  5
2A9
100
AcDbEntity
  8
1
390
0
  6
DOT
 62
     9
100
AcDbLine
 10
278.916338
 20
130.05912
 30
0.0
 11
278.916338
 21
129.25912
 31
0.0
  0
LINE
  5
2AA
100
AcDbEntity
  8
1
390
0
  6
Continuous
 62
     7
100
AcDbLine
 10
278.916338
 20
130.05912
 30
0.0
 11
267.287361
 21
130.05912
 31
0.0
  0
LINE
  5
2AB
100
AcDbEntity
  8
1
390
0
  6
Continuous
 62
     7
100
AcDbLine
 10
278.916338
 20
129.25912
 30
0.0
 11
267.287361
 21
129.25912
 31
0.0
  0
LINE
  5
2AC
100
AcDbEntity
  8
1
390
0
  6
Continuous
 62
     7
100
AcDbLine
 10
242.537361
 20
126.10912
 30
0.0
 11
244.537361
 21
126.10912
 31
0.0
  0
LINE
  5
2AD
100
AcDbEntity
  8
1
390
0
  6
Continuous
 62
     7
100
AcDbLine
 10
244.337361
 20
125.90912
 30
0.0
 11
242.737361
 21
125.90912
 31
0.0
  0
ARC
  5
2AE
100
AcDbEntity
  8
1
390
0
  6
Continuous
 62
     7
100
AcDbCircle
 10
243.537361
 20
129.087838
 30
0.0
 40
4.112097
210
0.0
220
0.0
230
1.0
100
AcDbArc
 50
93.834566
 51
103.376606
  0
ARC
  5
2AF
100
AcDbEntity
  8
1
390
0
  6
Continuous
 62
     7
100
AcDbCircle
 10
243.537361
 20
129.087838
 30
0.0
 40
4.112097
210
0.0
220
0.0
230
1.0
100
AcDbArc
 50
85.289255
 51
86.165434
  0
ARC
  5
2B0
100
AcDbEntity
  8
1
390
0
  6
Continuous
 62
     7
100
AcDbCircle
 10
243.537361
 20
129.087838
 30
0.0
 40
4.112097
210
0.0
220
0.0
230
1.0
100
AcDbArc
 50
76.623394
 51
85.289255
  0
LINE
  5
2B1
100
AcDbEntity
  8
1
390
0
  6
DOT
 62
     9
100
AcDbLine
 10
243.262361
 20
132.50912
 30
0.0
 11
241.889955
 21
132.50912
 31
0.0
  0
LINE
  5
2B2
100
AcDbEntity
  8
1
390
0
  6
DOT
 62
     9
100
AcDbLine
 10
245.184767
 20
132.50912
 30
0.0
 11
243.812361
 21
132.50912
 31
0.0
  0
LINE
  5
2B3
100
AcDbEntity
  8
1
390
0
  6
Continuous
 62
     7
100
AcDbLine
 10
208.287361
 20
131.40912
 30
0.0
 11
208.287361
 21
127.90912
 31
0.0
  0
LINE
  5
2B4
100
AcDbEntity
  8
1
390
0
  6
DOT
 62
     9
100
AcDbLine
 10
278.697683
 20
129.25912
 30
0.0
 11
278.697683
 21
130.05912
 31
0.0
  0
ARC
  5
2B5
100
AcDbEntity
  8
1
390
0
  6
Continuous
 62
     7
100
AcDbCircle
 10
242.787361
 20
132.117674
 30
0.0
 40
1.0
210
0.0
220
0.0
230
1.0
100
AcDbArc
 50
156.955446
 51
180.0
  0
ARC
  5
2B6
100
AcDbEntity
  8
1
390
0
  6
Continuous
 62
     7
100
AcDbCircle
 10
244.287361
 20
132.117674
 30
0.0
 40
1.0
210
0.0
220
0.0
230
1.0
100
AcDbArc
 50
0.0
 51
23.044554
  0
LINE
  5
2B7
100
AcDbEntity
  8
1
390
0
  6
Continuous
 62
     7
100
AcDbLine
 10
241.787361
 20
132.117674
 30
0.0
 11
241.787361
 21
131.90912
 31
0.0
  0
LINE
  5
2B8
100
AcDbEntity
  8
1
390
0
  6
Continuous
 62
     7
100
AcDbLine
 10
245.287361
 20
131.90912
 30
0.0
 11
245.287361
 21
132.117674
 31
0.0
  0
LINE
  5
2B9
100
AcDbEntity
  8
1
390
0
  6
Continuous
 62
     7
100
AcDbLine
 10
279.287361
 20
129.25912
 30
0.0
 11
279.287361
 21
130.05912
 31
0.0
  0
LINE
  5
2BA
100
AcDbEntity
  8
1
390
0
  6
Continuous
 62
     7
100
AcDbLine
 10
242.537361
 20
126.10912
 30
0.0
 11
242.737361
 21
125.90912
 31
0.0
  0
LINE
  5
2BB
100
AcDbEntity
  8
1
390
0
  6
Continuous
 62
     7
100
AcDbLine
 10
244.337361
 20
125.90912
 30
0.0
 11
244.537361
 21
126.10912
 31
0.0
  0
LINE
  5
2BC
100
AcDbEntity
  8
1
390
0
  6
Continuous
 62
     7
100
AcDbLine
 10
242.537361
 20
127.40912
 30
0.0
 11
242.537361
 21
126.10912
 31
0.0
  0
LINE
  5
2BD
100
AcDbEntity
  8
1
390
0
  6
Continuous
 62
     7
100
AcDbLine
 10
244.537361
 20
126.10912
 30
0.0
 11
244.537361
 21
127.40912
 31
0.0
  0
LINE
  5
2BE
100
AcDbEntity
  8
1
390
0
  6
Continuous
 62
     7
100
AcDbLine
 10
242.537361
 20
130.90912
 30
0.0
 11
242.537361
 21
128.40912
 31
0.0
  0
LINE
  5
2BF
100
AcDbEntity
  8
1
390
0
  6
Continuous
 62
     7
100
AcDbLine
 10
244.537361
 20
128.40912
 30
0.0
 11
244.537361
 21
130.90912
 31
0.0
  0
LINE
  5
2C0
100
AcDbEntity
  8
1
390
0
  6
DOT
 62
     9
100
AcDbLine
 10
246.653246
 20
127.90912
 30
0.0
 11
246.653386
 21
127.90912
 31
0.0
  0
LINE
  5
2C1
100
AcDbEntity
  8
1
390
0
  6
Continuous
 62
     7
100
AcDbLine
 10
246.653386
 20
127.90912
 30
0.0
 11
248.287361
 21
127.90912
 31
0.0
  0
LINE
  5
2C2
100
AcDbEntity
  8
1
390
0
  6
Continuous
 62
     7
100
AcDbLine
 10
208.287361
 20
127.90912
 30
0.0
 11
240.287361
 21
127.90912
 31
0.0
  0
LINE
  5
2C3
100
AcDbEntity
  8
1
390
0
  6
Continuous
 62
     7
100
AcDbLine
 10
241.287361
 20
131.40912
 30
0.0
 11
208.287361
 21
131.40912
 31
0.0
  0
LINE
  5
2C4
100
AcDbEntity
  8
1
390
0
  6
Continuous
 62
     7
100
AcDbLine
 10
248.287361
 20
131.40912
 30
0.0
 11
245.787361
 21
131.40912
 31
0.0
  0
LINE
  5
2C5
100
AcDbEntity
  8
1
390
0
  6
Continuous
 62
     7
100
AcDbLine
 10
208.287361
 20
130.90912
 30
0.0
 11
194.931885
 21
130.90912
 31
0.0
  0
LINE
  5
2C6
100
AcDbEntity
  8
1
390
0
  6
Continuous
 62
     7
100
AcDbLine
 10
192.646107
 20
128.40912
 30
0.0
 11
208.287361
 21
128.40912
 31
0.0
  0
LINE
  5
2C7
100
AcDbEntity
  8
1
390
0
  6
Continuous
 62
     9
100
AcDbLine
 10
186.740667
 20
127.44237
 30
0.0
 11
190.975639
 21
131.964106
 31
0.0
  0
LINE
  5
2C8
100
AcDbEntity
  8
1
390
0
  6
Continuous
 62
     9
100
AcDbLine
 10
191.740667
 20
127.44237
 30
0.0
 11
196.101906
 21
132.098924
 31
0.0
  0
POINT
  5
2C9
100
AcDbEntity
  8
5
390
0
 62
     7
100
AcDbPoint
 10
190.664975
 20
132.255068
 30
0.0
  0
POINT
  5
2CA
100
AcDbEntity
  8
5
390
0
 62
     7
100
AcDbPoint
 10
195.99324
 20
132.200698
 30
0.0
  0
LINE
  5
2CB
100
AcDbEntity
  8
1
390
0
  6
CENTER
 62
     1
100
AcDbLine
 10
280.674531
 20
129.65912
 30
0.0
 11
134.351798
 21
129.65912
 31
0.0
  0
POINT
  5
2CC
100
AcDbEntity
  8
5
390
0
 62
     7
100
AcDbPoint
 10
280.674531
 20
139.056948
 30
0.0
  0
LINE
  5
2CD
100
AcDbEntity
  8
1
390
0
  6
Continuous
 62
     7
100
AcDbLine
 10
156.931403
 20
192.28098
 30
0.0
 11
156.931403
 21
197.28098
 31
0.0
  0
LINE
  5
2CE
100
AcDbEntity
  8
1
390
0
  6
Continuous
 62
     7
100
AcDbLine
 10
156.931403
 20
127.15912
 30
0.0
 11
156.931403
 21
132.15912
 31
0.0
  0
LINE
  5
2CF
100
AcDbEntity
  8
1
390
0
  6
Continuous
 62
     9
100
AcDbLine
 10
161.931403
 20
197.03098
 30
0.0
 11
156.931403
 21
197.03098
 31
0.0
  0
LINE
  5
2D0
100
AcDbEntity
  8
1
390
0
  6
Continuous
 62
     9
100
AcDbLine
 10
156.931403
 20
192.53098
 30
0.0
 11
161.931403
 21
192.53098
 31
0.0
  0
LINE
  5
2D1
100
AcDbEntity
  8
1
390
0
  6
Continuous
 62
     9
100
AcDbLine
 10
161.931403
 20
131.90912
 30
0.0
 11
156.931403
 21
131.90912
 31
0.0
  0
LINE
  5
2D2
100
AcDbEntity
  8
1
390
0
  6
Continuous
 62
     9
100
AcDbLine
 10
156.931403
 20
127.40912
 30
0.0
 11
161.931403
 21
127.40912
 31
0.0
  0
POINT
  5
2D3
100
AcDbEntity
  8
5
390
0
 62
     9
100
AcDbPoint
 10
156.931403
 20
192.53098
 30
0.0
  0
POINT
  5
2D4
100
AcDbEntity
  8
5
390
0
 62
     9
100
AcDbPoint
 10
155.458954
 20
192.172721
 30
0.0
  0
LINE
  5
2D5
100
AcDbEntity
  8
1
390
0
  6
Continuous
 62
     9
100
AcDbLine
 10
156.931403
 20
192.53098
 30
0.0
 11
156.498391
 21
192.28098
 31
0.0
  0
POINT
  5
2D6
100
AcDbEntity
  8
5
390
0
 62
     9
100
AcDbPoint
 10
156.931403
 20
197.03098
 30
0.0
  0
POINT
  5
2D7
100
AcDbEntity
  8
5
390
0
 62
     9
100
AcDbPoint
 10
155.57913
 20
197.864909
 30
0.0
  0
LINE
  5
2D8
100
AcDbEntity
  8
1
390
0
  6
Continuous
 62
     9
100
AcDbLine
 10
156.931403
 20
197.03098
 30
0.0
 11
156.498391
 21
197.28098
 31
0.0
  0
POINT
  5
2D9
100
AcDbEntity
  8
5
390
0
 62
     9
100
AcDbPoint
 10
156.931403
 20
127.40912
 30
0.0
  0
POINT
  5
2DA
100
AcDbEntity
  8
5
390
0
 62
     9
100
AcDbPoint
 10
156.342181
 20
126.863662
 30
0.0
  0
LINE
  5
2DB
100
AcDbEntity
  8
1
390
0
  6
Continuous
 62
     9
100
AcDbLine
 10
156.931403
 20
127.40912
 30
0.0
 11
156.498391
 21
127.15912
 31
0.0
  0
POINT
  5
2DC
100
AcDbEntity
  8
5
390
0
 62
     9
100
AcDbPoint
 10
156.931403
 20
131.90912
 30
0.0
  0
POINT
  5
2DD
100
AcDbEntity
  8
5
390
0
 62
     9
100
AcDbPoint
 10
156.199927
 20
132.458958
 30
0.0
  0
LINE
  5
2DE
100
AcDbEntity
  8
1
390
0
  6
Continuous
 62
     9
100
AcDbLine
 10
156.931403
 20
131.90912
 30
0.0
 11
156.498391
 21
132.15912
 31
0.0
  0
INSERT
  5
2F3
100
AcDbEntity
  8
1
390
0
100
AcDbBlockReference
  2
AID1001
 10
0.0
 20
0.0
 30
0.0
  0
INSERT
  5
308
100
AcDbEntity
  8
1
390
0
100
AcDbBlockReference
  2
AID1020
 10
0.0
 20
0.0
 30
0.0
  0
CIRCLE
  5
309
100
AcDbEntity
  8
1
390
0
  6
Continuous
 62
     7
100
AcDbCircle
 10
54.109382
 20
194.78098
 30
0.0
 40
2.0
210
0.0
220
0.0
230
1.0
  0
CIRCLE
  5
30A
100
AcDbEntity
  8
1
390
0
  6
DOT
 62
     9
100
AcDbCircle
 10
54.109382
 20
194.78098
 30
0.0
 40
1.9
210
0.0
220
0.0
230
0.9999999999999999
  0
CIRCLE
  5
30B
100
AcDbEntity
  8
1
390
0
  6
Continuous
 62
     7
100
AcDbCircle
 10
54.109382
 20
194.78098
 30
0.0
 40
3.5
210
0.0
220
0.0
230
1.0
  0
CIRCLE
  5
30C
100
AcDbEntity
  8
1
390
0
  6
DOT
 62
     9
100
AcDbCircle
 10
54.109382
 20
194.78098
 30
0.0
 40
2.5
210
0.0
220
0.0
230
1.0
  0
CIRCLE
  5
30D
100
AcDbEntity
  8
1
390
0
  6
DOT
 62
     9
100
AcDbCircle
 10
54.109382
 20
194.78098
 30
0.0
 40
2.225
210
0.0
220
0.0
230
1.0
  0
CIRCLE
  5
30E
100
AcDbEntity
  8
1
390
0
  6
DOT
 62
     9
100
AcDbCircle
 10
54.109382
 20
194.78098
 30
0.0
 40
1.25
210
0.0
220
0.0
230
1.0
  0
CIRCLE
  5
30F
100
AcDbEntity
  8
1
390
0
  6
DOT
 62
     9
100
AcDbCircle
 10
54.109382
 20
194.78098
 30
0.0
 40
1.75
210
0.0
220
0.0
230
1.0
  0
LINE
  5
310
100
AcDbEntity
  8
1
390
0
  6
Continuous
 62
     7
100
AcDbLine
 10
51.859382
 20
201.28098
 30
0.0
 11
52.859382
 21
201.28098
 31
0.0
  0
LINE
  5
311
100
AcDbEntity
  8
1
390
0
  6
Continuous
 62
     7
100
AcDbLine
 10
52.859382
 20
200.28098
 30
0.0
 11
52.859382
 21
201.28098
 31
0.0
  0
LINE
  5
312
100
AcDbEntity
  8
1
390
0
  6
Continuous
 62
     7
100
AcDbLine
 10
51.859382
 20
200.28098
 30
0.0
 11
51.859382
 21
201.28098
 31
0.0
  0
LINE
  5
313
100
AcDbEntity
  8
1
390
0
  6
DOT
 62
     9
100
AcDbLine
 10
52.859382
 20
196.005725
 30
0.0
 11
52.859382
 21
196.34223
 31
0.0
  0
LINE
  5
314
100
AcDbEntity
  8
1
390
0
  6
DOT
 62
     9
100
AcDbLine
 10
52.859382
 20
196.34223
 30
0.0
 11
52.859382
 21
198.050155
 31
0.0
  0
LINE
  5
315
100
AcDbEntity
  8
1
390
0
  6
Continuous
 62
     7
100
AcDbLine
 10
52.859382
 20
198.050155
 30
0.0
 11
52.859382
 21
200.28098
 31
0.0
  0
LINE
  5
316
100
AcDbEntity
  8
1
390
0
  6
Continuous
 62
     7
100
AcDbLine
 10
51.859382
 20
189.28098
 30
0.0
 11
51.859382
 21
192.100029
 31
0.0
  0
LINE
  5
317
100
AcDbEntity
  8
1
390
0
  6
DOT
 62
     9
100
AcDbLine
 10
51.859382
 20
192.100029
 30
0.0
 11
51.859382
 21
197.461932
 31
0.0
  0
LINE
  5
318
100
AcDbEntity
  8
1
390
0
  6
Continuous
 62
     7
100
AcDbLine
 10
51.859382
 20
197.461932
 30
0.0
 11
51.859382
 21
200.28098
 31
0.0
  0
LINE
  5
319
100
AcDbEntity
  8
1
390
0
  6
Continuous
 62
     7
100
AcDbLine
 10
52.859382
 20
189.28098
 30
0.0
 11
52.859382
 21
191.511806
 31
0.0
  0
LINE
  5
31A
100
AcDbEntity
  8
1
390
0
  6
DOT
 62
     9
100
AcDbLine
 10
52.859382
 20
191.511806
 30
0.0
 11
52.859382
 21
193.219731
 31
0.0
  0
LINE
  5
31B
100
AcDbEntity
  8
1
390
0
  6
DOT
 62
     9
100
AcDbLine
 10
52.859382
 20
193.219731
 30
0.0
 11
52.859382
 21
193.556236
 31
0.0
  0
LINE
  5
31C
100
AcDbEntity
  8
1
390
0
  6
Continuous
 62
     7
100
AcDbLine
 10
51.859382
 20
188.28098
 30
0.0
 11
52.859382
 21
188.28098
 31
0.0
  0
LINE
  5
31D
100
AcDbEntity
  8
1
390
0
  6
Continuous
 62
     7
100
AcDbLine
 10
51.859382
 20
188.28098
 30
0.0
 11
51.859382
 21
189.28098
 31
0.0
  0
LINE
  5
31E
100
AcDbEntity
  8
1
390
0
  6
Continuous
 62
     7
100
AcDbLine
 10
52.859382
 20
188.28098
 30
0.0
 11
52.859382
 21
189.28098
 31
0.0
  0
LINE
  5
31F
100
AcDbEntity
  8
1
390
0
  6
DOT
 62
     9
100
AcDbLine
 10
55.359382
 20
196.005725
 30
0.0
 11
55.359382
 21
196.34223
 31
0.0
  0
LINE
  5
320
100
AcDbEntity
  8
1
390
0
  6
DOT
 62
     9
100
AcDbLine
 10
55.359382
 20
196.34223
 30
0.0
 11
55.359382
 21
198.050155
 31
0.0
  0
LINE
  5
321
100
AcDbEntity
  8
1
390
0
  6
Continuous
 62
     7
100
AcDbLine
 10
55.359382
 20
198.050155
 30
0.0
 11
55.359382
 21
200.28098
 31
0.0
  0
LINE
  5
322
100
AcDbEntity
  8
1
390
0
  6
Continuous
 62
     7
100
AcDbLine
 10
56.359382
 20
189.28098
 30
0.0
 11
56.359382
 21
192.100029
 31
0.0
  0
LINE
  5
323
100
AcDbEntity
  8
1
390
0
  6
DOT
 62
     9
100
AcDbLine
 10
56.359382
 20
192.100029
 30
0.0
 11
56.359382
 21
197.461932
 31
0.0
  0
LINE
  5
324
100
AcDbEntity
  8
1
390
0
  6
Continuous
 62
     7
100
AcDbLine
 10
56.359382
 20
197.461932
 30
0.0
 11
56.359382
 21
200.28098
 31
0.0
  0
LINE
  5
325
100
AcDbEntity
  8
1
390
0
  6
Continuous
 62
     7
100
AcDbLine
 10
55.359382
 20
189.28098
 30
0.0
 11
55.359382
 21
191.511806
 31
0.0
  0
LINE
  5
326
100
AcDbEntity
  8
1
390
0
  6
DOT
 62
     9
100
AcDbLine
 10
55.359382
 20
191.511806
 30
0.0
 11
55.359382
 21
193.219731
 31
0.0
  0
LINE
  5
327
100
AcDbEntity
  8
1
390
0
  6
DOT
 62
     9
100
AcDbLine
 10
55.359382
 20
193.219731
 30
0.0
 11
55.359382
 21
193.556236
 31
0.0
  0
LINE
  5
328
100
AcDbEntity
  8
1
390
0
  6
Continuous
 62
     7
100
AcDbLine
 10
56.359382
 20
201.28098
 30
0.0
 11
55.359382
 21
201.28098
 31
0.0
  0
LINE
  5
329
100
AcDbEntity
  8
1
390
0
  6
Continuous
 62
     7
100
AcDbLine
 10
56.359382
 20
200.28098
 30
0.0
 11
56.359382
 21
201.28098
 31
0.0
  0
LINE
  5
32A
100
AcDbEntity
  8
1
390
0
  6
Continuous
 62
     7
100
AcDbLine
 10
55.359382
 20
200.28098
 30
0.0
 11
55.359382
 21
201.28098
 31
0.0
  0
LINE
  5
32B
100
AcDbEntity
  8
1
390
0
  6
Continuous
 62
     7
100
AcDbLine
 10
56.359382
 20
188.28098
 30
0.0
 11
55.359382
 21
188.28098
 31
0.0
  0
LINE
  5
32C
100
AcDbEntity
  8
1
390
0
  6
Continuous
 62
     7
100
AcDbLine
 10
56.359382
 20
188.28098
 30
0.0
 11
56.359382
 21
189.28098
 31
0.0
  0
LINE
  5
32D
100
AcDbEntity
  8
1
390
0
  6
Continuous
 62
     7
100
AcDbLine
 10
55.359382
 20
188.28098
 30
0.0
 11
55.359382
 21
189.28098
 31
0.0
  0
LINE
  5
32E
100
AcDbEntity
  8
1
390
0
  6
Continuous
 62
     7
100
AcDbLine
 10
57.504685
 20
191.63098
 30
0.0
 11
57.491329
 21
191.63098
 31
0.0
  0
POLYLINE
  5
32F
100
AcDbEntity
  8
1
390
0
  6
Continuous
 62
     7
100
AcDb2dPolyline
 66
     1
 10
0.0
 20
0.0
 30
0.0
 40
3.0
 41
3.0
  0
VERTEX
  5
330
100
AcDbEntity
  8
1
390
0
 62
     7
100
AcDbVertex
100
AcDb2dVertex
 10
57.491329
 20
191.63098
 30
0.0
  0
VERTEX
  5
331
100
AcDbEntity
  8
1
390
0
 62
     7
100
AcDbVertex
100
AcDb2dVertex
 10
57.527048
 20
191.52673
 30
0.0
  0
VERTEX
  5
332
100
AcDbEntity
  8
1
390
0
 62
     7
100
AcDbVertex
100
AcDb2dVertex
 10
57.538638
 20
191.482317
 30
0.0
  0
SEQEND
  5
333
100
AcDbEntity
  8
0
390
0
  0
LINE
  5
334
100
AcDbEntity
  8
1
390
0
  6
Continuous
 62
     7
100
AcDbLine
 10
57.538638
 20
190.80598
 30
0.0
 11
56.959382
 21
190.80598
 31
0.0
  0
LINE
  5
335
100
AcDbEntity
  8
1
390
0
  6
Continuous
 62
     7
100
AcDbLine
 10
56.959382
 20
190.25598
 30
0.0
 11
56.959382
 21
190.80598
 31
0.0
  0
LINE
  5
336
100
AcDbEntity
  8
1
390
0
  6
Continuous
 62
     7
100
AcDbLine
 10
56.959382
 20
190.25598
 30
0.0
 11
57.538638
 21
190.25598
 31
0.0
  0
POLYLINE
  5
337
100
AcDbEntity
  8
1
390
0
  6
Continuous
 62
     7
100
AcDb2dPolyline
 66
     1
 10
0.0
 20
0.0
 30
0.0
 40
3.0
 41
3.0
  0
VERTEX
  5
338
100
AcDbEntity
  8
1
390
0
 62
     7
100
AcDbVertex
100
AcDb2dVertex
 10
57.538638
 20
189.579644
 30
0.0
  0
VERTEX
  5
339
100
AcDbEntity
  8
1
390
0
 62
     7
100
AcDbVertex
100
AcDb2dVertex
 10
57.505289
 20
189.467583
 30
0.0
  0
VERTEX
  5
33A
100
AcDbEntity
  8
1
390
0
 62
     7
100
AcDbVertex
100
AcDb2dVertex
 10
57.491329
 20
189.43098
 30
0.0
  0
SEQEND
  5
33B
100
AcDbEntity
  8
0
390
0
  0
LINE
  5
33C
100
AcDbEntity
  8
1
390
0
  6
Continuous
 62
     7
100
AcDbLine
 10
57.491329
 20
189.43098
 30
0.0
 11
57.504685
 21
189.43098
 31
0.0
  0
LINE
  5
33D
100
AcDbEntity
  8
1
390
0
  6
Continuous
 62
     7
100
AcDbLine
 10
57.504685
 20
197.93098
 30
0.0
 11
57.491329
 21
197.93098
 31
0.0
  0
LINE
  5
33E
100
AcDbEntity
  8
1
390
0
  6
Continuous
 62
     7
100
AcDbLine
 10
57.491329
 20
200.13098
 30
0.0
 11
57.504685
 21
200.13098
 31
0.0
  0
POLYLINE
  5
33F
100
AcDbEntity
  8
1
390
0
  6
Continuous
 62
     7
100
AcDb2dPolyline
 66
     1
 10
0.0
 20
0.0
 30
0.0
 40
3.0
 41
3.0
  0
VERTEX
  5
340
100
AcDbEntity
  8
1
390
0
 62
     7
100
AcDbVertex
100
AcDb2dVertex
 10
57.538638
 20
199.982317
 30
0.0
  0
VERTEX
  5
341
100
AcDbEntity
  8
1
390
0
 62
     7
100
AcDbVertex
100
AcDb2dVertex
 10
57.505289
 20
200.094378
 30
0.0
  0
VERTEX
  5
342
100
AcDbEntity
  8
1
390
0
 62
     7
100
AcDbVertex
100
AcDb2dVertex
 10
57.491329
 20
200.13098
 30
0.0
  0
SEQEND
  5
343
100
AcDbEntity
  8
0
390
0
  0
LINE
  5
344
100
AcDbEntity
  8
1
390
0
  6
Continuous
 62
     7
100
AcDbLine
 10
56.959382
 20
199.30598
 30
0.0
 11
57.538638
 21
199.30598
 31
0.0
  0
LINE
  5
345
100
AcDbEntity
  8
1
390
0
  6
Continuous
 62
     7
100
AcDbLine
 10
56.959382
 20
199.30598
 30
0.0
 11
56.959382
 21
198.75598
 31
0.0
  0
LINE
  5
346
100
AcDbEntity
  8
1
390
0
  6
Continuous
 62
     7
100
AcDbLine
 10
57.538638
 20
198.75598
 30
0.0
 11
56.959382
 21
198.75598
 31
0.0
  0
POLYLINE
  5
347
100
AcDbEntity
  8
1
390
0
  6
Continuous
 62
     7
100
AcDb2dPolyline
 66
     1
 10
0.0
 20
0.0
 30
0.0
 40
3.0
 41
3.0
  0
VERTEX
  5
348
100
AcDbEntity
  8
1
390
0
 62
     7
100
AcDbVertex
100
AcDb2dVertex
 10
57.491329
 20
197.93098
 30
0.0
  0
VERTEX
  5
349
100
AcDbEntity
  8
1
390
0
 62
     7
100
AcDbVertex
100
AcDb2dVertex
 10
57.527048
 20
198.035231
 30
0.0
  0
VERTEX
  5
34A
100
AcDbEntity
  8
1
390
0
 62
     7
100
AcDbVertex
100
AcDb2dVertex
 10
57.538638
 20
198.079644
 30
0.0
  0
SEQEND
  5
34B
100
AcDbEntity
  8
0
390
0
  0
LINE
  5
34C
100
AcDbEntity
  8
1
390
0
  6
Continuous
 62
     7
100
AcDbLine
 10
50.559382
 20
198.03098
 30
0.0
 11
50.559382
 21
200.03098
 31
0.0
  0
LINE
  5
34D
100
AcDbEntity
  8
1
390
0
  6
Continuous
 62
     7
100
AcDbLine
 10
50.559382
 20
191.53098
 30
0.0
 11
50.559382
 21
189.53098
 31
0.0
  0
LINE
  5
34E
100
AcDbEntity
  8
1
390
0
  6
Continuous
 62
     7
100
AcDbLine
 10
50.359382
 20
189.73098
 30
0.0
 11
50.359382
 21
191.33098
 31
0.0
  0
LINE
  5
34F
100
AcDbEntity
  8
1
390
0
  6
Continuous
 62
     7
100
AcDbLine
 10
50.359382
 20
199.83098
 30
0.0
 11
50.359382
 21
198.23098
 31
0.0
  0
ARC
  5
350
100
AcDbEntity
  8
1
390
0
  6
Continuous
 62
     7
100
AcDbCircle
 10
53.5381
 20
190.53098
 30
0.0
 40
4.112097
210
0.0
220
0.0
230
1.0
100
AcDbArc
 50
346.623394
 51
356.165434
  0
LINE
  5
351
100
AcDbEntity
  8
1
390
0
  6
Continuous
 62
     7
100
AcDbLine
 10
57.538638
 20
190.25598
 30
0.0
 11
57.640991
 21
190.25598
 31
0.0
  0
ARC
  5
352
100
AcDbEntity
  8
1
390
0
  6
Continuous
 62
     7
100
AcDbCircle
 10
53.5381
 20
199.03098
 30
0.0
 40
4.112097
210
0.0
220
0.0
230
1.0
100
AcDbArc
 50
346.623394
 51
356.165434
  0
LINE
  5
353
100
AcDbEntity
  8
1
390
0
  6
Continuous
 62
     7
100
AcDbLine
 10
57.640991
 20
198.75598
 30
0.0
 11
57.538638
 21
198.75598
 31
0.0
  0
ARC
  5
354
100
AcDbEntity
  8
1
390
0
  6
Continuous
 62
     7
100
AcDbCircle
 10
53.5381
 20
190.53098
 30
0.0
 40
4.112097
210
0.0
220
0.0
230
1.0
100
AcDbArc
 50
3.834566
 51
13.376606
  0
LINE
  5
355
100
AcDbEntity
  8
1
390
0
  6
Continuous
 62
     7
100
AcDbLine
 10
57.640991
 20
190.80598
 30
0.0
 11
57.538638
 21
190.80598
 31
0.0
  0
ARC
  5
356
100
AcDbEntity
  8
1
390
0
  6
Continuous
 62
     7
100
AcDbCircle
 10
53.5381
 20
199.03098
 30
0.0
 40
4.112097
210
0.0
220
0.0
230
1.0
100
AcDbArc
 50
3.834566
 51
13.376606
  0
LINE
  5
357
100
AcDbEntity
  8
1
390
0
  6
Continuous
 62
     7
100
AcDbLine
 10
57.538638
 20
199.30598
 30
0.0
 11
57.640991
 21
199.30598
 31
0.0
  0
LINE
  5
358
100
AcDbEntity
  8
1
390
0
  6
DOT
 62
     9
100
AcDbLine
 10
56.959382
 20
200.13098
 30
0.0
 11
56.959382
 21
199.30598
 31
0.0
  0
LINE
  5
359
100
AcDbEntity
  8
1
390
0
  6
DOT
 62
     9
100
AcDbLine
 10
56.959382
 20
189.43098
 30
0.0
 11
56.959382
 21
190.25598
 31
0.0
  0
LINE
  5
35A
100
AcDbEntity
  8
1
390
0
  6
DOT
 62
     9
100
AcDbLine
 10
56.959382
 20
189.43098
 30
0.0
 11
57.491329
 21
189.43098
 31
0.0
  0
LINE
  5
35B
100
AcDbEntity
  8
1
390
0
  6
DOT
 62
     9
100
AcDbLine
 10
56.959382
 20
190.80598
 30
0.0
 11
56.959382
 21
191.63098
 31
0.0
  0
LINE
  5
35C
100
AcDbEntity
  8
1
390
0
  6
DOT
 62
     9
100
AcDbLine
 10
56.959382
 20
200.13098
 30
0.0
 11
57.491329
 21
200.13098
 31
0.0
  0
LINE
  5
35D
100
AcDbEntity
  8
1
390
0
  6
DOT
 62
     9
100
AcDbLine
 10
56.959382
 20
197.93098
 30
0.0
 11
57.491329
 21
197.93098
 31
0.0
  0
LINE
  5
35E
100
AcDbEntity
  8
1
390
0
  6
DOT
 62
     9
100
AcDbLine
 10
56.959382
 20
198.75598
 30
0.0
 11
56.959382
 21
197.93098
 31
0.0
  0
LINE
  5
35F
100
AcDbEntity
  8
1
390
0
  6
DOT
 62
     9
100
AcDbLine
 10
56.959382
 20
191.63098
 30
0.0
 11
57.491329
 21
191.63098
 31
0.0
  0
LINE
  5
360
100
AcDbEntity
  8
1
390
0
  6
Continuous
 62
     7
100
AcDbLine
 10
50.109382
 20
188.28098
 30
0.0
 11
51.859382
 21
188.28098
 31
0.0
  0
LINE
  5
361
100
AcDbEntity
  8
1
390
0
  6
Continuous
 62
     7
100
AcDbLine
 10
50.109382
 20
201.28098
 30
0.0
 11
51.859382
 21
201.28098
 31
0.0
  0
LINE
  5
362
100
AcDbEntity
  8
1
390
0
  6
Continuous
 62
     7
100
AcDbLine
 10
49.109382
 20
188.28098
 30
0.0
 11
49.109382
 21
201.28098
 31
0.0
  0
LINE
  5
363
100
AcDbEntity
  8
1
390
0
  6
Continuous
 62
     7
100
AcDbLine
 10
50.109382
 20
188.28098
 30
0.0
 11
49.109382
 21
188.28098
 31
0.0
  0
LINE
  5
364
100
AcDbEntity
  8
1
390
0
  6
Continuous
 62
     7
100
AcDbLine
 10
49.109382
 20
201.28098
 30
0.0
 11
50.109382
 21
201.28098
 31
0.0
  0
LINE
  5
365
100
AcDbEntity
  8
1
390
0
  6
DOT
 62
     9
100
AcDbLine
 10
50.109382
 20
188.28098
 30
0.0
 11
50.109382
 21
201.28098
 31
0.0
  0
LINE
  5
366
100
AcDbEntity
  8
1
390
0
  6
Continuous
 62
     7
100
AcDbLine
 10
58.109382
 20
202.58098
 30
0.0
 11
58.109382
 21
201.78098
 31
0.0
  0
ARC
  5
367
100
AcDbEntity
  8
1
390
0
  6
Continuous
 62
     7
100
AcDbCircle
 10
57.909382
 20
202.58098
 30
0.0
 40
0.2
210
0.0
220
0.0
230
1.0
100
AcDbArc
 50
0.0
 51
90.0
  0
LINE
  5
368
100
AcDbEntity
  8
1
390
0
  6
Continuous
 62
     7
100
AcDbLine
 10
58.109382
 20
187.78098
 30
0.0
 11
58.109382
 21
186.98098
 31
0.0
  0
ARC
  5
369
100
AcDbEntity
  8
1
390
0
  6
Continuous
 62
     7
100
AcDbCircle
 10
57.909382
 20
186.98098
 30
0.0
 40
0.2
210
0.0
220
0.0
230
1.0
100
AcDbArc
 50
270.0
 51
360.0
  0
LINE
  5
36A
100
AcDbEntity
  8
1
390
0
  6
Continuous
 62
     7
100
AcDbLine
 10
58.109382
 20
201.78098
 30
0.0
 11
58.109382
 21
187.78098
 31
0.0
  0
LINE
  5
36B
100
AcDbEntity
  8
1
390
0
  6
Continuous
 62
     7
100
AcDbLine
 10
50.309382
 20
202.78098
 30
0.0
 11
57.909382
 21
202.78098
 31
0.0
  0
LINE
  5
36C
100
AcDbEntity
  8
1
390
0
  6
Continuous
 62
     7
100
AcDbLine
 10
50.109382
 20
187.78098
 30
0.0
 11
50.109382
 21
188.28098
 31
0.0
  0
LINE
  5
36D
100
AcDbEntity
  8
1
390
0
  6
Continuous
 62
     7
100
AcDbLine
 10
50.109382
 20
201.28098
 30
0.0
 11
50.109382
 21
201.78098
 31
0.0
  0
LINE
  5
36E
100
AcDbEntity
  8
1
390
0
  6
Continuous
 62
     7
100
AcDbLine
 10
50.309382
 20
186.78098
 30
0.0
 11
57.909382
 21
186.78098
 31
0.0
  0
LINE
  5
36F
100
AcDbEntity
  8
1
390
0
  6
Continuous
 62
     7
100
AcDbLine
 10
50.109382
 20
186.98098
 30
0.0
 11
50.109382
 21
187.78098
 31
0.0
  0
ARC
  5
370
100
AcDbEntity
  8
1
390
0
  6
Continuous
 62
     7
100
AcDbCircle
 10
50.309382
 20
186.98098
 30
0.0
 40
0.2
210
0.0
220
0.0
230
1.0
100
AcDbArc
 50
180.0
 51
270.0
  0
LINE
  5
371
100
AcDbEntity
  8
1
390
0
  6
Continuous
 62
     7
100
AcDbLine
 10
50.109382
 20
201.78098
 30
0.0
 11
50.109382
 21
202.58098
 31
0.0
  0
ARC
  5
372
100
AcDbEntity
  8
1
390
0
  6
Continuous
 62
     7
100
AcDbCircle
 10
50.309382
 20
202.58098
 30
0.0
 40
0.2
210
0.0
220
0.0
230
1.0
100
AcDbArc
 50
90.0
 51
180.0
  0
LINE
  5
373
100
AcDbEntity
  8
1
390
0
  6
Continuous
 62
     7
100
AcDbLine
 10
54.109382
 20
186.78098
 30
0.0
 11
54.109382
 21
185.78098
 31
0.0
  0
LINE
  5
374
100
AcDbEntity
  8
1
390
0
  6
Continuous
 62
     7
100
AcDbLine
 10
54.109382
 20
185.78098
 30
0.0
 11
53.909382
 21
185.78098
 31
0.0
  0
LINE
  5
375
100
AcDbEntity
  8
1
390
0
  6
Continuous
 62
     7
100
AcDbLine
 10
50.109382
 20
203.78098
 30
0.0
 11
53.909382
 21
203.78098
 31
0.0
  0
LINE
  5
376
100
AcDbEntity
  8
1
390
0
  6
Continuous
 62
     7
100
AcDbLine
 10
50.109382
 20
202.78098
 30
0.0
 11
50.309382
 21
202.78098
 31
0.0
  0
LINE
  5
377
100
AcDbEntity
  8
1
390
0
  6
Continuous
 62
     7
100
AcDbLine
 10
50.109382
 20
202.58098
 30
0.0
 11
50.109382
 21
202.78098
 31
0.0
  0
ARC
  5
378
100
AcDbEntity
  8
1
390
0
  6
Continuous
 62
     7
100
AcDbCircle
 10
50.109382
 20
202.78098
 30
0.0
 40
1.0
210
0.0
220
0.0
230
1.0
100
AcDbArc
 50
90.0
 51
180.0
  0
LINE
  5
379
100
AcDbEntity
  8
1
390
0
  6
Continuous
 62
     7
100
AcDbLine
 10
49.109382
 20
201.28098
 30
0.0
 11
49.109382
 21
202.78098
 31
0.0
  0
LINE
  5
37A
100
AcDbEntity
  8
1
390
0
  6
Continuous
 62
     7
100
AcDbLine
 10
50.109382
 20
186.78098
 30
0.0
 11
50.109382
 21
186.98098
 31
0.0
  0
LINE
  5
37B
100
AcDbEntity
  8
1
390
0
  6
Continuous
 62
     7
100
AcDbLine
 10
50.109382
 20
186.78098
 30
0.0
 11
50.309382
 21
186.78098
 31
0.0
  0
ARC
  5
37C
100
AcDbEntity
  8
1
390
0
  6
Continuous
 62
     7
100
AcDbCircle
 10
50.109382
 20
186.78098
 30
0.0
 40
1.0
210
0.0
220
0.0
230
1.0
100
AcDbArc
 50
180.0
 51
270.0
  0
LINE
  5
37D
100
AcDbEntity
  8
1
390
0
  6
Continuous
 62
     7
100
AcDbLine
 10
50.109382
 20
185.78098
 30
0.0
 11
53.909382
 21
185.78098
 31
0.0
  0
LINE
  5
37E
100
AcDbEntity
  8
1
390
0
  6
Continuous
 62
     7
100
AcDbLine
 10
49.109382
 20
186.78098
 30
0.0
 11
49.109382
 21
188.28098
 31
0.0
  0
LINE
  5
37F
100
AcDbEntity
  8
1
390
0
  6
Continuous
 62
     7
100
AcDbLine
 10
53.909382
 20
203.78098
 30
0.0
 11
54.109382
 21
203.78098
 31
0.0
  0
LINE
  5
380
100
AcDbEntity
  8
1
390
0
  6
Continuous
 62
     7
100
AcDbLine
 10
54.109382
 20
203.78098
 30
0.0
 11
54.109382
 21
202.78098
 31
0.0
  0
LINE
  5
381
100
AcDbEntity
  8
1
390
0
  6
DOT
 62
     9
100
AcDbLine
 10
53.709382
 20
197.78098
 30
0.0
 11
54.509382
 21
197.78098
 31
0.0
  0
LINE
  5
382
100
AcDbEntity
  8
1
390
0
  6
DOT
 62
     9
100
AcDbLine
 10
53.709382
 20
200.78098
 30
0.0
 11
54.509382
 21
200.78098
 31
0.0
  0
LINE
  5
383
100
AcDbEntity
  8
1
390
0
  6
DOT
 62
     9
100
AcDbLine
 10
54.509382
 20
197.78098
 30
0.0
 11
54.509382
 21
200.78098
 31
0.0
  0
LINE
  5
384
100
AcDbEntity
  8
1
390
0
  6
DOT
 62
     9
100
AcDbLine
 10
53.709382
 20
197.78098
 30
0.0
 11
53.709382
 21
200.78098
 31
0.0
  0
LINE
  5
385
100
AcDbEntity
  8
1
390
0
  6
DOT
 62
     9
100
AcDbLine
 10
54.509382
 20
189.53098
 30
0.0
 11
54.509382
 21
191.78098
 31
0.0
  0
LINE
  5
386
100
AcDbEntity
  8
1
390
0
  6
DOT
 62
     9
100
AcDbLine
 10
54.509382
 20
191.78098
 30
0.0
 11
53.709382
 21
191.78098
 31
0.0
  0
LINE
  5
387
100
AcDbEntity
  8
1
390
0
  6
DOT
 62
     9
100
AcDbLine
 10
53.709382
 20
189.53098
 30
0.0
 11
53.709382
 21
191.78098
 31
0.0
  0
ARC
  5
388
100
AcDbEntity
  8
1
390
0
  6
Continuous
 62
     7
100
AcDbCircle
 10
56.567935
 20
191.28098
 30
0.0
 40
1.0
210
0.0
220
0.0
230
1.0
100
AcDbArc
 50
20.487985
 51
90.0
  0
ARC
  5
389
100
AcDbEntity
  8
1
390
0
  6
Continuous
 62
     7
100
AcDbCircle
 10
56.567935
 20
189.78098
 30
0.0
 40
1.0
210
0.0
220
0.0
230
1.0
100
AcDbArc
 50
270.0
 51
339.512015
  0
ARC
  5
38A
100
AcDbEntity
  8
1
390
0
  6
Continuous
 62
     7
100
AcDbCircle
 10
56.567935
 20
199.78098
 30
0.0
 40
1.0
210
0.0
220
0.0
230
1.0
100
AcDbArc
 50
20.487985
 51
90.0
  0
ARC
  5
38B
100
AcDbEntity
  8
1
390
0
  6
Continuous
 62
     7
100
AcDbCircle
 10
56.567935
 20
198.28098
 30
0.0
 40
1.0
210
0.0
220
0.0
230
1.0
100
AcDbArc
 50
270.0
 51
339.512015
  0
LINE
  5
38C
100
AcDbEntity
  8
1
390
0
  6
Continuous
 62
     7
100
AcDbLine
 10
56.567935
 20
192.28098
 30
0.0
 11
56.558872
 21
192.28098
 31
0.0
  0
LINE
  5
38D
100
AcDbEntity
  8
1
390
0
  6
DOT
 62
     9
100
AcDbLine
 10
56.558872
 20
192.28098
 30
0.0
 11
56.359382
 21
192.28098
 31
0.0
  0
LINE
  5
38E
100
AcDbEntity
  8
1
390
0
  6
Continuous
 62
     7
100
AcDbLine
 10
56.359382
 20
188.78098
 30
0.0
 11
56.567935
 21
188.78098
 31
0.0
  0
LINE
  5
38F
100
AcDbEntity
  8
1
390
0
  6
Continuous
 62
     7
100
AcDbLine
 10
56.567935
 20
200.78098
 30
0.0
 11
56.359382
 21
200.78098
 31
0.0
  0
LINE
  5
390
100
AcDbEntity
  8
1
390
0
  6
DOT
 62
     9
100
AcDbLine
 10
56.359382
 20
197.28098
 30
0.0
 11
56.558872
 21
197.28098
 31
0.0
  0
LINE
  5
391
100
AcDbEntity
  8
1
390
0
  6
Continuous
 62
     7
100
AcDbLine
 10
56.558872
 20
197.28098
 30
0.0
 11
56.567935
 21
197.28098
 31
0.0
  0
LINE
  5
392
100
AcDbEntity
  8
1
390
0
  6
DOT
 62
     9
100
AcDbLine
 10
55.359382
 20
191.53098
 30
0.0
 11
52.859382
 21
191.53098
 31
0.0
  0
LINE
  5
393
100
AcDbEntity
  8
1
390
0
  6
Continuous
 62
     7
100
AcDbLine
 10
52.859382
 20
189.53098
 30
0.0
 11
55.359382
 21
189.53098
 31
0.0
  0
LINE
  5
394
100
AcDbEntity
  8
1
390
0
  6
Continuous
 62
     7
100
AcDbLine
 10
51.859382
 20
200.03098
 30
0.0
 11
50.559382
 21
200.03098
 31
0.0
  0
LINE
  5
395
100
AcDbEntity
  8
1
390
0
  6
Continuous
 62
     7
100
AcDbLine
 10
50.559382
 20
198.03098
 30
0.0
 11
51.859382
 21
198.03098
 31
0.0
  0
LINE
  5
396
100
AcDbEntity
  8
1
390
0
  6
Continuous
 62
     7
100
AcDbLine
 10
51.859382
 20
191.53098
 30
0.0
 11
50.559382
 21
191.53098
 31
0.0
  0
LINE
  5
397
100
AcDbEntity
  8
1
390
0
  6
Continuous
 62
     7
100
AcDbLine
 10
50.559382
 20
189.53098
 30
0.0
 11
51.859382
 21
189.53098
 31
0.0
  0
LINE
  5
398
100
AcDbEntity
  8
1
390
0
  6
Continuous
 62
     7
100
AcDbLine
 10
50.559382
 20
191.53098
 30
0.0
 11
50.359382
 21
191.33098
 31
0.0
  0
LINE
  5
399
100
AcDbEntity
  8
1
390
0
  6
Continuous
 62
     7
100
AcDbLine
 10
50.359382
 20
189.73098
 30
0.0
 11
50.559382
 21
189.53098
 31
0.0
  0
LINE
  5
39A
100
AcDbEntity
  8
1
390
0
  6
Continuous
 62
     7
100
AcDbLine
 10
55.359382
 20
200.03098
 30
0.0
 11
52.859382
 21
200.03098
 31
0.0
  0
LINE
  5
39B
100
AcDbEntity
  8
1
390
0
  6
DOT
 62
     9
100
AcDbLine
 10
52.859382
 20
198.03098
 30
0.0
 11
55.359382
 21
198.03098
 31
0.0
  0
LINE
  5
39C
100
AcDbEntity
  8
1
390
0
  6
Continuous
 62
     7
100
AcDbLine
 10
50.559382
 20
200.03098
 30
0.0
 11
50.359382
 21
199.83098
 31
0.0
  0
LINE
  5
39D
100
AcDbEntity
  8
1
390
0
  6
Continuous
 62
     7
100
AcDbLine
 10
50.359382
 20
198.23098
 30
0.0
 11
50.559382
 21
198.03098
 31
0.0
  0
ARC
  5
39E
100
AcDbEntity
  8
1
390
0
  6
DOT
 62
     9
100
AcDbCircle
 10
50.309382
 20
201.950843
 30
0.0
 40
0.2
210
0.0
220
0.0
230
1.0
100
AcDbArc
 50
90.0
 51
180.0
  0
ARC
  5
39F
100
AcDbEntity
  8
1
390
0
  6
DOT
 62
     9
100
AcDbCircle
 10
57.909382
 20
201.950843
 30
0.0
 40
0.2
210
0.0
220
0.0
230
1.0
100
AcDbArc
 50
0.0
 51
90.0
  0
ARC
  5
3A0
100
AcDbEntity
  8
1
390
0
  6
DOT
 62
     9
100
AcDbCircle
 10
57.909382
 20
187.611117
 30
0.0
 40
0.2
210
0.0
220
0.0
230
1.0
100
AcDbArc
 50
270.0
 51
360.0
  0
ARC
  5
3A1
100
AcDbEntity
  8
1
390
0
  6
DOT
 62
     9
100
AcDbCircle
 10
50.309382
 20
187.611117
 30
0.0
 40
0.2
210
0.0
220
0.0
230
1.0
100
AcDbArc
 50
180.0
 51
270.0
  0
LINE
  5
3A2
100
AcDbEntity
  8
1
390
0
  6
DOT
 62
     9
100
AcDbLine
 10
50.309382
 20
202.150843
 30
0.0
 11
57.909382
 21
202.150843
 31
0.0
  0
LINE
  5
3A3
100
AcDbEntity
  8
1
390
0
  6
DOT
 62
     9
100
AcDbLine
 10
57.909382
 20
187.411117
 30
0.0
 11
50.309382
 21
187.411117
 31
0.0
  0
ARC
  5
3A4
100
AcDbEntity
  8
1
390
0
  6
DOT
 62
     9
100
AcDbCircle
 10
50.309382
 20
201.951312
 30
0.0
 40
0.2
210
0.0
220
0.0
230
1.0
100
AcDbArc
 50
90.0
 51
180.0
  0
ARC
  5
3A5
100
AcDbEntity
  8
1
390
0
  6
DOT
 62
     9
100
AcDbCircle
 10
57.909382
 20
201.951312
 30
0.0
 40
0.2
210
0.0
220
0.0
230
1.0
100
AcDbArc
 50
0.0
 51
90.0
  0
ARC
  5
3A6
100
AcDbEntity
  8
1
390
0
  6
DOT
 62
     9
100
AcDbCircle
 10
57.909382
 20
187.610649
 30
0.0
 40
0.2
210
0.0
220
0.0
230
1.0
100
AcDbArc
 50
270.0
 51
360.0
  0
ARC
  5
3A7
100
AcDbEntity
  8
1
390
0
  6
DOT
 62
     9
100
AcDbCircle
 10
50.309382
 20
187.610649
 30
0.0
 40
0.2
210
0.0
220
0.0
230
1.0
100
AcDbArc
 50
180.0
 51
270.0
  0
LINE
  5
3A8
100
AcDbEntity
  8
1
390
0
  6
DOT
 62
     9
100
AcDbLine
 10
50.309382
 20
202.151312
 30
0.0
 11
57.909382
 21
202.151312
 31
0.0
  0
LINE
  5
3A9
100
AcDbEntity
  8
1
390
0
  6
DOT
 62
     9
100
AcDbLine
 10
57.909382
 20
187.410649
 30
0.0
 11
50.309382
 21
187.410649
 31
0.0
  0
INSERT
  5
3B9
100
AcDbEntity
  8
1
390
0
100
AcDbBlockReference
  2
AID1329
 10
0.0
 20
0.0
 30
0.0
  0
INSERT
  5
3C7
100
AcDbEntity
  8
1
390
0
100
AcDbBlockReference
  2
AID1346
 10
0.0
 20
0.0
 30
0.0
  0
INSERT
  5
3D9
100
AcDbEntity
  8
1
390
0
100
AcDbBlockReference
  2
AID1359
 10
0.0
 20
0.0
 30
0.0
  0
INSERT
  5
3EC
100
AcDbEntity
  8
1
390
0
100
AcDbBlockReference
  2
AID1372
 10
0.0
 20
0.0
 30
0.0
  0
INSERT
  5
3FD
100
AcDbEntity
  8
1
390
0
100
AcDbBlockReference
  2
AID1387
 10
0.0
 20
0.0
 30
0.0
  0
INSERT
  5
40F
100
AcDbEntity
  8
1
390
0
100
AcDbBlockReference
  2
AID1398
 10
0.0
 20
0.0
 30
0.0
  0
POINT
  5
410
100
AcDbEntity
  8
1
390
0
 62
     9
100
AcDbPoint
 10
279.287361
 20
190.65598
 30
0.0
  0
INSERT
  5
424
100
AcDbEntity
  8
1
390
0
100
AcDbBlockReference
  2
AID1413
 10
0.0
 20
0.0
 30
0.0
  0
INSERT
  5
436
100
AcDbEntity
  8
1
390
0
100
AcDbBlockReference
  2
AID1430
 10
0.0
 20
0.0
 30
0.0
  0
INSERT
  5
448
100
AcDbEntity
  8
1
390
0
100
AcDbBlockReference
  2
AID1443
 10
0.0
 20
0.0
 30
0.0
  0
INSERT
  5
45A
100
AcDbEntity
  8
1
390
0
100
AcDbBlockReference
  2
AID1456
 10
0.0
 20
0.0
 30
0.0
  0
INSERT
  5
46C
100
AcDbEntity
  8
1
390
0
100
AcDbBlockReference
  2
AID1469
 10
0.0
 20
0.0
 30
0.0
  0
INSERT
  5
47E
100
AcDbEntity
  8
1
390
0
100
AcDbBlockReference
  2
AID1482
 10
0.0
 20
0.0
 30
0.0
  0
INSERT
  5
490
100
AcDbEntity
  8
1
390
0
100
AcDbBlockReference
  2
AID1495
 10
0.0
 20
0.0
 30
0.0
  0
LINE
  5
491
100
AcDbEntity
  8
1
390
0
  6
CENTER
 62
     1
100
AcDbLine
 10
49.609382
 20
194.78098
 30
0.0
 11
58.609382
 21
194.78098
 31
0.0
  0
LINE
  5
492
100
AcDbEntity
  8
1
390
0
  6
CENTER
 62
     1
100
AcDbLine
 10
54.109382
 20
190.28098
 30
0.0
 11
54.109382
 21
199.28098
 31
0.0
  0
INSERT
  5
497
100
AcDbEntity
  8
1
390
0
100
AcDbBlockReference
  2
AID1512
 10
0.0
 20
0.0
 30
0.0
  0
INSERT
  5
49C
100
AcDbEntity
  8
1
390
0
100
AcDbBlockReference
  2
AID1515
 10
0.0
 20
0.0
 30
0.0
  0
INSERT
  5
4A1
100
AcDbEntity
  8
1
390
0
100
AcDbBlockReference
  2
AID1518
 10
0.0
 20
0.0
 30
0.0
  0
INSERT
  5
4AD
100
AcDbEntity
  8
1
390
0
100
AcDbBlockReference
  2
AID1521
 10
0.0
 20
0.0
 30
0.0
  0
ENDSEC
  0
SECTION
  2
OBJECTS
  0
DICTIONARY
  5
19
100
AcDbDictionary
280
     0
281
     1
  3
ACAD_GROUP
350
1A
  3
ACAD_MLINESTYLE
350
1B
  3
ACAD_LAYOUT
350
1E
  3
ACAD_PLOTSETTINGS
350
22
  3
ACAD_PLOTSTYLENAME
350
1F
  3
ACAD_WIPEOUT_VARS
350
23
  0
DICTIONARY
  5
1A
102
{ACAD_REACTORS
330
19
102
}
100
AcDbDictionary
280
     0
281
     1
  0
DICTIONARY
  5
1B
102
{ACAD_REACTORS
330
19
102
}
100
AcDbDictionary
280
     0
281
     1
  3
Standard
350
1C
  0
MLINESTYLE
  5
1C
102
{ACAD_REACTORS
330
1B
102
}
100
AcDbMlineStyle
  2
Standard
 70
     0
  3

 62
     0
 51
90.0
 52
90.0
 71
     2
 49
0.5
 62
   256
  6
ByLayer
 49
-0.5
 62
   256
  6
ByLayer
  0
ACDBDICTIONARYWDFLT
  5
1F
102
{ACAD_REACTORS
330
19
102
}
100
AcDbDictionary
281
     1
  3
Normal
350
1D
100
AcDbDictionaryWithDefault
340
1D
  0
ACDBPLACEHOLDER
  5
1D
102
{ACAD_REACTORS
330
1F
102
}
  0
LAYOUT
  5
20
102
{ACAD_REACTORS
330
1E
102
}
100
AcDbPlotSettings
  1

  2

  4

  6

 40
0.0
 41
0.0
 42
0.0
 43
0.0
 44
0.0
 45
0.0
 46
0.0
 47
0.0
 48
0.0
 49
0.0
140
0.0
141
0.0
142
1.0
143
1.0
 70
  1024
 72
     0
 73
     0
 74
     0
  7

 75
     0
147
1.0
148
0.0
149
0.0
100
AcDbLayout
  1
Model
 70
     0
 71
     0
 10
0.0
 20
0.0
 11
0.0
 21
0.0
 12
0.0
 22
0.0
 32
0.0
 14
0.0
 24
0.0
 34
0.0
 15
0.0
 25
0.0
 35
0.0
146
0.0
 13
0.0
 23
0.0
 33
0.0
 16
0.0
 26
0.0
 36
0.0
 17
0.0
 27
0.0
 37
0.0
 76
     0
330
A
331
0
345
0
346
0
  0
LAYOUT
  5
21
102
{ACAD_REACTORS
330
1E
102
}
100
AcDbPlotSettings
  1

  2

  4

  6

 40
0.0
 41
0.0
 42
0.0
 43
0.0
 44
0.0
 45
0.0
 46
0.0
 47
0.0
 48
0.0
 49
0.0
140
0.0
141
0.0
142
1.0
143
1.0
 70
     0
 72
     0
 73
     0
 74
     0
  7

 75
     0
147
1.0
148
0.0
149
0.0
100
AcDbLayout
  1
Layout1
 70
     0
 71
     0
 10
0.0
 20
0.0
 11
0.0
 21
0.0
 12
0.0
 22
0.0
 32
0.0
 14
0.0
 24
0.0
 34
0.0
 15
0.0
 25
0.0
 35
0.0
146
0.0
 13
0.0
 23
0.0
 33
0.0
 16
0.0
 26
0.0
 36
0.0
 17
0.0
 27
0.0
 37
0.0
 76
     0
330
B
331
0
345
0
346
0
  0
DICTIONARY
  5
1E
102
{ACAD_REACTORS
330
19
102
}
100
AcDbDictionary
280
     0
281
     1
  3
Layout1
350
21
  3
Model
350
20
  0
DICTIONARY
  5
22
102
{ACAD_REACTORS
330
19
102
}
100
AcDbDictionary
280
     0
281
     1
  0
WIPEOUTVARIABLES
  5
23
100
AcDbWipeoutVariables
 70
     1
  0
ENDSEC
  0
EOF
