  0
SECTION
  2
HEADER
  9
$ACADVER
  1
AC1012
  9
$DWGCODEPAGE
  3
dos932
  9
$INSBASE
 10
0.0
 20
0.0
 30
0.0
  9
$EXTMIN
 10
0.0
 20
0.0
 30
0.0
  9
$EXTMAX
 10
410.0
 20
287.0
 30
0.0
  9
$LIMMIN
 10
0.0
 20
0.0
  9
$LIMMAX
 10
410.0
 20
287.0
  9
$ORTHOMODE
 70
           0
  9
$REGENMODE
 70
           1
  9
$FILLMODE
 70
           1
  9
$QTEXTMODE
 70
           0
  9
$MIRRTEXT
 70
           1
  9
$DRAGMODE
 70
           2
  9
$LTSCALE
 40
1.0
  9
$OSMODE
 70
           0
  9
$ATTMODE
 70
           1
  9
$TEXTSIZE
 40
0.2
  9
$TRACEWID
 40
0.05
  9
$TEXTSTYLE
  7
STANDARD
  9
$CLAYER
  8
0
  9
$CELTYPE
  6
CONTINUOUS
  9
$CECOLOR
 62
         256
  9
$CELTSCALE
 40
1.0
  9
$DELOBJ
 70
           1
  9
$DISPSILH
 70
           0
  9
$DIMSCALE
 40
1.0
  9
$DIMASZ
 40
0.18
  9
$DIMEXO
 40
0.0625
  9
$DIMDLI
 40
0.38
  9
$DIMRND
 40
0.0
  9
$DIMDLE
 40
0.0
  9
$DIMEXE
 40
0.18
  9
$DIMTP
 40
0.0
  9
$DIMTM
 40
0.0
  9
$DIMTXT
 40
0.18
  9
$DIMCEN
 40
0.09
  9
$DIMTSZ
 40
0.0
  9
$DIMTOL
 70
           0
  9
$DIMLIM
 70
           0
  9
$DIMTIH
 70
           1
  9
$DIMTOH
 70
           1
  9
$DIMSE1
 70
           0
  9
$DIMSE2
 70
           0
  9
$DIMTAD
 70
           0
  9
$DIMZIN
 70
           0
  9
$DIMBLK
  1

  9
$DIMASO
 70
           1
  9
$DIMSHO
 70
           1
  9
$DIMPOST
  1

  9
$DIMAPOST
  1

  9
$DIMALT
 70
           0
  9
$DIMALTD
 70
           2
  9
$DIMALTF
 40
25.4
  9
$DIMLFAC
 40
1.0
  9
$DIMTOFL
 70
           0
  9
$DIMTVP
 40
0.0
  9
$DIMTIX
 70
           0
  9
$DIMSOXD
 70
           0
  9
$DIMSAH
 70
           0
  9
$DIMBLK1
  1

  9
$DIMBLK2
  1

  9
$DIMSTYLE
  2
STANDARD
  9
$DIMCLRD
 70
           0
  9
$DIMCLRE
 70
           0
  9
$DIMCLRT
 70
           0
  9
$DIMTFAC
 40
1.0
  9
$DIMGAP
 40
0.09
  9
$DIMJUST
 70
           0
  9
$DIMSD1
 70
           0
  9
$DIMSD2
 70
           0
  9
$DIMTOLJ
 70
           1
  9
$DIMTZIN
 70
           0
  9
$DIMALTZ
 70
           0
  9
$DIMALTTZ
 70
           0
  9
$DIMFIT
 70
           3
  9
$DIMUPT
 70
           0
  9
$DIMUNIT
 70
           2
  9
$DIMDEC
 70
           4
  9
$DIMTDEC
 70
           4
  9
$DIMALTU
 70
           2
  9
$DIMALTTD
 70
           2
  9
$DIMTXSTY
  7
STANDARD
  9
$DIMAUNIT
 70
           0
  9
$LUNITS
 70
           2
  9
$LUPREC
 70
           4
  9
$SKETCHINC
 40
0.1
  9
$FILLETRAD
 40
0.0
  9
$AUNITS
 70
           0
  9
$AUPREC
 70
           0
  9
$MENU
  1
acad
  9
$ELEVATION
 40
0.0
  9
$PELEVATION
 40
0.0
  9
$THICKNESS
 40
0.0
  9
$LIMCHECK
 70
           0
  9
$BLIPMODE
 70
           1
  9
$CHAMFERA
 40
0.0
  9
$CHAMFERB
 40
0.0
  9
$CHAMFERC
 40
0.0
  9
$CHAMFERD
 40
0.0
  9
$SKPOLY
 70
           0
  9
$TDCREATE
 40
0.000000000
  9
$TDUPDATE
 40
0.000000000
  9
$TDINDWG
 40
0.0000000000
  9
$TDUSRTIMER
 40
0.0000000000
  9
$USRTIMER
 70
           1
  9
$ANGBASE
 50
0.0
  9
$ANGDIR
 70
           0
  9
$PDMODE
 70
           0
  9
$PDSIZE
 40
0.0
  9
$PLINEWID
 40
0.0
  9
$COORDS
 70
           0
  9
$SPLFRAME
 70
           0
  9
$SPLINETYPE
 70
           6
  9
$SPLINESEGS
 70
           8
  9
$ATTDIA
 70
           0
  9
$ATTREQ
 70
           1
  9
$HANDLING
 70
           1
  9
$HANDSEED
  5
533
  9
$SURFTAB1
 70
           6
  9
$SURFTAB2
 70
           6
  9
$SURFTYPE
 70
           6
  9
$SURFU
 70
           6
  9
$SURFV
 70
           6
  9
$UCSNAME
  2

  9
$UCSORG
 10
0.0
 20
0.0
 30
0.0
  9
$UCSXDIR
 10
1.0
 20
0.0
 30
0.0
  9
$UCSYDIR
 10
0.0
 20
1.0
 30
0.0
  9
$PUCSNAME
  2

  9
$PUCSORG
 10
0.0
 20
0.0
 30
0.0
  9
$PUCSXDIR
 10
1.0
 20
0.0
 30
0.0
  9
$PUCSYDIR
 10
0.0
 20
1.0
 30
0.0
  9
$USERI1
 70
           0
  9
$USERI2
 70
           0
  9
$USERI3
 70
           0
  9
$USERI4
 70
           0
  9
$USERI5
 70
           0
  9
$USERR1
 40
0.0
  9
$USERR2
 40
0.0
  9
$USERR3
 40
0.0
  9
$USERR4
 40
0.0
  9
$USERR5
 40
0.0
  9
$WORLDVIEW
 70
           1
  9
$SHADEDGE
 70
           3
  9
$SHADEDIF
 70
          70
  9
$TILEMODE
 70
           1
  9
$MAXACTVP
 70
          16
  9
$PINSBASE
 10
0.0
 20
0.0
 30
0.0
  9
$PLIMCHECK
 70
           0
  9
$PEXTMIN
 10
1.000000000000E+20
 20
1.000000000000E+20
 30
1.000000000000E+20
  9
$PEXTMAX
 10
-1.000000000000E+20
 20
-1.000000000000E+20
 30
-1.000000000000E+20
  9
$PLIMMIN
 10
0.0
 20
0.0
  9
$PLIMMAX
 10
12.0
 20
9.0
  9
$UNITMODE
 70
           0
  9
$VISRETAIN
 70
           0
  9
$PLINEGEN
 70
           1
  9
$PSLTSCALE
 70
           0
  9
$TREEDEPTH
 70
        3020
  9
$PICKSTYLE
 70
           1
  9
$CMLSTYLE
  2
STANDARD
  9
$CMLJUST
 70
           0
  9
$CMLSCALE
 40
1.0
  9
$SAVEIMAGES
 70
           0
  0
ENDSEC
  0
SECTION
  2
CLASSES
  0
CLASS
  1
LWPOLYLINE
  2
AcDbPolyline
  3
"AutoCAD"
 90
    32768
280
           0
281
           1
  0
CLASS
  1
IMAGE
  2
AcDbRasterImage
  3
ISM
 90
    32895
280
           0
281
           1
  0
CLASS
  1
OLE2FRAME
  2
AcDbOle2Frame
  3
""
 90
    32768
280
           0
281
           1
  0
CLASS
  1
HATCH
  2
AcDbHatch
  3
"ACAD_SEDONA"
 90
    32768
280
           0
281
           1
  0
CLASS
  1
DICTIONARYVAR
  2
AcDbDictionaryVar
  3
"AutoCAD"
 90
    32768
280
           0
281
           0
  0
CLASS
  1
RASTERVARIABLES
  2
AcDbRasterVariables
  3
ISM
 90
    32768
280
           0
281
           0
  0
CLASS
  1
IMAGEDEF
  2
AcDbRasterImageDef
  3
ISM
 90
    32768
280
           0
281
           0
  0
CLASS
  1
IMAGEDEF_REACTOR
  2
AcDbRasterImageDefReactor
  3
ISM
 90
    32769
280
           0
281
           0
  0
CLASS
  1
IDBUFFER
  2
AcDbIdBuffer
  3
"Acad"
 90
    32768
280
           0
281
           0
  0
CLASS
  1
SPATIAL_FILTER
  2
AcDbSpatialFilter
  3
"Acad"
 90
    32768
280
           0
281
           0
  0
CLASS
  1
XRECORD
  2
AcDbXrecord
  3
"<Built In>"
 90
    32768
280
           0
281
           0
  0
CLASS
  1
SORTENTSTABLE
  2
AcDbSortentsTable
  3
"AutoCAD"
 90
    32768
280
           0
281
           0
  0
CLASS
  1
LAYER_INDEX
  2
AcDbLayerIndex
  3
"Acad"
 90
    32768
280
           0
281
           0
  0
CLASS
  1
SPATIAL_INDEX
  2
AcDbSpatialIndex
  3
"Acad"
 90
    32768
280
           0
281
           0
  0
CLASS
  1
OBJECT_PTR
  2
CAseDLPNTableRecord
  3
"ASE-LPNTableRecord"
 90
    32769
280
           0
281
           0
  0
CLASS
  1
LAYOUT
  2
AcDbLayout
  3
"AutoCAD 2000"
 90
    32768
280
           0
281
           0
  0
CLASS
  1
PLOTSETTINGS
  2
AcDbPlotSettings
  3
"AutoCAD 2000"
 90
    32768
280
           0
281
           0
  0
CLASS
  1
ACDBDICTIONARYWDFLT
  2
AcDbDictionaryWithDefault
  3
"AutoCAD 2000"
 90
    32768
280
           0
281
           0
  0
CLASS
  1
ACDBPLACEHOLDER
  2
AcDbPlaceHolder
  3
"AutoCAD 2000"
 90
    32768
280
           0
281
           0
  0
CLASS
  1
VBA_PROJECT
  2
AcDbVbaProject
  3
"acadvba"
 90
    32768
280
           0
281
           0
  0
CLASS
  1
WIPEOUT
  2
AcDbWipeout
  3
WipeOut|AutoCAD Express Tool|expresstools@autodesk.com
 90
    32895
280
           0
281
           1
  0
CLASS
  1
WIPEOUTVARIABLES
  2
AcDbWipeoutVariables
  3
WipeOut|AutoCAD Express Tool|expresstools@autodesk.com
 90
    32768
280
           0
281
           0
  0
CLASS
  1
RTEXT
  2
RText
  3
RText|AutoCAD Express Tool|expresstools@autodesk.com
 90
    32768
280
           0
281
           1
  0
CLASS
  1
ARCALIGNEDTEXT
  2
AcDbArcAlignedText
  3
ATEXT|AutoCAD Express Tool|expresstools@autodesk.com
 90
    32768
280
           0
281
           1
  0
ENDSEC
  0
SECTION
  2
TABLES
  0
TABLE
  2
VPORT
  5
7
100
AcDbSymbolTable
 70
           1
  0
VPORT
  5
15
100
AcDbSymbolTableRecord
100
AcDbViewportTableRecord
  2
*ACTIVE
 70
           0
 10
0.0
 20
0.0
 11
1.0
 21
1.0
 12
205.0
 22
143.5
 13
0.0
 23
0.0
 14
1.0
 24
1.0
 15
0.0
 25
0.0
 16
0.0
 26
0.0
 36
1.0
 17
0.0
 27
0.0
 37
0.0
 40
287.0
 41
1.428571428571
 42
50.0
 43
0.0
 44
0.0
 50
0.0
 51
0.0
 71
           0
 72
         100
 73
           1
 74
           1
 75
           0
 76
           0
 77
           0
 78
           0
  0
ENDTAB
  0
TABLE
  2
LTYPE
  5
4
100
AcDbSymbolTable
 70
           8
  0
LTYPE
  5
11
100
AcDbSymbolTableRecord
100
AcDbLinetypeTableRecord
  2
BYBLOCK
 70
          64
  3

 72
          65
 73
           0
 40
0.0
  0
LTYPE
  5
12
100
AcDbSymbolTableRecord
100
AcDbLinetypeTableRecord
  2
BYLAYER
 70
          64
  3

 72
          65
 73
           0
 40
0.0
  0
LTYPE
  5
13
100
AcDbSymbolTableRecord
100
AcDbLinetypeTableRecord
  2
CONTINUOUS
 70
          64
  3
Solid line
 72
          65
 73
           0
 40
0.0
  0
LTYPE
  5
1D
100
AcDbSymbolTableRecord
100
AcDbLinetypeTableRecord
  2
DASHED
 70
          64
  3
__ __ __ __ __ __ __ __ __ __ __ __ __ __ __
 72
          65
 73
           2
 40
4.0
 49
3.0
 74
           0
 49
-1.0
 74
           0
  0
LTYPE
  5
1E
100
AcDbSymbolTableRecord
100
AcDbLinetypeTableRecord
  2
HIDDEN
 70
          64
  3
_ _ _ _ _ _ _ _ _ _ _ _ _ _ _ _ _ _ _ _ _ _ _
 72
          65
 73
           2
 40
2.25
 49
0.25
 74
           0
 49
-2.0
 74
           0
  0
LTYPE
  5
1F
100
AcDbSymbolTableRecord
100
AcDbLinetypeTableRecord
  2
DOT
 70
          64
  3
...............................................
 72
          65
 73
           2
 40
4.0
 49
1.0
 74
           0
 49
-3.0
 74
           0
  0
LTYPE
  5
20
100
AcDbSymbolTableRecord
100
AcDbLinetypeTableRecord
  2
DASHDOT
 70
          64
  3
__ . __ . __ . __ . __ . __ . __ . __ . __ . __
 72
          65
 73
           4
 40
7.5
 49
6.0
 74
           0
 49
-0.5
 74
           0
 49
0.5
 74
           0
 49
-0.5
 74
           0
  0
LTYPE
  5
21
100
AcDbSymbolTableRecord
100
AcDbLinetypeTableRecord
  2
DIVIDE
 70
          64
  3
__ . . __ . . __ . . __ . . __ . . __ . . __
 72
          65
 73
           6
 40
8.5
 49
6.0
 74
           0
 49
-0.5
 74
           0
 49
0.5
 74
           0
 49
-0.5
 74
           0
 49
0.5
 74
           0
 49
-0.5
 74
           0
  0
ENDTAB
  0
TABLE
  2
LAYER
  5
2
100
AcDbSymbolTable
 70
           4
  0
LAYER
  5
14
100
AcDbSymbolTableRecord
100
AcDbLayerTableRecord
  2
0
 70
           0
 62
           7
  6
CONTINUOUS
  0
LAYER
  5
22
100
AcDbSymbolTableRecord
100
AcDbLayerTableRecord
  2
256
 70
           0
 62
           7
  6
CONTINUOUS
  0
LAYER
  5
23
100
AcDbSymbolTableRecord
100
AcDbLayerTableRecord
  2
1
 70
           0
 62
           7
  6
CONTINUOUS
  0
LAYER
  5
24
100
AcDbSymbolTableRecord
100
AcDbLayerTableRecord
  2
5
 70
           0
 62
           7
  6
CONTINUOUS
  0
ENDTAB
  0
TABLE
  2
STYLE
  5
3
100
AcDbSymbolTable
 70
           3
  0
STYLE
  5
17
100
AcDbSymbolTableRecord
100
AcDbTextStyleTableRecord
  2
STANDARD
 70
           0
 40
0.0
 41
1.0
 50
0.0
 71
           0
 42
0.0
  3
txt
  4

  0
STYLE
  5
25
100
AcDbSymbolTableRecord
100
AcDbTextStyleTableRecord
  2
BIGFONT
 70
           0
 40
1.0
 41
1.0
 50
0.0
 71
           0
 42
0.0
  3
monotxt.shx
  4
bigfont
  0
STYLE
  5
26
100
AcDbSymbolTableRecord
100
AcDbTextStyleTableRecord
  2
ＭＳ_ゴシック
 70
           0
 40
0.0
 41
1.0
 50
0.0
 71
           0
 42
0.0
  3
MS Gothic.ttf
  4

1001
ACAD
1000
MS Gothic
1071
    32817
  0
ENDTAB
  0
TABLE
  2
VIEW
  5
5
100
AcDbSymbolTable
 70
           0
  0
ENDTAB
  0
TABLE
  2
UCS
  5
6
100
AcDbSymbolTable
 70
           0
  0
ENDTAB
  0
TABLE
  2
APPID
  5
8
100
AcDbSymbolTable
 70
           1
  0
APPID
  5
16
100
AcDbSymbolTableRecord
100
AcDbRegAppTableRecord
  2
ACAD
 70
           0
  0
ENDTAB
  0
TABLE
  2
DIMSTYLE
  5
9
100
AcDbSymbolTable
 70
           2
  0
DIMSTYLE
105
18
100
AcDbSymbolTableRecord
100
AcDbDimStyleTableRecord
  2
STANDARD
 70
           0
  3

  4

  5

  6

  7

 40
1.0
 41
0.18
 42
0.0625
 43
0.38
 44
0.18
 45
0.0
 46
0.0
 47
0.0
 48
0.0
 71
           0
 72
           0
 73
           1
 74
           1
 75
           0
 76
           0
 77
           0
 78
           0
140
0.18
141
0.09
142
0.0
143
25.4
144
1.0
145
0.0
146
1.0
147
0.09
170
           0
171
           2
172
           0
173
           0
174
           0
175
           0
176
           0
177
           0
178
           0
270
           2
271
           4
272
           4
273
           2
274
           2
275
           0
280
           0
281
           0
282
           0
283
           1
284
           0
285
           0
286
           0
287
           3
288
           0
340
17
  0
DIMSTYLE
105
27
100
AcDbSymbolTableRecord
100
AcDbDimStyleTableRecord
  2
MARK2_DIMSTYLE
 70
           0
  3

  4

  5
_Open
  6

  7

 40
1.0
 41
2.0
 42
1.0
 43
10.0
 44
1.0
 45
0.0
 46
0.0
 47
0.0
 48
0.0
 71
           0
 72
           0
 73
           0
 74
           1
 75
           0
 76
           0
 77
           1
 78
           0
140
4.0
141
0.09
142
0.0
143
25.4
144
1.0
145
0.0
146
0.5
147
1.0
170
           0
171
           2
172
           0
173
           0
174
           0
175
           0
176
           0
177
           0
178
           0
270
           2
271
           2
272
           4
273
           2
274
           2
275
           0
280
           0
281
           0
282
           0
283
           1
284
           0
285
           0
286
           0
287
           3
288
           0
340
26
  0
ENDTAB
  0
TABLE
  2
BLOCK_RECORD
  5
1
100
AcDbSymbolTable
 70
          22
  0
BLOCK_RECORD
  5
A
100
AcDbSymbolTableRecord
100
AcDbBlockTableRecord
  2
*MODEL_SPACE
  0
BLOCK_RECORD
  5
B
100
AcDbSymbolTableRecord
100
AcDbBlockTableRecord
  2
*PAPER_SPACE
  0
BLOCK_RECORD
  5
28
100
AcDbSymbolTableRecord
100
AcDbBlockTableRecord
  2
_OPEN
  0
BLOCK_RECORD
  5
2E
100
AcDbSymbolTableRecord
100
AcDbBlockTableRecord
  2
_NONE
  0
BLOCK_RECORD
  5
31
100
AcDbSymbolTableRecord
100
AcDbBlockTableRecord
  2
AID278_$1$
  0
BLOCK_RECORD
  5
35
100
AcDbSymbolTableRecord
100
AcDbBlockTableRecord
  2
_POLYLINE_$2$
  0
BLOCK_RECORD
  5
4E
100
AcDbSymbolTableRecord
100
AcDbBlockTableRecord
  2
_POLYLINE_$3$
  0
BLOCK_RECORD
  5
59
100
AcDbSymbolTableRecord
100
AcDbBlockTableRecord
  2
_POLYLINE_$4$
  0
BLOCK_RECORD
  5
66
100
AcDbSymbolTableRecord
100
AcDbBlockTableRecord
  2
_POLYLINE_$5$
  0
BLOCK_RECORD
  5
72
100
AcDbSymbolTableRecord
100
AcDbBlockTableRecord
  2
_POLYLINE_$6$
  0
BLOCK_RECORD
  5
7F
100
AcDbSymbolTableRecord
100
AcDbBlockTableRecord
  2
AID1007_$7$
  0
BLOCK_RECORD
  5
90
100
AcDbSymbolTableRecord
100
AcDbBlockTableRecord
  2
AID1046_$8$
  0
BLOCK_RECORD
  5
A1
100
AcDbSymbolTableRecord
100
AcDbBlockTableRecord
  2
AID1059_$9$
  0
BLOCK_RECORD
  5
B2
100
AcDbSymbolTableRecord
100
AcDbBlockTableRecord
  2
AID1092_$10$
  0
BLOCK_RECORD
  5
C2
100
AcDbSymbolTableRecord
100
AcDbBlockTableRecord
  2
AID1115_$11$
  0
BLOCK_RECORD
  5
D5
100
AcDbSymbolTableRecord
100
AcDbBlockTableRecord
  2
AID1134_$12$
  0
BLOCK_RECORD
  5
E6
100
AcDbSymbolTableRecord
100
AcDbBlockTableRecord
  2
AID1147_$13$
  0
BLOCK_RECORD
  5
F7
100
AcDbSymbolTableRecord
100
AcDbBlockTableRecord
  2
AID1160_$14$
  0
BLOCK_RECORD
  5
FB
100
AcDbSymbolTableRecord
100
AcDbBlockTableRecord
  2
AID1163_$15$
  0
BLOCK_RECORD
  5
FF
100
AcDbSymbolTableRecord
100
AcDbBlockTableRecord
  2
AID1166_$16$
  0
BLOCK_RECORD
  5
103
100
AcDbSymbolTableRecord
100
AcDbBlockTableRecord
  2
_POLYLINE_$17$
  0
BLOCK_RECORD
  5
10F
100
AcDbSymbolTableRecord
100
AcDbBlockTableRecord
  2
_POLYLINE_$18$
  0
BLOCK_RECORD
  5
11A
100
AcDbSymbolTableRecord
100
AcDbBlockTableRecord
  2
_POLYLINE_$19$
  0
BLOCK_RECORD
  5
126
100
AcDbSymbolTableRecord
100
AcDbBlockTableRecord
  2
_POLYLINE_$20$
  0
ENDTAB
  0
ENDSEC
  0
SECTION
  2
BLOCKS
  0
BLOCK
  5
D
100
AcDbEntity
  8
0
100
AcDbBlockBegin
  2
*MODEL_SPACE
 70
           0
 10
0.0
 20
0.0
 30
0.0
  3
*MODEL_SPACE
  1

  0
ENDBLK
  5
E
100
AcDbEntity
  8
0
100
AcDbBlockEnd
  0
BLOCK
  5
F
100
AcDbEntity
 67
           1
  8
0
100
AcDbBlockBegin
  2
*PAPER_SPACE
 70
           0
 10
0.0
 20
0.0
 30
0.0
  3
*PAPER_SPACE
  1

  0
ENDBLK
  5
10
100
AcDbEntity
 67
           1
  8
0
100
AcDbBlockEnd
  0
BLOCK
  5
29
100
AcDbEntity
  8
0
 62
           0
100
AcDbBlockBegin
  2
_OPEN
 70
           0
 10
0.0
 20
0.0
 30
0.0
  3
_OPEN
  1

  0
LINE
  5
2A
100
AcDbEntity
  8
0
 62
           0
100
AcDbLine
 10
-1.0
 20
0.166666666667
 30
0.0
 11
0.0
 21
0.0
 31
0.0
  0
LINE
  5
2B
100
AcDbEntity
  8
0
 62
           0
100
AcDbLine
 10
-1.0
 20
-0.166666666667
 30
0.0
 11
0.0
 21
0.0
 31
0.0
  0
LINE
  5
2C
100
AcDbEntity
  8
0
 62
           0
100
AcDbLine
 10
0.0
 20
0.0
 30
0.0
 11
-1.0
 21
0.0
 31
0.0
  0
ENDBLK
  5
2D
100
AcDbEntity
  8
0
100
AcDbBlockEnd
  0
BLOCK
  5
2F
100
AcDbEntity
  8
0
 62
           0
100
AcDbBlockBegin
  2
_NONE
 70
           0
 10
0.0
 20
0.0
 30
0.0
  3
_NONE
  1

  0
ENDBLK
  5
30
100
AcDbEntity
  8
0
100
AcDbBlockEnd
  0
BLOCK
  5
32
100
AcDbEntity
  8
0
100
AcDbBlockBegin
  2
AID278_$1$
 70
           0
 10
0.0
 20
0.0
 30
0.0
  3
AID278_$1$
  1

  0
TEXT
  5
33
100
AcDbEntity
  8
256
 62
           7
100
AcDbText
 10
406.171318
 20
6.951938
 30
0.0
 40
3.0
  1
A3
 41
0.649350643158
  7
BIGFONT
100
AcDbText
  0
ENDBLK
  5
34
100
AcDbEntity
  8
0
100
AcDbBlockEnd
  0
BLOCK
  5
36
100
AcDbEntity
  8
0
100
AcDbBlockBegin
  2
_POLYLINE_$2$
 70
           0
 10
0.0
 20
0.0
 30
0.0
  3
_POLYLINE_$2$
  1

  0
POLYLINE
  5
37
100
AcDbEntity
  8
1
  6
DOT
 62
           9
100
AcDb2dPolyline
 66
           1
 10
0.0
 20
0.0
 30
0.0
  0
VERTEX
  5
38
100
AcDbEntity
  8
1
  6
DOT
 62
           9
100
AcDbVertex
100
AcDb2dVertex
 10
137.95204
 20
196.75516
 30
0.0
  0
VERTEX
  5
39
100
AcDbEntity
  8
1
  6
DOT
 62
           9
100
AcDbVertex
100
AcDb2dVertex
 10
137.845205
 20
196.749283
 30
0.0
  0
VERTEX
  5
3A
100
AcDbEntity
  8
1
  6
DOT
 62
           9
100
AcDbVertex
100
AcDb2dVertex
 10
137.719359
 20
196.726611
 30
0.0
  0
VERTEX
  5
3B
100
AcDbEntity
  8
1
  6
DOT
 62
           9
100
AcDbVertex
100
AcDb2dVertex
 10
137.611203
 20
196.691443
 30
0.0
  0
VERTEX
  5
3C
100
AcDbEntity
  8
1
  6
DOT
 62
           9
100
AcDbVertex
100
AcDb2dVertex
 10
137.492949
 20
196.631777
 30
0.0
  0
VERTEX
  5
3D
100
AcDbEntity
  8
1
  6
DOT
 62
           9
100
AcDbVertex
100
AcDb2dVertex
 10
137.402484
 20
196.56579
 30
0.0
  0
VERTEX
  5
3E
100
AcDbEntity
  8
1
  6
DOT
 62
           9
100
AcDbVertex
100
AcDb2dVertex
 10
137.323322
 20
196.486892
 30
0.0
  0
VERTEX
  5
3F
100
AcDbEntity
  8
1
  6
DOT
 62
           9
100
AcDbVertex
100
AcDb2dVertex
 10
137.248766
 20
196.385092
 30
0.0
  0
SEQEND
  5
40
100
AcDbEntity
  8
1
  6
DOT
 62
           9
  0
ARC
  5
41
100
AcDbEntity
  8
1
  6
DOT
 62
           9
100
AcDbCircle
 10
140.007684874129
 20
195.278748381202
 30
0.0
 40
2.972478689054
100
AcDbArc
 50
158.148907809946
 51
201.040520421867
  0
POLYLINE
  5
42
100
AcDbEntity
  8
1
  6
DOT
 62
           9
100
AcDb2dPolyline
 66
           1
 10
0.0
 20
0.0
 30
0.0
  0
VERTEX
  5
43
100
AcDbEntity
  8
1
  6
DOT
 62
           9
100
AcDbVertex
100
AcDb2dVertex
 10
137.233391
 20
194.211545
 30
0.0
  0
VERTEX
  5
44
100
AcDbEntity
  8
1
  6
DOT
 62
           9
100
AcDbVertex
100
AcDb2dVertex
 10
137.308515
 20
194.101731
 30
0.0
  0
VERTEX
  5
45
100
AcDbEntity
  8
1
  6
DOT
 62
           9
100
AcDbVertex
100
AcDb2dVertex
 10
137.384649
 20
194.020882
 30
0.0
  0
VERTEX
  5
46
100
AcDbEntity
  8
1
  6
DOT
 62
           9
100
AcDbVertex
100
AcDb2dVertex
 10
137.479969
 20
193.947313
 30
0.0
  0
VERTEX
  5
47
100
AcDbEntity
  8
1
  6
DOT
 62
           9
100
AcDbVertex
100
AcDb2dVertex
 10
137.592299
 20
193.88737
 30
0.0
  0
VERTEX
  5
48
100
AcDbEntity
  8
1
  6
DOT
 62
           9
100
AcDbVertex
100
AcDb2dVertex
 10
137.71367
 20
193.845782
 30
0.0
  0
VERTEX
  5
49
100
AcDbEntity
  8
1
  6
DOT
 62
           9
100
AcDbVertex
100
AcDb2dVertex
 10
137.813944
 20
193.825619
 30
0.0
  0
VERTEX
  5
4A
100
AcDbEntity
  8
1
  6
DOT
 62
           9
100
AcDbVertex
100
AcDb2dVertex
 10
137.917291
 20
193.816391
 30
0.0
  0
VERTEX
  5
4B
100
AcDbEntity
  8
1
  6
DOT
 62
           9
100
AcDbVertex
100
AcDb2dVertex
 10
137.95204
 20
193.815773
 30
0.0
  0
SEQEND
  5
4C
100
AcDbEntity
  8
1
  6
DOT
 62
           9
  0
ENDBLK
  5
4D
100
AcDbEntity
  8
0
100
AcDbBlockEnd
  0
BLOCK
  5
4F
100
AcDbEntity
  8
0
100
AcDbBlockBegin
  2
_POLYLINE_$3$
 70
           0
 10
0.0
 20
0.0
 30
0.0
  3
_POLYLINE_$3$
  1

  0
POLYLINE
  5
50
100
AcDbEntity
  8
1
  6
CONTINUOUS
 62
           7
100
AcDb2dPolyline
 66
           1
 10
0.0
 20
0.0
 30
0.0
  0
VERTEX
  5
51
100
AcDbEntity
  8
1
  6
CONTINUOUS
 62
           7
100
AcDbVertex
100
AcDb2dVertex
 10
281.036813
 20
116.819517
 30
0.0
  0
VERTEX
  5
52
100
AcDbEntity
  8
1
  6
CONTINUOUS
 62
           7
100
AcDbVertex
100
AcDb2dVertex
 10
281.164445
 20
116.836659
 30
0.0
  0
VERTEX
  5
53
100
AcDbEntity
  8
1
  6
CONTINUOUS
 62
           7
100
AcDbVertex
100
AcDb2dVertex
 10
281.283829
 20
116.885812
 30
0.0
  0
VERTEX
  5
54
100
AcDbEntity
  8
1
  6
CONTINUOUS
 62
           7
100
AcDbVertex
100
AcDb2dVertex
 10
281.407227
 20
116.977243
 30
0.0
  0
VERTEX
  5
55
100
AcDbEntity
  8
1
  6
CONTINUOUS
 62
           7
100
AcDbVertex
100
AcDb2dVertex
 10
281.497759
 20
117.078014
 30
0.0
  0
SEQEND
  5
56
100
AcDbEntity
  8
1
  6
CONTINUOUS
 62
           7
  0
ARC
  5
57
100
AcDbEntity
  8
1
  6
CONTINUOUS
 62
           7
100
AcDbCircle
 10
276.920276635392
 20
119.357559492561
 30
0.0
 40
5.113675043543
100
AcDbArc
 50
333.527103842665
 51
1.814349837125
  0
ENDBLK
  5
58
100
AcDbEntity
  8
0
100
AcDbBlockEnd
  0
BLOCK
  5
5A
100
AcDbEntity
  8
0
100
AcDbBlockBegin
  2
_POLYLINE_$4$
 70
           0
 10
0.0
 20
0.0
 30
0.0
  3
_POLYLINE_$4$
  1

  0
ARC
  5
5B
100
AcDbEntity
  8
1
  6
CONTINUOUS
 62
           7
100
AcDbCircle
 10
276.071735066516
 20
120.181133451987
 30
0.0
 40
5.959972097693
100
AcDbArc
 50
359.407970822543
 51
21.690410934316
  0
POLYLINE
  5
5C
100
AcDbEntity
  8
1
  6
CONTINUOUS
 62
           7
100
AcDb2dPolyline
 66
           1
 10
0.0
 20
0.0
 30
0.0
  0
VERTEX
  5
5D
100
AcDbEntity
  8
1
  6
CONTINUOUS
 62
           7
100
AcDbVertex
100
AcDb2dVertex
 10
281.609708
 20
122.383887
 30
0.0
  0
VERTEX
  5
5E
100
AcDbEntity
  8
1
  6
CONTINUOUS
 62
           7
100
AcDbVertex
100
AcDb2dVertex
 10
281.505354
 20
122.551003
 30
0.0
  0
VERTEX
  5
5F
100
AcDbEntity
  8
1
  6
CONTINUOUS
 62
           7
100
AcDbVertex
100
AcDb2dVertex
 10
281.407898
 20
122.661159
 30
0.0
  0
VERTEX
  5
60
100
AcDbEntity
  8
1
  6
CONTINUOUS
 62
           7
100
AcDbVertex
100
AcDb2dVertex
 10
281.320144
 20
122.731057
 30
0.0
  0
VERTEX
  5
61
100
AcDbEntity
  8
1
  6
CONTINUOUS
 62
           7
100
AcDbVertex
100
AcDb2dVertex
 10
281.198571
 20
122.79179
 30
0.0
  0
VERTEX
  5
62
100
AcDbEntity
  8
1
  6
CONTINUOUS
 62
           7
100
AcDbVertex
100
AcDb2dVertex
 10
281.073236
 20
122.818134
 30
0.0
  0
VERTEX
  5
63
100
AcDbEntity
  8
1
  6
CONTINUOUS
 62
           7
100
AcDbVertex
100
AcDb2dVertex
 10
281.036755
 20
122.819517
 30
0.0
  0
SEQEND
  5
64
100
AcDbEntity
  8
1
  6
CONTINUOUS
 62
           7
  0
ENDBLK
  5
65
100
AcDbEntity
  8
0
100
AcDbBlockEnd
  0
BLOCK
  5
67
100
AcDbEntity
  8
0
100
AcDbBlockBegin
  2
_POLYLINE_$5$
 70
           0
 10
0.0
 20
0.0
 30
0.0
  3
_POLYLINE_$5$
  1

  0
POLYLINE
  5
68
100
AcDbEntity
  8
1
  6
CONTINUOUS
 62
           7
100
AcDb2dPolyline
 66
           1
 10
0.0
 20
0.0
 30
0.0
  0
VERTEX
  5
69
100
AcDbEntity
  8
1
  6
CONTINUOUS
 62
           7
100
AcDbVertex
100
AcDb2dVertex
 10
269.54225
 20
121.819509
 30
0.0
  0
VERTEX
  5
6A
100
AcDbEntity
  8
1
  6
CONTINUOUS
 62
           7
100
AcDbVertex
100
AcDb2dVertex
 10
269.435891
 20
121.805668
 30
0.0
  0
VERTEX
  5
6B
100
AcDbEntity
  8
1
  6
CONTINUOUS
 62
           7
100
AcDbVertex
100
AcDb2dVertex
 10
269.324477
 20
121.759041
 30
0.0
  0
VERTEX
  5
6C
100
AcDbEntity
  8
1
  6
CONTINUOUS
 62
           7
100
AcDbVertex
100
AcDb2dVertex
 10
269.24179
 20
121.698201
 30
0.0
  0
VERTEX
  5
6D
100
AcDbEntity
  8
1
  6
CONTINUOUS
 62
           7
100
AcDbVertex
100
AcDb2dVertex
 10
269.152828
 20
121.598528
 30
0.0
  0
VERTEX
  5
6E
100
AcDbEntity
  8
1
  6
CONTINUOUS
 62
           7
100
AcDbVertex
100
AcDb2dVertex
 10
269.086095
 20
121.491289
 30
0.0
  0
SEQEND
  5
6F
100
AcDbEntity
  8
1
  6
CONTINUOUS
 62
           7
  0
ARC
  5
70
100
AcDbEntity
  8
1
  6
CONTINUOUS
 62
           7
100
AcDbCircle
 10
272.907174078822
 20
119.98260105365
 30
0.0
 40
4.108136395749
100
AcDbArc
 50
158.45425973109
 51
182.275115297275
  0
ENDBLK
  5
71
100
AcDbEntity
  8
0
100
AcDbBlockEnd
  0
BLOCK
  5
73
100
AcDbEntity
  8
0
100
AcDbBlockBegin
  2
_POLYLINE_$6$
 70
           0
 10
0.0
 20
0.0
 30
0.0
  3
_POLYLINE_$6$
  1

  0
ARC
  5
74
100
AcDbEntity
  8
1
  6
CONTINUOUS
 62
           7
100
AcDbCircle
 10
272.986354701198
 20
119.661617043533
 30
0.0
 40
4.187057077957
100
AcDbArc
 50
177.838781113909
 51
200.809352876718
  0
POLYLINE
  5
75
100
AcDbEntity
  8
1
  6
CONTINUOUS
 62
           7
100
AcDb2dPolyline
 66
           1
 10
0.0
 20
0.0
 30
0.0
  0
VERTEX
  5
76
100
AcDbEntity
  8
1
  6
CONTINUOUS
 62
           7
100
AcDbVertex
100
AcDb2dVertex
 10
269.072429
 20
118.174125
 30
0.0
  0
VERTEX
  5
77
100
AcDbEntity
  8
1
  6
CONTINUOUS
 62
           7
100
AcDbVertex
100
AcDb2dVertex
 10
269.144842
 20
118.051656
 30
0.0
  0
VERTEX
  5
78
100
AcDbEntity
  8
1
  6
CONTINUOUS
 62
           7
100
AcDbVertex
100
AcDb2dVertex
 10
269.210988
 20
117.970714
 30
0.0
  0
VERTEX
  5
79
100
AcDbEntity
  8
1
  6
CONTINUOUS
 62
           7
100
AcDbVertex
100
AcDb2dVertex
 10
269.2989
 20
117.8961
 30
0.0
  0
VERTEX
  5
7A
100
AcDbEntity
  8
1
  6
CONTINUOUS
 62
           7
100
AcDbVertex
100
AcDb2dVertex
 10
269.409867
 20
117.841114
 30
0.0
  0
VERTEX
  5
7B
100
AcDbEntity
  8
1
  6
CONTINUOUS
 62
           7
100
AcDbVertex
100
AcDb2dVertex
 10
269.531063
 20
117.819675
 30
0.0
  0
VERTEX
  5
7C
100
AcDbEntity
  8
1
  6
CONTINUOUS
 62
           7
100
AcDbVertex
100
AcDb2dVertex
 10
269.542282
 20
117.819524
 30
0.0
  0
SEQEND
  5
7D
100
AcDbEntity
  8
1
  6
CONTINUOUS
 62
           7
  0
ENDBLK
  5
7E
100
AcDbEntity
  8
0
100
AcDbBlockEnd
  0
BLOCK
  5
80
100
AcDbEntity
  8
0
100
AcDbBlockBegin
  2
AID1007_$7$
 70
           0
 10
0.0
 20
0.0
 30
0.0
  3
AID1007_$7$
  1

  0
TEXT
  5
81
100
AcDbEntity
  8
1
 62
           2
100
AcDbText
 10
95.031911
 20
191.617285
 30
0.0
 40
6.0
  1
16
 50
90.0
 41
0.649350643158
  7
BIGFONT
100
AcDbText
  0
LINE
  5
82
100
AcDbEntity
  8
1
  6
CONTINUOUS
 62
          11
100
AcDbLine
 10
96.204638
 20
203.285467
 30
0.0
 11
96.204638
 21
187.285467
 31
0.0
  0
LINE
  5
83
100
AcDbEntity
  8
1
  6
CONTINUOUS
 62
          11
100
AcDbLine
 10
109.25204
 20
203.285467
 30
0.0
 11
94.404638
 21
203.285467
 31
0.0
  0
LINE
  5
84
100
AcDbEntity
  8
1
  6
CONTINUOUS
 62
          11
100
AcDbLine
 10
109.25204
 20
187.285467
 30
0.0
 11
94.404638
 21
187.285467
 31
0.0
  0
POLYLINE
  5
85
100
AcDbEntity
  8
1
  6
CONTINUOUS
 62
          11
100
AcDb2dPolyline
 66
           1
 10
0.0
 20
0.0
 30
0.0
  0
VERTEX
  5
86
100
AcDbEntity
  8
1
  6
CONTINUOUS
 62
          11
100
AcDbVertex
100
AcDb2dVertex
 10
95.304638
 20
198.785467
 30
0.0
  0
VERTEX
  5
87
100
AcDbEntity
  8
1
  6
CONTINUOUS
 62
          11
100
AcDbVertex
100
AcDb2dVertex
 10
96.204638
 20
203.285467
 30
0.0
  0
VERTEX
  5
88
100
AcDbEntity
  8
1
  6
CONTINUOUS
 62
          11
100
AcDbVertex
100
AcDb2dVertex
 10
97.104638
 20
198.785467
 30
0.0
  0
SEQEND
  5
89
100
AcDbEntity
  8
1
  6
CONTINUOUS
 62
          11
  0
POLYLINE
  5
8A
100
AcDbEntity
  8
1
  6
CONTINUOUS
 62
          11
100
AcDb2dPolyline
 66
           1
 10
0.0
 20
0.0
 30
0.0
  0
VERTEX
  5
8B
100
AcDbEntity
  8
1
  6
CONTINUOUS
 62
          11
100
AcDbVertex
100
AcDb2dVertex
 10
97.104638
 20
191.785467
 30
0.0
  0
VERTEX
  5
8C
100
AcDbEntity
  8
1
  6
CONTINUOUS
 62
          11
100
AcDbVertex
100
AcDb2dVertex
 10
96.204638
 20
187.285467
 30
0.0
  0
VERTEX
  5
8D
100
AcDbEntity
  8
1
  6
CONTINUOUS
 62
          11
100
AcDbVertex
100
AcDb2dVertex
 10
95.304638
 20
191.785467
 30
0.0
  0
SEQEND
  5
8E
100
AcDbEntity
  8
1
  6
CONTINUOUS
 62
          11
  0
ENDBLK
  5
8F
100
AcDbEntity
  8
0
100
AcDbBlockEnd
  0
BLOCK
  5
91
100
AcDbEntity
  8
0
100
AcDbBlockBegin
  2
AID1046_$8$
 70
           0
 10
0.0
 20
0.0
 30
0.0
  3
AID1046_$8$
  1

  0
TEXT
  5
92
100
AcDbEntity
  8
1
 62
           2
100
AcDbText
 10
116.738403
 20
172.74961
 30
0.0
 40
6.0
  1
25.4
 41
0.649350643158
  7
BIGFONT
100
AcDbText
  0
LINE
  5
93
100
AcDbEntity
  8
1
  6
CONTINUOUS
 62
          11
100
AcDbLine
 10
110.05204
 20
171.576883
 30
0.0
 11
135.45204
 21
171.576883
 31
0.0
  0
LINE
  5
94
100
AcDbEntity
  8
1
  6
CONTINUOUS
 62
          11
100
AcDbLine
 10
110.05204
 20
186.485467
 30
0.0
 11
110.05204
 21
169.776883
 31
0.0
  0
LINE
  5
95
100
AcDbEntity
  8
1
  6
CONTINUOUS
 62
          11
100
AcDbLine
 10
135.45204
 20
186.485467
 30
0.0
 11
135.45204
 21
169.776883
 31
0.0
  0
POLYLINE
  5
96
100
AcDbEntity
  8
1
  6
CONTINUOUS
 62
          11
100
AcDb2dPolyline
 66
           1
 10
0.0
 20
0.0
 30
0.0
  0
VERTEX
  5
97
100
AcDbEntity
  8
1
  6
CONTINUOUS
 62
          11
100
AcDbVertex
100
AcDb2dVertex
 10
114.55204
 20
170.676883
 30
0.0
  0
VERTEX
  5
98
100
AcDbEntity
  8
1
  6
CONTINUOUS
 62
          11
100
AcDbVertex
100
AcDb2dVertex
 10
110.05204
 20
171.576883
 30
0.0
  0
VERTEX
  5
99
100
AcDbEntity
  8
1
  6
CONTINUOUS
 62
          11
100
AcDbVertex
100
AcDb2dVertex
 10
114.55204
 20
172.476883
 30
0.0
  0
SEQEND
  5
9A
100
AcDbEntity
  8
1
  6
CONTINUOUS
 62
          11
  0
POLYLINE
  5
9B
100
AcDbEntity
  8
1
  6
CONTINUOUS
 62
          11
100
AcDb2dPolyline
 66
           1
 10
0.0
 20
0.0
 30
0.0
  0
VERTEX
  5
9C
100
AcDbEntity
  8
1
  6
CONTINUOUS
 62
          11
100
AcDbVertex
100
AcDb2dVertex
 10
130.95204
 20
172.476883
 30
0.0
  0
VERTEX
  5
9D
100
AcDbEntity
  8
1
  6
CONTINUOUS
 62
          11
100
AcDbVertex
100
AcDb2dVertex
 10
135.45204
 20
171.576883
 30
0.0
  0
VERTEX
  5
9E
100
AcDbEntity
  8
1
  6
CONTINUOUS
 62
          11
100
AcDbVertex
100
AcDb2dVertex
 10
130.95204
 20
170.676883
 30
0.0
  0
SEQEND
  5
9F
100
AcDbEntity
  8
1
  6
CONTINUOUS
 62
          11
  0
ENDBLK
  5
A0
100
AcDbEntity
  8
0
100
AcDbBlockEnd
  0
BLOCK
  5
A2
100
AcDbEntity
  8
0
100
AcDbBlockBegin
  2
AID1059_$9$
 70
           0
 10
0.0
 20
0.0
 30
0.0
  3
AID1059_$9$
  1

  0
TEXT
  5
A3
100
AcDbEntity
  8
1
 62
           2
100
AcDbText
 10
123.061131
 20
162.491678
 30
0.0
 40
6.0
  1
33
 41
0.649350643158
  7
BIGFONT
100
AcDbText
  0
LINE
  5
A4
100
AcDbEntity
  8
1
  6
CONTINUOUS
 62
          11
100
AcDbLine
 10
110.05204
 20
161.31895
 30
0.0
 11
143.05204
 21
161.31895
 31
0.0
  0
LINE
  5
A5
100
AcDbEntity
  8
1
  6
CONTINUOUS
 62
          11
100
AcDbLine
 10
110.05204
 20
186.485467
 30
0.0
 11
110.05204
 21
159.51895
 31
0.0
  0
LINE
  5
A6
100
AcDbEntity
  8
1
  6
CONTINUOUS
 62
          11
100
AcDbLine
 10
143.05204
 20
187.985467
 30
0.0
 11
143.05204
 21
159.51895
 31
0.0
  0
POLYLINE
  5
A7
100
AcDbEntity
  8
1
  6
CONTINUOUS
 62
          11
100
AcDb2dPolyline
 66
           1
 10
0.0
 20
0.0
 30
0.0
  0
VERTEX
  5
A8
100
AcDbEntity
  8
1
  6
CONTINUOUS
 62
          11
100
AcDbVertex
100
AcDb2dVertex
 10
114.55204
 20
160.41895
 30
0.0
  0
VERTEX
  5
A9
100
AcDbEntity
  8
1
  6
CONTINUOUS
 62
          11
100
AcDbVertex
100
AcDb2dVertex
 10
110.05204
 20
161.31895
 30
0.0
  0
VERTEX
  5
AA
100
AcDbEntity
  8
1
  6
CONTINUOUS
 62
          11
100
AcDbVertex
100
AcDb2dVertex
 10
114.55204
 20
162.21895
 30
0.0
  0
SEQEND
  5
AB
100
AcDbEntity
  8
1
  6
CONTINUOUS
 62
          11
  0
POLYLINE
  5
AC
100
AcDbEntity
  8
1
  6
CONTINUOUS
 62
          11
100
AcDb2dPolyline
 66
           1
 10
0.0
 20
0.0
 30
0.0
  0
VERTEX
  5
AD
100
AcDbEntity
  8
1
  6
CONTINUOUS
 62
          11
100
AcDbVertex
100
AcDb2dVertex
 10
138.55204
 20
162.21895
 30
0.0
  0
VERTEX
  5
AE
100
AcDbEntity
  8
1
  6
CONTINUOUS
 62
          11
100
AcDbVertex
100
AcDb2dVertex
 10
143.05204
 20
161.31895
 30
0.0
  0
VERTEX
  5
AF
100
AcDbEntity
  8
1
  6
CONTINUOUS
 62
          11
100
AcDbVertex
100
AcDb2dVertex
 10
138.55204
 20
160.41895
 30
0.0
  0
SEQEND
  5
B0
100
AcDbEntity
  8
1
  6
CONTINUOUS
 62
          11
  0
ENDBLK
  5
B1
100
AcDbEntity
  8
0
100
AcDbBlockEnd
  0
BLOCK
  5
B3
100
AcDbEntity
  8
0
100
AcDbBlockBegin
  2
AID1092_$10$
 70
           0
 10
0.0
 20
0.0
 30
0.0
  3
AID1092_$10$
  1

  0
TEXT
  5
B4
100
AcDbEntity
  8
1
 62
           2
100
AcDbText
 10
177.561676
 20
201.994557
 30
0.0
 40
6.0
  1
Φ
 50
90.0
 41
1.08225107193
  7
BIGFONT
100
AcDbText
  0
TEXT
  5
B5
100
AcDbEntity
  8
1
 62
           2
100
AcDbText
 10
177.561676
 20
207.940012
 30
0.0
 40
6.0
  1
3
 50
90.0
 41
0.649350643158
  7
BIGFONT
100
AcDbText
  0
LINE
  5
B6
100
AcDbEntity
  8
1
  6
CONTINUOUS
 62
          11
100
AcDbLine
 10
178.734404
 20
211.676376
 30
0.0
 11
178.734404
 21
184.785467
 31
0.0
  0
POLYLINE
  5
B7
100
AcDbEntity
  8
1
  6
CONTINUOUS
 62
          11
100
AcDb2dPolyline
 66
           1
 10
0.0
 20
0.0
 30
0.0
  0
VERTEX
  5
B8
100
AcDbEntity
  8
1
  6
CONTINUOUS
 62
          11
100
AcDbVertex
100
AcDb2dVertex
 10
177.834404
 20
201.285467
 30
0.0
  0
VERTEX
  5
B9
100
AcDbEntity
  8
1
  6
CONTINUOUS
 62
          11
100
AcDbVertex
100
AcDb2dVertex
 10
178.734404
 20
196.785467
 30
0.0
  0
VERTEX
  5
BA
100
AcDbEntity
  8
1
  6
CONTINUOUS
 62
          11
100
AcDbVertex
100
AcDb2dVertex
 10
179.634404
 20
201.285467
 30
0.0
  0
SEQEND
  5
BB
100
AcDbEntity
  8
1
  6
CONTINUOUS
 62
          11
  0
POLYLINE
  5
BC
100
AcDbEntity
  8
1
  6
CONTINUOUS
 62
          11
100
AcDb2dPolyline
 66
           1
 10
0.0
 20
0.0
 30
0.0
  0
VERTEX
  5
BD
100
AcDbEntity
  8
1
  6
CONTINUOUS
 62
          11
100
AcDbVertex
100
AcDb2dVertex
 10
179.634404
 20
189.285467
 30
0.0
  0
VERTEX
  5
BE
100
AcDbEntity
  8
1
  6
CONTINUOUS
 62
          11
100
AcDbVertex
100
AcDb2dVertex
 10
178.734404
 20
193.785467
 30
0.0
  0
VERTEX
  5
BF
100
AcDbEntity
  8
1
  6
CONTINUOUS
 62
          11
100
AcDbVertex
100
AcDb2dVertex
 10
177.834404
 20
189.285467
 30
0.0
  0
SEQEND
  5
C0
100
AcDbEntity
  8
1
  6
CONTINUOUS
 62
          11
  0
ENDBLK
  5
C1
100
AcDbEntity
  8
0
100
AcDbBlockEnd
  0
BLOCK
  5
C3
100
AcDbEntity
  8
0
100
AcDbBlockBegin
  2
AID1115_$11$
 70
           0
 10
0.0
 20
0.0
 30
0.0
  3
AID1115_$11$
  1

  0
TEXT
  5
C4
100
AcDbEntity
  8
1
 62
           2
100
AcDbText
 10
204.157262
 20
163.680769
 30
0.0
 40
6.0
  1
1000
 41
0.649350643158
  7
BIGFONT
100
AcDbText
  0
TEXT
  5
C5
100
AcDbEntity
  8
1
 62
           2
100
AcDbText
 10
220.875443
 20
162.480769
 30
0.0
 40
4.199999809265
  1
 0
 41
0.649350627234
  7
BIGFONT
100
AcDbText
  0
TEXT
  5
C6
100
AcDbEntity
  8
1
 62
           2
100
AcDbText
 10
220.875443
 20
167.368041
 30
0.0
 40
4.199999809265
  1
+50
 41
0.649350627234
  7
BIGFONT
100
AcDbText
  0
LINE
  5
C7
100
AcDbEntity
  8
1
  6
CONTINUOUS
 62
          11
100
AcDbLine
 10
143.05204
 20
161.31895
 30
0.0
 11
289.87612
 21
161.31895
 31
0.0
  0
LINE
  5
C8
100
AcDbEntity
  8
1
  6
CONTINUOUS
 62
          11
100
AcDbLine
 10
143.05204
 20
187.985467
 30
0.0
 11
143.05204
 21
159.51895
 31
0.0
  0
LINE
  5
C9
100
AcDbEntity
  8
1
  6
CONTINUOUS
 62
          11
100
AcDbLine
 10
289.87612
 20
193.485467
 30
0.0
 11
289.87612
 21
159.51895
 31
0.0
  0
POLYLINE
  5
CA
100
AcDbEntity
  8
1
  6
CONTINUOUS
 62
          11
100
AcDb2dPolyline
 66
           1
 10
0.0
 20
0.0
 30
0.0
  0
VERTEX
  5
CB
100
AcDbEntity
  8
1
  6
CONTINUOUS
 62
          11
100
AcDbVertex
100
AcDb2dVertex
 10
147.55204
 20
160.41895
 30
0.0
  0
VERTEX
  5
CC
100
AcDbEntity
  8
1
  6
CONTINUOUS
 62
          11
100
AcDbVertex
100
AcDb2dVertex
 10
143.05204
 20
161.31895
 30
0.0
  0
VERTEX
  5
CD
100
AcDbEntity
  8
1
  6
CONTINUOUS
 62
          11
100
AcDbVertex
100
AcDb2dVertex
 10
147.55204
 20
162.21895
 30
0.0
  0
SEQEND
  5
CE
100
AcDbEntity
  8
1
  6
CONTINUOUS
 62
          11
  0
POLYLINE
  5
CF
100
AcDbEntity
  8
1
  6
CONTINUOUS
 62
          11
100
AcDb2dPolyline
 66
           1
 10
0.0
 20
0.0
 30
0.0
  0
VERTEX
  5
D0
100
AcDbEntity
  8
1
  6
CONTINUOUS
 62
          11
100
AcDbVertex
100
AcDb2dVertex
 10
285.37612
 20
162.21895
 30
0.0
  0
VERTEX
  5
D1
100
AcDbEntity
  8
1
  6
CONTINUOUS
 62
          11
100
AcDbVertex
100
AcDb2dVertex
 10
289.87612
 20
161.31895
 30
0.0
  0
VERTEX
  5
D2
100
AcDbEntity
  8
1
  6
CONTINUOUS
 62
          11
100
AcDbVertex
100
AcDb2dVertex
 10
285.37612
 20
160.41895
 30
0.0
  0
SEQEND
  5
D3
100
AcDbEntity
  8
1
  6
CONTINUOUS
 62
          11
  0
ENDBLK
  5
D4
100
AcDbEntity
  8
0
100
AcDbBlockEnd
  0
BLOCK
  5
D6
100
AcDbEntity
  8
0
100
AcDbBlockBegin
  2
AID1134_$12$
 70
           0
 10
0.0
 20
0.0
 30
0.0
  3
AID1134_$12$
  1

  0
TEXT
  5
D7
100
AcDbEntity
  8
1
 62
           2
100
AcDbText
 10
261.327646
 20
172.126487
 30
0.0
 40
6.0
  1
50
 41
0.649350643158
  7
BIGFONT
100
AcDbText
  0
LINE
  5
D8
100
AcDbEntity
  8
1
  6
CONTINUOUS
 62
          11
100
AcDbLine
 10
239.870081
 20
170.95376
 30
0.0
 11
289.87612
 21
170.95376
 31
0.0
  0
LINE
  5
D9
100
AcDbEntity
  8
1
  6
CONTINUOUS
 62
          11
100
AcDbLine
 10
239.870081
 20
191.985467
 30
0.0
 11
239.870081
 21
169.15376
 31
0.0
  0
LINE
  5
DA
100
AcDbEntity
  8
1
  6
CONTINUOUS
 62
          11
100
AcDbLine
 10
289.87612
 20
193.485467
 30
0.0
 11
289.87612
 21
169.15376
 31
0.0
  0
POLYLINE
  5
DB
100
AcDbEntity
  8
1
  6
CONTINUOUS
 62
          11
100
AcDb2dPolyline
 66
           1
 10
0.0
 20
0.0
 30
0.0
  0
VERTEX
  5
DC
100
AcDbEntity
  8
1
  6
CONTINUOUS
 62
          11
100
AcDbVertex
100
AcDb2dVertex
 10
244.370081
 20
170.05376
 30
0.0
  0
VERTEX
  5
DD
100
AcDbEntity
  8
1
  6
CONTINUOUS
 62
          11
100
AcDbVertex
100
AcDb2dVertex
 10
239.870081
 20
170.95376
 30
0.0
  0
VERTEX
  5
DE
100
AcDbEntity
  8
1
  6
CONTINUOUS
 62
          11
100
AcDbVertex
100
AcDb2dVertex
 10
244.370081
 20
171.85376
 30
0.0
  0
SEQEND
  5
DF
100
AcDbEntity
  8
1
  6
CONTINUOUS
 62
          11
  0
POLYLINE
  5
E0
100
AcDbEntity
  8
1
  6
CONTINUOUS
 62
          11
100
AcDb2dPolyline
 66
           1
 10
0.0
 20
0.0
 30
0.0
  0
VERTEX
  5
E1
100
AcDbEntity
  8
1
  6
CONTINUOUS
 62
          11
100
AcDbVertex
100
AcDb2dVertex
 10
285.37612
 20
171.85376
 30
0.0
  0
VERTEX
  5
E2
100
AcDbEntity
  8
1
  6
CONTINUOUS
 62
          11
100
AcDbVertex
100
AcDb2dVertex
 10
289.87612
 20
170.95376
 30
0.0
  0
VERTEX
  5
E3
100
AcDbEntity
  8
1
  6
CONTINUOUS
 62
          11
100
AcDbVertex
100
AcDb2dVertex
 10
285.37612
 20
170.05376
 30
0.0
  0
SEQEND
  5
E4
100
AcDbEntity
  8
1
  6
CONTINUOUS
 62
          11
  0
ENDBLK
  5
E5
100
AcDbEntity
  8
0
100
AcDbBlockEnd
  0
BLOCK
  5
E7
100
AcDbEntity
  8
0
100
AcDbBlockBegin
  2
AID1147_$13$
 70
           0
 10
0.0
 20
0.0
 30
0.0
  3
AID1147_$13$
  1

  0
TEXT
  5
E8
100
AcDbEntity
  8
1
 62
           2
100
AcDbText
 10
95.031911
 20
129.35588
 30
0.0
 40
6.0
  1
7.9
 50
90.0
 41
0.649350643158
  7
BIGFONT
100
AcDbText
  0
LINE
  5
E9
100
AcDbEntity
  8
1
  6
CONTINUOUS
 62
          11
100
AcDbLine
 10
96.204638
 20
137.974062
 30
0.0
 11
96.204638
 21
106.619517
 31
0.0
  0
LINE
  5
EA
100
AcDbEntity
  8
1
  6
CONTINUOUS
 62
          11
100
AcDbLine
 10
108.45204
 20
123.519517
 30
0.0
 11
94.404638
 21
123.519517
 31
0.0
  0
LINE
  5
EB
100
AcDbEntity
  8
1
  6
CONTINUOUS
 62
          11
100
AcDbLine
 10
108.45204
 20
115.619517
 30
0.0
 11
94.404638
 21
115.619517
 31
0.0
  0
POLYLINE
  5
EC
100
AcDbEntity
  8
1
  6
CONTINUOUS
 62
          11
100
AcDb2dPolyline
 66
           1
 10
0.0
 20
0.0
 30
0.0
  0
VERTEX
  5
ED
100
AcDbEntity
  8
1
  6
CONTINUOUS
 62
          11
100
AcDbVertex
100
AcDb2dVertex
 10
95.304638
 20
128.019517
 30
0.0
  0
VERTEX
  5
EE
100
AcDbEntity
  8
1
  6
CONTINUOUS
 62
          11
100
AcDbVertex
100
AcDb2dVertex
 10
96.204638
 20
123.519517
 30
0.0
  0
VERTEX
  5
EF
100
AcDbEntity
  8
1
  6
CONTINUOUS
 62
          11
100
AcDbVertex
100
AcDb2dVertex
 10
97.104638
 20
128.019517
 30
0.0
  0
SEQEND
  5
F0
100
AcDbEntity
  8
1
  6
CONTINUOUS
 62
          11
  0
POLYLINE
  5
F1
100
AcDbEntity
  8
1
  6
CONTINUOUS
 62
          11
100
AcDb2dPolyline
 66
           1
 10
0.0
 20
0.0
 30
0.0
  0
VERTEX
  5
F2
100
AcDbEntity
  8
1
  6
CONTINUOUS
 62
          11
100
AcDbVertex
100
AcDb2dVertex
 10
97.104638
 20
111.119517
 30
0.0
  0
VERTEX
  5
F3
100
AcDbEntity
  8
1
  6
CONTINUOUS
 62
          11
100
AcDbVertex
100
AcDb2dVertex
 10
96.204638
 20
115.619517
 30
0.0
  0
VERTEX
  5
F4
100
AcDbEntity
  8
1
  6
CONTINUOUS
 62
          11
100
AcDbVertex
100
AcDb2dVertex
 10
95.304638
 20
111.119517
 30
0.0
  0
SEQEND
  5
F5
100
AcDbEntity
  8
1
  6
CONTINUOUS
 62
          11
  0
ENDBLK
  5
F6
100
AcDbEntity
  8
0
100
AcDbBlockEnd
  0
BLOCK
  5
F8
100
AcDbEntity
  8
0
100
AcDbBlockBegin
  2
AID1160_$14$
 70
           0
 10
0.0
 20
0.0
 30
0.0
  3
AID1160_$14$
  1

  0
TEXT
  5
F9
100
AcDbEntity
  8
1
 62
           7
100
AcDbText
 10
353.097048
 20
40.29748
 30
0.0
 40
3.0
  1
金型表面温度センサ用変換ケーブル
 41
1.08225107193
  7
BIGFONT
100
AcDbText
  0
ENDBLK
  5
FA
100
AcDbEntity
  8
0
100
AcDbBlockEnd
  0
BLOCK
  5
FC
100
AcDbEntity
  8
0
100
AcDbBlockBegin
  2
AID1163_$15$
 70
           0
 10
0.0
 20
0.0
 30
0.0
  3
AID1163_$15$
  1

  0
TEXT
  5
FD
100
AcDbEntity
  8
1
 62
           7
100
AcDbText
 10
369.841516
 20
28.952765
 30
0.0
 40
4.0
  1
WST0110
 41
0.649350643158
  7
BIGFONT
100
AcDbText
  0
ENDBLK
  5
FE
100
AcDbEntity
  8
0
100
AcDbBlockEnd
  0
BLOCK
  5
100
100
AcDbEntity
  8
0
100
AcDbBlockBegin
  2
AID1166_$16$
 70
           0
 10
0.0
 20
0.0
 30
0.0
  3
AID1166_$16$
  1

  0
TEXT
  5
101
100
AcDbEntity
  8
1
 62
           7
100
AcDbText
 10
323.622674
 20
31.907744
 30
0.0
 40
5.0
  1
1：1
 41
0.811688303947
  7
BIGFONT
100
AcDbText
  0
ENDBLK
  5
102
100
AcDbEntity
  8
0
100
AcDbBlockEnd
  0
BLOCK
  5
104
100
AcDbEntity
  8
0
100
AcDbBlockBegin
  2
_POLYLINE_$17$
 70
           0
 10
0.0
 20
0.0
 30
0.0
  3
_POLYLINE_$17$
  1

  0
POLYLINE
  5
105
100
AcDbEntity
  8
1
  6
DOT
 62
           9
100
AcDb2dPolyline
 66
           1
 10
0.0
 20
0.0
 30
0.0
  0
VERTEX
  5
106
100
AcDbEntity
  8
1
  6
DOT
 62
           9
100
AcDbVertex
100
AcDb2dVertex
 10
50.444717
 20
186.058934
 30
0.0
  0
VERTEX
  5
107
100
AcDbEntity
  8
1
  6
DOT
 62
           9
100
AcDbVertex
100
AcDb2dVertex
 10
50.455978
 20
186.256197
 30
0.0
  0
VERTEX
  5
108
100
AcDbEntity
  8
1
  6
DOT
 62
           9
100
AcDbVertex
100
AcDb2dVertex
 10
50.489876
 20
186.452266
 30
0.0
  0
VERTEX
  5
109
100
AcDbEntity
  8
1
  6
DOT
 62
           9
100
AcDbVertex
100
AcDb2dVertex
 10
50.545599
 20
186.642695
 30
0.0
  0
VERTEX
  5
10A
100
AcDbEntity
  8
1
  6
DOT
 62
           9
100
AcDbVertex
100
AcDb2dVertex
 10
50.621775
 20
186.824781
 30
0.0
  0
VERTEX
  5
10B
100
AcDbEntity
  8
1
  6
DOT
 62
           9
100
AcDbVertex
100
AcDb2dVertex
 10
50.716689
 20
186.99636
 30
0.0
  0
SEQEND
  5
10C
100
AcDbEntity
  8
1
  6
DOT
 62
           9
  0
ARC
  5
10D
100
AcDbEntity
  8
1
  6
DOT
 62
           9
100
AcDbCircle
 10
52.414982702646
 20
185.898460136544
 30
0.0
 40
2.022272387841
100
AcDbArc
 50
94.065414596125
 51
147.118450415792
  0
ENDBLK
  5
10E
100
AcDbEntity
  8
0
100
AcDbBlockEnd
  0
BLOCK
  5
110
100
AcDbEntity
  8
0
100
AcDbBlockBegin
  2
_POLYLINE_$18$
 70
           0
 10
0.0
 20
0.0
 30
0.0
  3
_POLYLINE_$18$
  1

  0
ARC
  5
111
100
AcDbEntity
  8
1
  6
DOT
 62
           9
100
AcDbCircle
 10
52.475540914051
 20
185.904520808629
 30
0.0
 40
2.016100649912
100
AcDbArc
 50
29.239336056422
 51
85.821328429881
  0
POLYLINE
  5
112
100
AcDbEntity
  8
1
  6
DOT
 62
           9
100
AcDb2dPolyline
 66
           1
 10
0.0
 20
0.0
 30
0.0
  0
VERTEX
  5
113
100
AcDbEntity
  8
1
  6
DOT
 62
           9
100
AcDbVertex
100
AcDb2dVertex
 10
54.234764
 20
186.889303
 30
0.0
  0
VERTEX
  5
114
100
AcDbEntity
  8
1
  6
DOT
 62
           9
100
AcDbVertex
100
AcDb2dVertex
 10
54.316609
 20
186.714451
 30
0.0
  0
VERTEX
  5
115
100
AcDbEntity
  8
1
  6
DOT
 62
           9
100
AcDbVertex
100
AcDb2dVertex
 10
54.379546
 20
186.530202
 30
0.0
  0
VERTEX
  5
116
100
AcDbEntity
  8
1
  6
DOT
 62
           9
100
AcDbVertex
100
AcDb2dVertex
 10
54.422015
 20
186.338511
 30
0.0
  0
VERTEX
  5
117
100
AcDbEntity
  8
1
  6
DOT
 62
           9
100
AcDbVertex
100
AcDb2dVertex
 10
54.442455
 20
186.147166
 30
0.0
  0
SEQEND
  5
118
100
AcDbEntity
  8
1
  6
DOT
 62
           9
  0
ENDBLK
  5
119
100
AcDbEntity
  8
0
100
AcDbBlockEnd
  0
BLOCK
  5
11B
100
AcDbEntity
  8
0
100
AcDbBlockBegin
  2
_POLYLINE_$19$
 70
           0
 10
0.0
 20
0.0
 30
0.0
  3
_POLYLINE_$19$
  1

  0
POLYLINE
  5
11C
100
AcDbEntity
  8
1
  6
DOT
 62
           9
100
AcDb2dPolyline
 66
           1
 10
0.0
 20
0.0
 30
0.0
  0
VERTEX
  5
11D
100
AcDbEntity
  8
1
  6
DOT
 62
           9
100
AcDbVertex
100
AcDb2dVertex
 10
54.444702
 20
204.511999
 30
0.0
  0
VERTEX
  5
11E
100
AcDbEntity
  8
1
  6
DOT
 62
           9
100
AcDbVertex
100
AcDb2dVertex
 10
54.43344
 20
204.314736
 30
0.0
  0
VERTEX
  5
11F
100
AcDbEntity
  8
1
  6
DOT
 62
           9
100
AcDbVertex
100
AcDb2dVertex
 10
54.399542
 20
204.118667
 30
0.0
  0
VERTEX
  5
120
100
AcDbEntity
  8
1
  6
DOT
 62
           9
100
AcDbVertex
100
AcDb2dVertex
 10
54.34382
 20
203.928238
 30
0.0
  0
VERTEX
  5
121
100
AcDbEntity
  8
1
  6
DOT
 62
           9
100
AcDbVertex
100
AcDb2dVertex
 10
54.267644
 20
203.746152
 30
0.0
  0
VERTEX
  5
122
100
AcDbEntity
  8
1
  6
DOT
 62
           9
100
AcDbVertex
100
AcDb2dVertex
 10
54.172729
 20
203.574573
 30
0.0
  0
SEQEND
  5
123
100
AcDbEntity
  8
1
  6
DOT
 62
           9
  0
ARC
  5
124
100
AcDbEntity
  8
1
  6
DOT
 62
           9
100
AcDbCircle
 10
52.474436799038
 20
204.672472361772
 30
0.0
 40
2.022270854369
100
AcDbArc
 50
274.065403434327
 51
327.118439253994
  0
ENDBLK
  5
125
100
AcDbEntity
  8
0
100
AcDbBlockEnd
  0
BLOCK
  5
127
100
AcDbEntity
  8
0
100
AcDbBlockBegin
  2
_POLYLINE_$20$
 70
           0
 10
0.0
 20
0.0
 30
0.0
  3
_POLYLINE_$20$
  1

  0
ARC
  5
128
100
AcDbEntity
  8
1
  6
DOT
 62
           9
100
AcDbCircle
 10
52.413877585949
 20
204.666413120321
 30
0.0
 40
2.01610153996
100
AcDbArc
 50
209.239352151877
 51
265.821344525336
  0
POLYLINE
  5
129
100
AcDbEntity
  8
1
  6
DOT
 62
           9
100
AcDb2dPolyline
 66
           1
 10
0.0
 20
0.0
 30
0.0
  0
VERTEX
  5
12A
100
AcDbEntity
  8
1
  6
DOT
 62
           9
100
AcDbVertex
100
AcDb2dVertex
 10
50.654654
 20
203.68163
 30
0.0
  0
VERTEX
  5
12B
100
AcDbEntity
  8
1
  6
DOT
 62
           9
100
AcDbVertex
100
AcDb2dVertex
 10
50.572809
 20
203.856482
 30
0.0
  0
VERTEX
  5
12C
100
AcDbEntity
  8
1
  6
DOT
 62
           9
100
AcDbVertex
100
AcDb2dVertex
 10
50.509872
 20
204.040732
 30
0.0
  0
VERTEX
  5
12D
100
AcDbEntity
  8
1
  6
DOT
 62
           9
100
AcDbVertex
100
AcDb2dVertex
 10
50.467404
 20
204.232422
 30
0.0
  0
VERTEX
  5
12E
100
AcDbEntity
  8
1
  6
DOT
 62
           9
100
AcDbVertex
100
AcDb2dVertex
 10
50.446964
 20
204.423767
 30
0.0
  0
SEQEND
  5
12F
100
AcDbEntity
  8
1
  6
DOT
 62
           9
  0
ENDBLK
  5
130
100
AcDbEntity
  8
0
100
AcDbBlockEnd
  0
ENDSEC
  0
SECTION
  2
ENTITIES
  0
LINE
  5
131
100
AcDbEntity
  8
256
  6
CONTINUOUS
 62
           8
100
AcDbLine
 10
222.0
 20
34.5
 30
0.0
 11
271.0
 21
34.5
 31
0.0
  0
LINE
  5
132
100
AcDbEntity
  8
256
  6
CONTINUOUS
 62
           8
100
AcDbLine
 10
390.25
 20
277.0
 30
0.0
 11
390.25
 21
287.0
 31
0.0
  0
LINE
  5
133
100
AcDbEntity
  8
256
  6
CONTINUOUS
 62
           8
100
AcDbLine
 10
229.511017
 20
262.368011
 30
0.0
 11
234.511017
 21
262.368011
 31
0.0
  0
LINE
  5
134
100
AcDbEntity
  8
256
  6
CONTINUOUS
 62
           8
100
AcDbLine
 10
222.0
 20
38.0
 30
0.0
 11
271.0
 21
38.0
 31
0.0
  0
LINE
  5
135
100
AcDbEntity
  8
256
  6
CONTINUOUS
 62
           8
100
AcDbLine
 10
237.0
 20
287.0
 30
0.0
 11
237.0
 21
257.0
 31
0.0
  0
LINE
  5
136
100
AcDbEntity
  8
256
  6
CONTINUOUS
 62
           8
100
AcDbLine
 10
303.8
 20
48.0
 30
0.0
 11
303.8
 21
10.0
 31
0.0
  0
LINE
  5
137
100
AcDbEntity
  8
256
  6
CONTINUOUS
 62
           8
100
AcDbLine
 10
385.25
 20
277.0
 30
0.0
 11
385.25
 21
287.0
 31
0.0
  0
LINE
  5
138
100
AcDbEntity
  8
256
  6
CONTINUOUS
 62
           8
100
AcDbLine
 10
287.4
 20
31.0
 30
0.0
 11
287.4
 21
10.0
 31
0.0
  0
LINE
  5
139
100
AcDbEntity
  8
256
  6
CONTINUOUS
 62
           8
100
AcDbLine
 10
253.750031
 20
44.0
 30
0.0
 11
253.750031
 21
10.0
 31
0.0
  0
LINE
  5
13A
100
AcDbEntity
  8
256
  6
CONTINUOUS
 62
           8
100
AcDbLine
 10
410.0
 20
10.0
 30
0.0
 11
410.0
 21
287.0
 31
0.0
  0
LINE
  5
13B
100
AcDbEntity
  8
256
  6
CONTINUOUS
 62
           8
100
AcDbLine
 10
335.25
 20
15.666667
 30
0.0
 11
335.25
 21
48.0
 31
0.0
  0
LINE
  5
13C
100
AcDbEntity
  8
256
  6
CONTINUOUS
 62
           8
100
AcDbLine
 10
410.0
 20
287.0
 30
0.0
 11
10.0
 21
287.0
 31
0.0
  0
LINE
  5
13D
100
AcDbEntity
  8
256
  6
CONTINUOUS
 62
           8
100
AcDbLine
 10
362.0
 20
287.0
 30
0.0
 11
362.0
 21
257.0
 31
0.0
  0
LINE
  5
13E
100
AcDbEntity
  8
256
  6
CONTINUOUS
 62
           8
100
AcDbLine
 10
410.0
 20
267.0
 30
0.0
 11
227.0
 21
267.0
 31
0.0
  0
LINE
  5
13F
100
AcDbEntity
  8
256
  6
CONTINUOUS
 62
           8
100
AcDbLine
 10
410.0
 20
277.0
 30
0.0
 11
227.0
 21
277.0
 31
0.0
  0
LINE
  5
140
100
AcDbEntity
  8
256
  6
CONTINUOUS
 62
           8
100
AcDbLine
 10
271.0
 20
41.0
 30
0.0
 11
335.25
 21
41.0
 31
0.0
  0
LINE
  5
141
100
AcDbEntity
  8
256
  6
CONTINUOUS
 62
           8
100
AcDbLine
 10
222.0
 20
44.0
 30
0.0
 11
271.0
 21
44.0
 31
0.0
  0
LINE
  5
142
100
AcDbEntity
  8
256
  6
CONTINUOUS
 62
           8
100
AcDbLine
 10
232.011017
 20
261.664886
 30
0.0
 11
229.511017
 21
257.368011
 31
0.0
  0
LINE
  5
143
100
AcDbEntity
  8
256
  6
CONTINUOUS
 62
           8
100
AcDbLine
 10
248.000031
 20
38.0
 30
0.0
 11
222.0
 21
44.0
 31
0.0
  0
LINE
  5
144
100
AcDbEntity
  8
256
  6
CONTINUOUS
 62
           8
100
AcDbLine
 10
357.0
 20
262.0
 30
0.0
 11
227.0
 21
262.0
 31
0.0
  0
LINE
  5
145
100
AcDbEntity
  8
256
  6
CONTINUOUS
 62
           8
100
AcDbLine
 10
222.0
 20
31.0
 30
0.0
 11
320.25
 21
31.0
 31
0.0
  0
LINE
  5
146
100
AcDbEntity
  8
256
  6
CONTINUOUS
 62
           8
100
AcDbLine
 10
234.511017
 20
267.368011
 30
0.0
 11
232.011017
 21
271.664886
 31
0.0
  0
LINE
  5
147
100
AcDbEntity
  8
256
  6
CONTINUOUS
 62
           8
100
AcDbLine
 10
385.25
 20
282.0
 30
0.0
 11
362.0
 21
282.0
 31
0.0
  0
LINE
  5
148
100
AcDbEntity
  8
256
  6
CONTINUOUS
 62
           8
100
AcDbLine
 10
10.0
 20
10.0
 30
0.0
 11
410.0
 21
10.0
 31
0.0
  0
LINE
  5
149
100
AcDbEntity
  8
256
  6
CONTINUOUS
 62
           8
100
AcDbLine
 10
222.0
 20
48.0
 30
0.0
 11
410.0
 21
48.0
 31
0.0
  0
LINE
  5
14A
100
AcDbEntity
  8
256
  6
CONTINUOUS
 62
           8
100
AcDbLine
 10
227.000031
 20
10.0
 30
0.0
 11
410.0
 21
10.0
 31
0.0
  0
LINE
  5
14B
100
AcDbEntity
  8
256
  6
CONTINUOUS
 62
           8
100
AcDbLine
 10
342.0
 20
287.0
 30
0.0
 11
342.0
 21
257.0
 31
0.0
  0
LINE
  5
14C
100
AcDbEntity
  8
256
  6
CONTINUOUS
 62
           8
100
AcDbLine
 10
222.0
 20
13.5
 30
0.0
 11
271.000031
 21
13.5
 31
0.0
  0
LINE
  5
14D
100
AcDbEntity
  8
256
  6
CONTINUOUS
 62
           8
100
AcDbLine
 10
222.0
 20
20.5
 30
0.0
 11
271.0
 21
20.5
 31
0.0
  0
LINE
  5
14E
100
AcDbEntity
  8
256
  6
CONTINUOUS
 62
           8
100
AcDbLine
 10
222.0
 20
27.5
 30
0.0
 11
271.0
 21
27.5
 31
0.0
  0
LINE
  5
14F
100
AcDbEntity
  8
256
  6
CONTINUOUS
 62
           8
100
AcDbLine
 10
248.000031
 20
44.0
 30
0.0
 11
248.000031
 21
10.0
 31
0.0
  0
LINE
  5
150
100
AcDbEntity
  8
256
  6
CONTINUOUS
 62
           8
100
AcDbLine
 10
222.0
 20
48.0
 30
0.0
 11
222.0
 21
10.0
 31
0.0
  0
LINE
  5
151
100
AcDbEntity
  8
256
  6
CONTINUOUS
 62
           8
100
AcDbLine
 10
232.011017
 20
276.664886
 30
0.0
 11
229.511017
 21
272.368011
 31
0.0
  0
LINE
  5
152
100
AcDbEntity
  8
256
  6
CONTINUOUS
 62
           8
100
AcDbLine
 10
357.0
 20
282.0
 30
0.0
 11
227.0
 21
282.0
 31
0.0
  0
LINE
  5
153
100
AcDbEntity
  8
256
  6
CONTINUOUS
 62
           8
100
AcDbLine
 10
229.511017
 20
267.368011
 30
0.0
 11
234.511017
 21
267.368011
 31
0.0
  0
LINE
  5
154
100
AcDbEntity
  8
256
  6
CONTINUOUS
 62
           8
100
AcDbLine
 10
222.0
 20
24.0
 30
0.0
 11
271.0
 21
24.0
 31
0.0
  0
LINE
  5
155
100
AcDbEntity
  8
256
  6
CONTINUOUS
 62
           8
100
AcDbLine
 10
232.011017
 20
281.664886
 30
0.0
 11
229.511017
 21
277.368011
 31
0.0
  0
LINE
  5
156
100
AcDbEntity
  8
256
  6
CONTINUOUS
 62
           8
100
AcDbLine
 10
265.250031
 20
44.0
 30
0.0
 11
265.250031
 21
10.0
 31
0.0
  0
LINE
  5
157
100
AcDbEntity
  8
256
  6
CONTINUOUS
 62
           8
100
AcDbLine
 10
229.511017
 20
277.368011
 30
0.0
 11
234.511017
 21
277.368011
 31
0.0
  0
LINE
  5
158
100
AcDbEntity
  8
256
  6
CONTINUOUS
 62
           8
100
AcDbLine
 10
320.25
 20
10.0
 30
0.0
 11
320.25
 21
48.0
 31
0.0
  0
LINE
  5
159
100
AcDbEntity
  8
256
  6
CONTINUOUS
 62
           8
100
AcDbLine
 10
232.011017
 20
271.664886
 30
0.0
 11
229.511017
 21
267.368011
 31
0.0
  0
LINE
  5
15A
100
AcDbEntity
  8
256
  6
CONTINUOUS
 62
           8
100
AcDbLine
 10
234.511017
 20
277.368011
 30
0.0
 11
232.011017
 21
281.664886
 31
0.0
  0
LINE
  5
15B
100
AcDbEntity
  8
256
  6
CONTINUOUS
 62
           8
100
AcDbLine
 10
222.0
 20
17.0
 30
0.0
 11
271.0
 21
17.0
 31
0.0
  0
LINE
  5
15C
100
AcDbEntity
  8
256
  6
CONTINUOUS
 62
           8
100
AcDbLine
 10
271.0
 20
48.0
 30
0.0
 11
271.0
 21
10.0
 31
0.0
  0
LINE
  5
15D
100
AcDbEntity
  8
256
  6
CONTINUOUS
 62
           8
100
AcDbLine
 10
357.0
 20
287.0
 30
0.0
 11
357.0
 21
257.0
 31
0.0
  0
LINE
  5
15E
100
AcDbEntity
  8
256
  6
CONTINUOUS
 62
           8
100
AcDbLine
 10
335.25
 20
35.0
 30
0.0
 11
410.0
 21
35.0
 31
0.0
  0
LINE
  5
15F
100
AcDbEntity
  8
256
  6
CONTINUOUS
 62
           8
100
AcDbLine
 10
227.0
 20
287.0
 30
0.0
 11
227.0
 21
257.0
 31
0.0
  0
LINE
  5
160
100
AcDbEntity
  8
256
  6
CONTINUOUS
 62
           8
100
AcDbLine
 10
327.0
 20
287.0
 30
0.0
 11
327.0
 21
257.0
 31
0.0
  0
LINE
  5
161
100
AcDbEntity
  8
256
  6
CONTINUOUS
 62
           8
100
AcDbLine
 10
229.511017
 20
272.368011
 30
0.0
 11
234.511017
 21
272.368011
 31
0.0
  0
LINE
  5
162
100
AcDbEntity
  8
256
  6
CONTINUOUS
 62
           8
100
AcDbLine
 10
259.500031
 20
44.0
 30
0.0
 11
259.500031
 21
10.0
 31
0.0
  0
LINE
  5
163
100
AcDbEntity
  8
256
  6
CONTINUOUS
 62
           8
100
AcDbLine
 10
320.25
 20
15.666667
 30
0.0
 11
410.0
 21
15.666667
 31
0.0
  0
LINE
  5
164
100
AcDbEntity
  8
256
  6
CONTINUOUS
 62
           8
100
AcDbLine
 10
229.511017
 20
257.368011
 30
0.0
 11
234.511017
 21
257.368011
 31
0.0
  0
LINE
  5
165
100
AcDbEntity
  8
256
  6
CONTINUOUS
 62
           8
100
AcDbLine
 10
232.011017
 20
266.664886
 30
0.0
 11
229.511017
 21
262.368011
 31
0.0
  0
LINE
  5
166
100
AcDbEntity
  8
256
  6
CONTINUOUS
 62
           8
100
AcDbLine
 10
410.0
 20
257.0
 30
0.0
 11
227.0
 21
257.0
 31
0.0
  0
LINE
  5
167
100
AcDbEntity
  8
256
  6
CONTINUOUS
 62
           8
100
AcDbLine
 10
234.511017
 20
257.368011
 30
0.0
 11
232.011017
 21
261.664886
 31
0.0
  0
LINE
  5
168
100
AcDbEntity
  8
256
  6
CONTINUOUS
 62
           8
100
AcDbLine
 10
271.0
 20
26.5
 30
0.0
 11
410.0
 21
26.5
 31
0.0
  0
LINE
  5
169
100
AcDbEntity
  8
256
  6
CONTINUOUS
 62
           8
100
AcDbLine
 10
10.0
 20
10.0
 30
0.0
 11
10.0
 21
287.0
 31
0.0
  0
LINE
  5
16A
100
AcDbEntity
  8
256
  6
CONTINUOUS
 62
           8
100
AcDbLine
 10
234.511017
 20
262.368011
 30
0.0
 11
232.011017
 21
266.664886
 31
0.0
  0
LINE
  5
16B
100
AcDbEntity
  8
256
  6
CONTINUOUS
 62
           8
100
AcDbLine
 10
350.25
 20
15.666667
 30
0.0
 11
350.25
 21
48.0
 31
0.0
  0
LINE
  5
16C
100
AcDbEntity
  8
256
  6
CONTINUOUS
 62
           8
100
AcDbLine
 10
307.164695
 20
32.573373
 30
0.0
 11
314.235801
 21
39.644442
 31
0.0
  0
LINE
  5
16D
100
AcDbEntity
  8
256
  6
CONTINUOUS
 62
           8
100
AcDbLine
 10
357.0
 20
272.0
 30
0.0
 11
227.0
 21
272.0
 31
0.0
  0
LINE
  5
16E
100
AcDbEntity
  8
256
  6
CONTINUOUS
 62
           8
100
AcDbLine
 10
234.511017
 20
272.368011
 30
0.0
 11
232.011017
 21
276.664886
 31
0.0
  0
TEXT
  5
16F
100
AcDbEntity
  8
256
 62
           8
100
AcDbText
 10
259.534121936184
 20
28.244792
 30
0.0
 40
1.75
  1
0.5  
 41
0.649350643158
  7
BIGFONT
 72
           1
 11
262.375031
 21
28.244792
 31
0.0
100
AcDbText
  0
TEXT
  5
170
100
AcDbEntity
  8
256
 62
           8
100
AcDbText
 10
248.034121936184
 20
21.244792
 30
0.0
 40
1.75
  1
0.2  
 41
0.649350643158
  7
BIGFONT
 72
           1
 11
250.875031
 21
21.244792
 31
0.0
100
AcDbText
  0
TEXT
  5
171
100
AcDbEntity
  8
256
 62
           8
100
AcDbText
 10
249.17048556171
 20
31.167292
 30
0.0
 40
1.75
  1
0.1
 41
0.649350643158
  7
BIGFONT
 72
           1
 11
250.875031
 21
31.167292
 31
0.0
100
AcDbText
  0
TEXT
  5
172
100
AcDbEntity
  8
256
 62
           8
100
AcDbText
 10
250.306849187237
 20
28.244792
 30
0.0
 40
1.75
  1
 
 41
0.649350643158
  7
BIGFONT
 72
           1
 11
250.875031
 21
28.244792
 31
0.0
100
AcDbText
  0
TEXT
  5
173
100
AcDbEntity
  8
256
 62
           8
100
AcDbText
 10
248.034121936184
 20
17.744792
 30
0.0
 40
1.75
  1
0.3  
 41
0.649350643158
  7
BIGFONT
 72
           1
 11
250.875031
 21
17.744792
 31
0.0
100
AcDbText
  0
TEXT
  5
174
100
AcDbEntity
  8
256
 62
           8
100
AcDbText
 10
276.031517774048
 20
42.856306
 30
0.0
 40
3.386667013168
  1
材    質  
 41
0.773036494723
  7
BIGFONT
 72
           1
 11
287.02719
 21
42.856306
 31
0.0
100
AcDbText
  0
TEXT
  5
175
100
AcDbEntity
  8
256
 62
           8
100
AcDbText
 10
254.92048556171
 20
38.167292
 30
0.0
 40
1.75
  1
0.1
 41
0.649350643158
  7
BIGFONT
 72
           1
 11
256.625031
 21
38.167292
 31
0.0
100
AcDbText
  0
TEXT
  5
176
100
AcDbEntity
  8
256
 62
           8
100
AcDbText
 10
256.056849187237
 20
35.244792
 30
0.0
 40
1.75
  1
 
 41
0.649350643158
  7
BIGFONT
 72
           1
 11
256.625031
 21
35.244792
 31
0.0
100
AcDbText
  0
TEXT
  5
177
100
AcDbEntity
  8
256
 62
           8
100
AcDbText
 10
267.556833187237
 20
17.167292
 30
0.0
 40
1.75
  1
6
 41
0.649350643158
  7
BIGFONT
 72
           1
 11
268.125015
 21
17.167292
 31
0.0
100
AcDbText
  0
TEXT
  5
178
100
AcDbEntity
  8
256
 62
           8
100
AcDbText
 10
267.556833187237
 20
14.244792
 30
0.0
 40
1.75
  1
 
 41
0.649350643158
  7
BIGFONT
 72
           1
 11
268.125015
 21
14.244792
 31
0.0
100
AcDbText
  0
TEXT
  5
179
100
AcDbEntity
  8
256
 62
           8
100
AcDbText
 10
266.42046956171
 20
24.167292
 30
0.0
 40
1.75
  1
2.5
 41
0.649350643158
  7
BIGFONT
 72
           1
 11
268.125015
 21
24.167292
 31
0.0
100
AcDbText
  0
TEXT
  5
17A
100
AcDbEntity
  8
256
 62
           8
100
AcDbText
 10
267.556833187237
 20
21.244792
 30
0.0
 40
1.75
  1
 
 41
0.649350643158
  7
BIGFONT
 72
           1
 11
268.125015
 21
21.244792
 31
0.0
100
AcDbText
  0
TEXT
  5
17B
100
AcDbEntity
  8
256
 62
           8
100
AcDbText
 10
304.825109298782
 20
42.980576
 30
0.0
 40
3.386667013168
  1
個 数  
 41
0.841750865454
  7
BIGFONT
 72
           1
 11
312.52208
 21
42.980576
 31
0.0
100
AcDbText
  0
TEXT
  5
17C
100
AcDbEntity
  8
256
 62
           8
100
AcDbText
 10
356.464972759148
 20
257.742347
 30
0.0
 40
2.8222219944
  1
理  
 41
0.811688283231
  7
BIGFONT
 72
           1
 11
360.130196
 21
257.742347
 31
0.0
100
AcDbText
  0
TEXT
  5
17D
100
AcDbEntity
  8
256
 62
           8
100
AcDbText
 10
253.566345208252
 20
41.133356
 30
0.0
 40
1.795199990273
  1
中級  
 41
0.885478146445
  7
BIGFONT
 72
           1
 11
257.063488
 21
41.133356
 31
0.0
100
AcDbText
  0
TEXT
  5
17E
100
AcDbEntity
  8
256
 62
           8
100
AcDbText
 10
265.51667078421
 20
39.076539
 30
0.0
 40
2.0
  1
v ±  
 41
0.624375618421
  7
BIGFONT
 72
           1
 11
268.763424
 21
39.076539
 31
0.0
100
AcDbText
  0
TEXT
  5
17F
100
AcDbEntity
  8
256
 62
           8
100
AcDbText
 10
223.633835489471
 20
10.744792
 30
0.0
 40
1.75
  1
2000を超え4000以下  
 41
0.811688303947
  7
BIGFONT
 72
           2
 11
246.361108
 21
10.744792
 31
0.0
100
AcDbText
  0
TEXT
  5
180
100
AcDbEntity
  8
256
 62
           8
100
AcDbText
 10
309.731836887024
 20
32.880846
 30
0.0
 40
3.386667013168
  1
1台  
 41
0.773036494723
  7
BIGFONT
 72
           1
 11
315.229673
 21
32.880846
 31
0.0
100
AcDbText
  0
TEXT
  5
181
100
AcDbEntity
  8
256
 62
           8
100
AcDbText
 10
223.656390489471
 20
21.244792
 30
0.0
 40
1.75
  1
 120を超え 400以下  
 41
0.811688303947
  7
BIGFONT
 72
           2
 11
246.383663
 21
21.244792
 31
0.0
100
AcDbText
  0
TEXT
  5
182
100
AcDbEntity
  8
256
 62
           8
100
AcDbText
 10
383.981927181145
 20
278.047566
 30
0.0
 40
3.386667013168
  1
取  
 41
0.81168830626
  7
BIGFONT
 72
           1
 11
388.380196
 21
278.047566
 31
0.0
100
AcDbText
  0
TEXT
  5
183
100
AcDbEntity
  8
256
 62
           8
100
AcDbText
 10
383.981927181145
 20
282.575181
 30
0.0
 40
3.386667013168
  1
面  
 41
0.81168830626
  7
BIGFONT
 72
           1
 11
388.380196
 21
282.575181
 31
0.0
100
AcDbText
  0
TEXT
  5
184
100
AcDbEntity
  8
256
 62
           8
100
AcDbText
 10
222.431649984081
 20
38.623908
 30
0.0
 40
1.5
  1
寸法の区分(mm)  
 41
0.865800890658
  7
BIGFONT
 72
           1
 11
230.223858
 21
38.623908
 31
0.0
100
AcDbText
  0
TEXT
  5
185
100
AcDbEntity
  8
256
 62
           8
100
AcDbText
 10
335.514533298782
 20
19.692223
 30
0.0
 40
3.386667013168
  1
図 番  
 41
0.841750865454
  7
BIGFONT
 72
           1
 11
343.211504
 21
19.692223
 31
0.0
100
AcDbText
  0
TEXT
  5
186
100
AcDbEntity
  8
256
 62
           8
100
AcDbText
 10
259.534121936184
 20
31.744792
 30
0.0
 40
1.75
  1
0.3  
 41
0.649350643158
  7
BIGFONT
 72
           1
 11
262.375031
 21
31.744792
 31
0.0
100
AcDbText
  0
TEXT
  5
187
100
AcDbEntity
  8
256
 62
           8
100
AcDbText
 10
355.731927181145
 20
268.089407
 30
0.0
 40
3.386667013168
  1
理  
 41
0.81168830626
  7
BIGFONT
 72
           1
 11
360.130196
 21
268.089407
 31
0.0
100
AcDbText
  0
TEXT
  5
188
100
AcDbEntity
  8
256
 62
           8
100
AcDbText
 10
223.642279489471
 20
14.244792
 30
0.0
 40
1.75
  1
1000を超え2000以下  
 41
0.811688303947
  7
BIGFONT
 72
           2
 11
246.369552
 21
14.244792
 31
0.0
100
AcDbText
  0
TEXT
  5
189
100
AcDbEntity
  8
256
 62
           8
100
AcDbText
 10
266.42046956171
 20
27.667292
 30
0.0
 40
1.75
  1
1.5
 41
0.649350643158
  7
BIGFONT
 72
           1
 11
268.125015
 21
27.667292
 31
0.0
100
AcDbText
  0
TEXT
  5
18A
100
AcDbEntity
  8
256
 62
           8
100
AcDbText
 10
267.556833187237
 20
24.744792
 30
0.0
 40
1.75
  1
 
 41
0.649350643158
  7
BIGFONT
 72
           1
 11
268.125015
 21
24.744792
 31
0.0
100
AcDbText
  0
TEXT
  5
18B
100
AcDbEntity
  8
256
 62
           8
100
AcDbText
 10
259.534121936184
 20
35.244792
 30
0.0
 40
1.75
  1
0.2  
 41
0.649350643158
  7
BIGFONT
 72
           1
 11
262.375031
 21
35.244792
 31
0.0
100
AcDbText
  0
TEXT
  5
18C
100
AcDbEntity
  8
256
 62
           8
100
AcDbText
 10
342.087152425796
 20
288.66922589
 30
0.0
 40
3.386667013168
  1
年月日   
 41
0.885478128284
  7
BIGFONT
 72
           1
 11
351.983257
 21
288.66922589
 31
0.0
100
AcDbText
  0
TEXT
  5
18D
100
AcDbEntity
  8
256
 62
           8
100
AcDbText
 10
350.883689825088
 20
283.013492
 30
0.0
 40
3.386667013168
  1
 
 41
0.649350627408
  7
BIGFONT
 72
           1
 11
351.983257
 21
283.013492
 31
0.0
100
AcDbText
  0
TEXT
  5
18E
100
AcDbEntity
  8
256
 62
           8
100
AcDbText
 10
247.465940123421
 20
31.744792
 30
0.0
 40
1.75
  1
0.05  
 41
0.649350643158
  7
BIGFONT
 72
           1
 11
250.875031
 21
31.744792
 31
0.0
100
AcDbText
  0
TEXT
  5
18F
100
AcDbEntity
  8
256
 62
           8
100
AcDbText
 10
247.465940123421
 20
35.244792
 30
0.0
 40
1.75
  1
0.05  
 41
0.649350643158
  7
BIGFONT
 72
           1
 11
250.875031
 21
35.244792
 31
0.0
100
AcDbText
  0
TEXT
  5
190
100
AcDbEntity
  8
256
 62
           8
100
AcDbText
 10
261.806849187237
 20
13.667292
 30
0.0
 40
1.75
  1
4
 41
0.649350643158
  7
BIGFONT
 72
           1
 11
262.375031
 21
13.667292
 31
0.0
100
AcDbText
  0
TEXT
  5
191
100
AcDbEntity
  8
256
 62
           8
100
AcDbText
 10
261.806849187237
 20
10.744792
 30
0.0
 40
1.75
  1
 
 41
0.649350643158
  7
BIGFONT
 72
           1
 11
262.375031
 21
10.744792
 31
0.0
100
AcDbText
  0
TEXT
  5
192
100
AcDbEntity
  8
256
 62
           8
100
AcDbText
 10
335.562652298782
 20
40.051182
 30
0.0
 40
3.386667013168
  1
名 称  
 41
0.841750865454
  7
BIGFONT
 72
           1
 11
343.259623
 21
40.051182
 31
0.0
100
AcDbText
  0
TEXT
  5
193
100
AcDbEntity
  8
256
 62
           8
100
AcDbText
 10
272.345718298782
 20
27.073014
 30
0.0
 40
3.386667013168
  1
設 計  
 41
0.841750865454
  7
BIGFONT
 72
           1
 11
280.042689
 21
27.073014
 31
0.0
100
AcDbText
  0
TEXT
  5
194
100
AcDbEntity
  8
256
 62
           8
100
AcDbText
 10
267.556833187237
 20
20.667292
 30
0.0
 40
1.75
  1
4
 41
0.649350643158
  7
BIGFONT
 72
           1
 11
268.125015
 21
20.667292
 31
0.0
100
AcDbText
  0
TEXT
  5
195
100
AcDbEntity
  8
256
 62
           8
100
AcDbText
 10
267.556833187237
 20
17.744792
 30
0.0
 40
1.75
  1
 
 41
0.649350643158
  7
BIGFONT
 72
           1
 11
268.125015
 21
17.744792
 31
0.0
100
AcDbText
  0
TEXT
  5
196
100
AcDbEntity
  8
256
 62
           8
100
AcDbText
 10
253.784121936184
 20
28.244792
 30
0.0
 40
1.75
  1
0.2  
 41
0.649350643158
  7
BIGFONT
 72
           1
 11
256.625031
 21
28.244792
 31
0.0
100
AcDbText
  0
TEXT
  5
197
100
AcDbEntity
  8
256
 62
           8
100
AcDbText
 10
223.640901489471
 20
17.744792
 30
0.0
 40
1.75
  1
 400を超え1000以下  
 41
0.811688303947
  7
BIGFONT
 72
           2
 11
246.368174
 21
17.744792
 31
0.0
100
AcDbText
  0
TEXT
  5
198
100
AcDbEntity
  8
256
 62
           8
100
AcDbText
 10
248.034121936184
 20
14.244792
 30
0.0
 40
1.75
  1
0.5  
 41
0.649350643158
  7
BIGFONT
 72
           1
 11
250.875031
 21
14.244792
 31
0.0
100
AcDbText
  0
TEXT
  5
199
100
AcDbEntity
  8
256
 62
           8
100
AcDbText
 10
254.01668678421
 20
39.076539
 30
0.0
 40
2.0
  1
m ±  
 41
0.624375618421
  7
BIGFONT
 72
           1
 11
257.26344
 21
39.076539
 31
0.0
100
AcDbText
  0
TEXT
  5
19A
100
AcDbEntity
  8
256
 62
           8
100
AcDbText
 10
223.717181489471
 20
35.244792
 30
0.0
 40
1.75
  1
 0.5を超え   3以下  
 41
0.811688303947
  7
BIGFONT
 72
           2
 11
246.444454
 21
35.244792
 31
0.0
100
AcDbText
  0
TEXT
  5
19B
100
AcDbEntity
  8
256
 62
           8
100
AcDbText
 10
223.718623489471
 20
31.744792
 30
0.0
 40
1.75
  1
   3を超え   6以下  
 41
0.811688303947
  7
BIGFONT
 72
           2
 11
246.445896
 21
31.744792
 31
0.0
100
AcDbText
  0
TEXT
  5
19C
100
AcDbEntity
  8
256
 62
           8
100
AcDbText
 10
334.981490545792
 20
29.512776
 30
0.0
 40
2.539999961853
  1
部品番号  
 41
0.954927463879
  7
BIGFONT
 72
           1
 11
343.228244
 21
29.512776
 31
0.0
100
AcDbText
  0
TEXT
  5
19D
100
AcDbEntity
  8
256
 62
           8
100
AcDbText
 10
247.698127208252
 20
41.133356
 30
0.0
 40
1.795199990273
  1
精級  
 41
0.885478146445
  7
BIGFONT
 72
           1
 11
251.19527
 21
41.133356
 31
0.0
100
AcDbText
  0
TEXT
  5
19E
100
AcDbEntity
  8
256
 62
           8
100
AcDbText
 10
223.671941489471
 20
24.744792
 30
0.0
 40
1.75
  1
  30を超え 120以下  
 41
0.811688303947
  7
BIGFONT
 72
           2
 11
246.399214
 21
24.744792
 31
0.0
100
AcDbText
  0
TEXT
  5
19F
100
AcDbEntity
  8
256
 62
           8
100
AcDbText
 10
259.534121936184
 20
24.744792
 30
0.0
 40
1.75
  1
0.8  
 41
0.649350643158
  7
BIGFONT
 72
           1
 11
262.375031
 21
24.744792
 31
0.0
100
AcDbText
  0
TEXT
  5
1A0
100
AcDbEntity
  8
256
 62
           8
100
AcDbText
 10
237.545170176315
 20
40.925781
 30
0.0
 40
1.5
  1
公差等級  
 41
0.954927416409
  7
BIGFONT
 72
           1
 11
242.4153
 21
40.925781
 31
0.0
100
AcDbText
  0
TEXT
  5
1A1
100
AcDbEntity
  8
256
 62
           8
100
AcDbText
 10
223.702880489471
 20
28.244792
 30
0.0
 40
1.75
  1
   6を超え  30以下  
 41
0.811688303947
  7
BIGFONT
 72
           2
 11
246.430153
 21
28.244792
 31
0.0
100
AcDbText
  0
TEXT
  5
1A2
100
AcDbEntity
  8
256
 62
           8
100
AcDbText
 10
261.14003267511
 20
282.942152
 30
0.0
 40
3.386667013168
  1
訂    正    内    容  
 41
0.759878408754
  7
BIGFONT
 72
           1
 11
285.330511
 21
282.942152
 31
0.0
100
AcDbText
  0
TEXT
  5
1A3
100
AcDbEntity
  8
256
 62
           8
100
AcDbText
 10
253.784121936184
 20
24.744792
 30
0.0
 40
1.75
  1
0.3  
 41
0.649350643158
  7
BIGFONT
 72
           1
 11
256.625031
 21
24.744792
 31
0.0
100
AcDbText
  0
TEXT
  5
1A4
100
AcDbEntity
  8
256
 62
           8
100
AcDbText
 10
261.806849187237
 20
20.667292
 30
0.0
 40
1.75
  1
2
 41
0.649350643158
  7
BIGFONT
 72
           1
 11
262.375031
 21
20.667292
 31
0.0
100
AcDbText
  0
TEXT
  5
1A5
100
AcDbEntity
  8
256
 62
           8
100
AcDbText
 10
261.806849187237
 20
17.744792
 30
0.0
 40
1.75
  1
 
 41
0.649350643158
  7
BIGFONT
 72
           1
 11
262.375031
 21
17.744792
 31
0.0
100
AcDbText
  0
TEXT
  5
1A6
100
AcDbEntity
  8
256
 62
           8
100
AcDbText
 10
261.806849187237
 20
17.167292
 30
0.0
 40
1.75
  1
3
 41
0.649350643158
  7
BIGFONT
 72
           1
 11
262.375031
 21
17.167292
 31
0.0
100
AcDbText
  0
TEXT
  5
1A7
100
AcDbEntity
  8
256
 62
           8
100
AcDbText
 10
261.806849187237
 20
14.244792
 30
0.0
 40
1.75
  1
 
 41
0.649350643158
  7
BIGFONT
 72
           1
 11
262.375031
 21
14.244792
 31
0.0
100
AcDbText
  0
TEXT
  5
1A8
100
AcDbEntity
  8
256
 62
           8
100
AcDbText
 10
319.890783481499
 20
19.668163
 30
0.0
 40
3.386667013168
  1
三角法  
 41
0.927643766011
  7
BIGFONT
 72
           1
 11
328.687321
 21
19.668163
 31
0.0
100
AcDbText
  0
TEXT
  5
1A9
100
AcDbEntity
  8
256
 62
           8
100
AcDbText
 10
331.838807100906
 20
11.0735
 30
0.0
 40
3.386667013168
  1
双 葉 電 子 工 業 株 式 会 社  
 41
0.875211727445
  7
BIGFONT
 72
           1
 11
365.92539
 21
11.0735
 31
0.0
100
AcDbText
  0
TEXT
  5
1AA
100
AcDbEntity
  8
256
 62
           8
100
AcDbText
 10
253.784121936184
 20
17.744792
 30
0.0
 40
1.75
  1
0.8  
 41
0.649350643158
  7
BIGFONT
 72
           1
 11
256.625031
 21
17.744792
 31
0.0
100
AcDbText
  0
TEXT
  5
1AB
100
AcDbEntity
  8
256
 62
           8
100
AcDbText
 10
305.072912298782
 20
27.273035
 30
0.0
 40
3.386667013168
  1
承 認  
 41
0.841750865454
  7
BIGFONT
 72
           1
 11
312.769883
 21
27.273035
 31
0.0
100
AcDbText
  0
TEXT
  5
1AC
100
AcDbEntity
  8
256
 62
           8
100
AcDbText
 10
266.42046956171
 20
28.244792
 30
0.0
 40
1.75
  1
1  
 41
0.649350643158
  7
BIGFONT
 72
           1
 11
268.125015
 21
28.244792
 31
0.0
100
AcDbText
  0
TEXT
  5
1AD
100
AcDbEntity
  8
256
 62
           8
100
AcDbText
 10
223.893800680275
 20
45.235875
 30
0.0
 40
1.700000047684
  1
削り加工寸法の普通許容差 JIS B 0405-1991  
 41
0.841750859459
  7
BIGFONT
 72
           1
 11
247.07562
 21
45.235875
 31
0.0
100
AcDbText
  0
TEXT
  5
1AE
100
AcDbEntity
  8
256
 62
           8
100
AcDbText
 10
247.465940123421
 20
24.744792
 30
0.0
 40
1.75
  1
0.15  
 41
0.649350643158
  7
BIGFONT
 72
           1
 11
250.875031
 21
24.744792
 31
0.0
100
AcDbText
  0
TEXT
  5
1AF
100
AcDbEntity
  8
256
 62
           8
100
AcDbText
 10
250.050355678421
 20
14.081384
 30
0.0
 40
2.539999961853
  1
-
 41
0.649350656665
  7
BIGFONT
 72
           1
 11
250.875031
 21
14.081384
 31
0.0
100
AcDbText
  0
TEXT
  5
1B0
100
AcDbEntity
  8
256
 62
           8
100
AcDbText
 10
250.050355678421
 20
9.839584
 30
0.0
 40
2.539999961853
  1
 
 41
0.649350656665
  7
BIGFONT
 72
           1
 11
250.875031
 21
9.839584
 31
0.0
100
AcDbText
  0
TEXT
  5
1B1
100
AcDbEntity
  8
256
 62
           8
100
AcDbText
 10
288.348264298782
 20
27.214792
 30
0.0
 40
3.386667013168
  1
検 図  
 41
0.841750865454
  7
BIGFONT
 72
           1
 11
296.045235
 21
27.214792
 31
0.0
100
AcDbText
  0
TEXT
  5
1B2
100
AcDbEntity
  8
256
 62
           8
100
AcDbText
 10
267.300339678421
 20
38.581384
 30
0.0
 40
2.539999961853
  1
-
 41
0.649350656665
  7
BIGFONT
 72
           1
 11
268.125015
 21
38.581384
 31
0.0
100
AcDbText
  0
TEXT
  5
1B3
100
AcDbEntity
  8
256
 62
           8
100
AcDbText
 10
267.300339678421
 20
34.339584
 30
0.0
 40
2.539999961853
  1
 
 41
0.649350656665
  7
BIGFONT
 72
           1
 11
268.125015
 21
34.339584
 31
0.0
100
AcDbText
  0
TEXT
  5
1B4
100
AcDbEntity
  8
256
 62
           8
100
AcDbText
 10
254.92048556171
 20
34.667292
 30
0.0
 40
1.75
  1
0.1
 41
0.649350643158
  7
BIGFONT
 72
           1
 11
256.625031
 21
34.667292
 31
0.0
100
AcDbText
  0
TEXT
  5
1B5
100
AcDbEntity
  8
256
 62
           8
100
AcDbText
 10
256.056849187237
 20
31.744792
 30
0.0
 40
1.75
  1
 
 41
0.649350643158
  7
BIGFONT
 72
           1
 11
256.625031
 21
31.744792
 31
0.0
100
AcDbText
  0
TEXT
  5
1B6
100
AcDbEntity
  8
256
 62
           8
100
AcDbText
 10
259.76668678421
 20
39.076539
 30
0.0
 40
2.0
  1
c ±  
 41
0.624375618421
  7
BIGFONT
 72
           1
 11
263.01344
 21
39.076539
 31
0.0
100
AcDbText
  0
TEXT
  5
1B7
100
AcDbEntity
  8
256
 62
           8
100
AcDbText
 10
355.731927181145
 20
278.047566
 30
0.0
 40
3.386667013168
  1
上  
 41
0.81168830626
  7
BIGFONT
 72
           1
 11
360.130196
 21
278.047566
 31
0.0
100
AcDbText
  0
TEXT
  5
1B8
100
AcDbEntity
  8
256
 62
           8
100
AcDbText
 10
226.150618950531
 20
282.92144
 30
0.0
 40
3.386667013168
  1
記号  
 41
0.885478128284
  7
BIGFONT
 72
           1
 11
232.748022
 21
282.92144
 31
0.0
100
AcDbText
  0
TEXT
  5
1B9
100
AcDbEntity
  8
256
 62
           8
100
AcDbText
 10
253.784121936184
 20
21.244792
 30
0.0
 40
1.75
  1
0.5  
 41
0.649350643158
  7
BIGFONT
 72
           1
 11
256.625031
 21
21.244792
 31
0.0
100
AcDbText
  0
TEXT
  5
1BA
100
AcDbEntity
  8
256
 62
           8
100
AcDbText
 10
256.056849187237
 20
13.667292
 30
0.0
 40
1.75
  1
2
 41
0.649350643158
  7
BIGFONT
 72
           1
 11
256.625031
 21
13.667292
 31
0.0
100
AcDbText
  0
TEXT
  5
1BB
100
AcDbEntity
  8
256
 62
           8
100
AcDbText
 10
256.056849187237
 20
10.744792
 30
0.0
 40
1.75
  1
 
 41
0.649350643158
  7
BIGFONT
 72
           1
 11
256.625031
 21
10.744792
 31
0.0
100
AcDbText
  0
TEXT
  5
1BC
100
AcDbEntity
  8
256
 62
           8
100
AcDbText
 10
260.67048556171
 20
24.167292
 30
0.0
 40
1.75
  1
1.2
 41
0.649350643158
  7
BIGFONT
 72
           1
 11
262.375031
 21
24.167292
 31
0.0
100
AcDbText
  0
TEXT
  5
1BD
100
AcDbEntity
  8
256
 62
           8
100
AcDbText
 10
261.806849187237
 20
21.244792
 30
0.0
 40
1.75
  1
 
 41
0.649350643158
  7
BIGFONT
 72
           1
 11
262.375031
 21
21.244792
 31
0.0
100
AcDbText
  0
TEXT
  5
1BE
100
AcDbEntity
  8
256
 62
           8
100
AcDbText
 10
355.731927181145
 20
282.575181
 30
0.0
 40
3.386667013168
  1
仕  
 41
0.81168830626
  7
BIGFONT
 72
           1
 11
360.130196
 21
282.575181
 31
0.0
100
AcDbText
  0
TEXT
  5
1BF
100
AcDbEntity
  8
256
 62
           8
100
AcDbText
 10
267.556833187237
 20
13.667292
 30
0.0
 40
1.75
  1
8
 41
0.649350643158
  7
BIGFONT
 72
           1
 11
268.125015
 21
13.667292
 31
0.0
100
AcDbText
  0
TEXT
  5
1C0
100
AcDbEntity
  8
256
 62
           8
100
AcDbText
 10
267.556833187237
 20
10.744792
 30
0.0
 40
1.75
  1
 
 41
0.649350643158
  7
BIGFONT
 72
           1
 11
268.125015
 21
10.744792
 31
0.0
100
AcDbText
  0
TEXT
  5
1C1
100
AcDbEntity
  8
256
 62
           8
100
AcDbText
 10
356.464972759148
 20
260.858133
 30
0.0
 40
2.8222219944
  1
処  
 41
0.811688283231
  7
BIGFONT
 72
           1
 11
360.130196
 21
260.858133
 31
0.0
100
AcDbText
  0
TEXT
  5
1C2
100
AcDbEntity
  8
256
 62
           8
100
AcDbText
 10
324.775701360718
 20
283.013492
 30
0.0
 40
3.386667013168
  1
担当者     
 41
0.830564805103
  7
BIGFONT
 72
           1
 11
336.870941
 21
283.013492
 31
0.0
100
AcDbText
  0
TEXT
  5
1C3
100
AcDbEntity
  8
256
 62
           8
100
AcDbText
 10
248.33098178421
 20
39.076539
 30
0.0
 40
2.0
  1
f ±  
 41
0.624375618421
  7
BIGFONT
 72
           1
 11
251.577735
 21
39.076539
 31
0.0
100
AcDbText
  0
TEXT
  5
1C4
100
AcDbEntity
  8
256
 62
           8
100
AcDbText
 10
356.464972759148
 20
263.973919
 30
0.0
 40
2.8222219944
  1
熱  
 41
0.811688283231
  7
BIGFONT
 72
           1
 11
360.130196
 21
263.973919
 31
0.0
100
AcDbText
  0
TEXT
  5
1C5
100
AcDbEntity
  8
256
 62
           8
100
AcDbText
 10
265.284105936184
 20
31.744792
 30
0.0
 40
1.75
  1
0.5  
 41
0.649350643158
  7
BIGFONT
 72
           1
 11
268.125015
 21
31.744792
 31
0.0
100
AcDbText
  0
TEXT
  5
1C6
100
AcDbEntity
  8
256
 62
           8
100
AcDbText
 10
320.797248298782
 20
43.012096
 30
0.0
 40
3.386667013168
  1
尺 度  
 41
0.841750865454
  7
BIGFONT
 72
           1
 11
328.494219
 21
43.012096
 31
0.0
100
AcDbText
  0
TEXT
  5
1C7
100
AcDbEntity
  8
256
 62
           8
100
AcDbText
 10
259.163046208252
 20
41.133356
 30
0.0
 40
1.795199990273
  1
粗級  
 41
0.885478146445
  7
BIGFONT
 72
           1
 11
262.660189
 21
41.133356
 31
0.0
100
AcDbText
  0
TEXT
  5
1C8
100
AcDbEntity
  8
256
 62
           8
100
AcDbText
 10
222.164604105789
 20
40.357732
 30
0.0
 40
1.5
  1
基準  
 41
0.885478149761
  7
BIGFONT
 72
           1
 11
225.086682
 21
40.357732
 31
0.0
100
AcDbText
  0
TEXT
  5
1C9
100
AcDbEntity
  8
256
 62
           8
100
AcDbText
 10
264.269802292526
 20
41.201556
 30
0.0
 40
1.583999991417
  1
極粗級  
 41
0.927643788277
  7
BIGFONT
 72
           1
 11
268.384088
 21
41.201556
 31
0.0
100
AcDbText
  0
TEXT
  5
1CA
100
AcDbEntity
  8
256
 62
           8
100
AcDbText
 10
254.92048556171
 20
17.167292
 30
0.0
 40
1.75
  1
1.2
 41
0.649350643158
  7
BIGFONT
 72
           1
 11
256.625031
 21
17.167292
 31
0.0
100
AcDbText
  0
TEXT
  5
1CB
100
AcDbEntity
  8
256
 62
           8
100
AcDbText
 10
256.056849187237
 20
14.244792
 30
0.0
 40
1.75
  1
 
 41
0.649350643158
  7
BIGFONT
 72
           1
 11
256.625031
 21
14.244792
 31
0.0
100
AcDbText
  0
TEXT
  5
1CC
100
AcDbEntity
  8
256
 62
           8
100
AcDbText
 10
355.731927181145
 20
272.53334
 30
0.0
 40
3.386667013168
  1
処  
 41
0.81168830626
  7
BIGFONT
 72
           1
 11
360.130196
 21
272.53334
 31
0.0
100
AcDbText
  0
INSERT
  5
1CD
100
AcDbEntity
  8
0
  6
CONTINUOUS
 62
           7
100
AcDbBlockReference
  2
AID278_$1$
 10
0.0
 20
0.0
 30
0.0
  0
LINE
  5
1CE
100
AcDbEntity
  8
1
  6
CONTINUOUS
 62
           7
100
AcDbLine
 10
139.92704
 20
199.810467
 30
0.0
 11
139.92704
 21
200.486803
 31
0.0
  0
LINE
  5
1CF
100
AcDbEntity
  8
1
  6
CONTINUOUS
 62
           7
100
AcDbLine
 10
139.250703
 20
199.810467
 30
0.0
 11
139.92704
 21
199.810467
 31
0.0
  0
LINE
  5
1D0
100
AcDbEntity
  8
1
  6
CONTINUOUS
 62
           7
100
AcDbLine
 10
140.47704
 20
191.310467
 30
0.0
 11
140.47704
 21
191.986803
 31
0.0
  0
LINE
  5
1D1
100
AcDbEntity
  8
1
  6
CONTINUOUS
 62
           7
100
AcDbLine
 10
141.153376
 20
191.310467
 30
0.0
 11
140.47704
 21
191.310467
 31
0.0
  0
LINE
  5
1D2
100
AcDbEntity
  8
1
  6
CONTINUOUS
 62
           7
100
AcDbLine
 10
140.47704
 20
190.760467
 30
0.0
 11
141.153376
 21
190.760467
 31
0.0
  0
LINE
  5
1D3
100
AcDbEntity
  8
1
  6
CONTINUOUS
 62
           7
100
AcDbLine
 10
140.47704
 20
190.08413
 30
0.0
 11
140.47704
 21
190.760467
 31
0.0
  0
LINE
  5
1D4
100
AcDbEntity
  8
1
  6
CONTINUOUS
 62
           7
100
AcDbLine
 10
139.92704
 20
198.58413
 30
0.0
 11
139.92704
 21
199.260467
 31
0.0
  0
LINE
  5
1D5
100
AcDbEntity
  8
1
  6
CONTINUOUS
 62
           7
100
AcDbLine
 10
139.92704
 20
199.260467
 30
0.0
 11
139.250703
 21
199.260467
 31
0.0
  0
LINE
  5
1D6
100
AcDbEntity
  8
1
  6
CONTINUOUS
 62
           7
100
AcDbLine
 10
139.92704
 20
190.760467
 30
0.0
 11
139.92704
 21
190.08413
 31
0.0
  0
LINE
  5
1D7
100
AcDbEntity
  8
1
  6
CONTINUOUS
 62
           7
100
AcDbLine
 10
139.250703
 20
190.760467
 30
0.0
 11
139.92704
 21
190.760467
 31
0.0
  0
LINE
  5
1D8
100
AcDbEntity
  8
1
  6
CONTINUOUS
 62
           7
100
AcDbLine
 10
140.47704
 20
199.260467
 30
0.0
 11
140.47704
 21
198.58413
 31
0.0
  0
LINE
  5
1D9
100
AcDbEntity
  8
1
  6
CONTINUOUS
 62
           7
100
AcDbLine
 10
141.153376
 20
199.260467
 30
0.0
 11
140.47704
 21
199.260467
 31
0.0
  0
LINE
  5
1DA
100
AcDbEntity
  8
1
  6
CONTINUOUS
 62
           7
100
AcDbLine
 10
139.92704
 20
191.310467
 30
0.0
 11
139.250703
 21
191.310467
 31
0.0
  0
LINE
  5
1DB
100
AcDbEntity
  8
1
  6
CONTINUOUS
 62
           7
100
AcDbLine
 10
139.92704
 20
191.986803
 30
0.0
 11
139.92704
 21
191.310467
 31
0.0
  0
LINE
  5
1DC
100
AcDbEntity
  8
1
  6
CONTINUOUS
 62
           7
100
AcDbLine
 10
140.47704
 20
200.486803
 30
0.0
 11
140.47704
 21
199.810467
 31
0.0
  0
LINE
  5
1DD
100
AcDbEntity
  8
1
  6
CONTINUOUS
 62
           7
100
AcDbLine
 10
140.47704
 20
199.810467
 30
0.0
 11
141.153376
 21
199.810467
 31
0.0
  0
LINE
  5
1DE
100
AcDbEntity
  8
1
  6
CONTINUOUS
 62
           7
100
AcDbLine
 10
140.47704
 20
192.135467
 30
0.0
 11
139.92704
 21
192.135467
 31
0.0
  0
ARC
  5
1DF
100
AcDbEntity
  8
1
  6
CONTINUOUS
 62
           7
100
AcDbCircle
 10
140.20204
 20
191.035467
 30
0.0
 40
1.670201
100
AcDbArc
 50
170.523047
 51
189.476953
  0
LINE
  5
1E0
100
AcDbEntity
  8
1
  6
CONTINUOUS
 62
           7
100
AcDbLine
 10
139.92704
 20
189.935467
 30
0.0
 11
140.47704
 21
189.935467
 31
0.0
  0
LINE
  5
1E1
100
AcDbEntity
  8
1
  6
CONTINUOUS
 62
           7
100
AcDbLine
 10
139.92704
 20
190.08413
 30
0.0
 11
139.92704
 21
189.935467
 31
0.0
  0
LINE
  5
1E2
100
AcDbEntity
  8
1
  6
CONTINUOUS
 62
           7
100
AcDbLine
 10
138.554634
 20
190.760467
 30
0.0
 11
139.250703
 21
190.760467
 31
0.0
  0
LINE
  5
1E3
100
AcDbEntity
  8
1
  6
CONTINUOUS
 62
           7
100
AcDbLine
 10
139.250703
 20
191.310467
 30
0.0
 11
138.554634
 21
191.310467
 31
0.0
  0
LINE
  5
1E4
100
AcDbEntity
  8
1
  6
CONTINUOUS
 62
           7
100
AcDbLine
 10
139.92704
 20
192.135467
 30
0.0
 11
139.92704
 21
191.986803
 31
0.0
  0
LINE
  5
1E5
100
AcDbEntity
  8
1
  6
CONTINUOUS
 62
           7
100
AcDbLine
 10
140.47704
 20
191.986803
 30
0.0
 11
140.47704
 21
192.135467
 31
0.0
  0
LINE
  5
1E6
100
AcDbEntity
  8
1
  6
CONTINUOUS
 62
           7
100
AcDbLine
 10
141.849445
 20
191.310467
 30
0.0
 11
141.153376
 21
191.310467
 31
0.0
  0
LINE
  5
1E7
100
AcDbEntity
  8
1
  6
CONTINUOUS
 62
           7
100
AcDbLine
 10
141.153376
 20
190.760467
 30
0.0
 11
141.849445
 21
190.760467
 31
0.0
  0
LINE
  5
1E8
100
AcDbEntity
  8
1
  6
CONTINUOUS
 62
           7
100
AcDbLine
 10
140.47704
 20
189.935467
 30
0.0
 11
140.47704
 21
190.08413
 31
0.0
  0
ARC
  5
1E9
100
AcDbEntity
  8
1
  6
CONTINUOUS
 62
           7
100
AcDbCircle
 10
140.20204
 20
199.535467
 30
0.0
 40
1.670201
100
AcDbArc
 50
170.523047
 51
189.476953
  0
LINE
  5
1EA
100
AcDbEntity
  8
1
  6
CONTINUOUS
 62
           7
100
AcDbLine
 10
140.47704
 20
198.435467
 30
0.0
 11
139.92704
 21
198.435467
 31
0.0
  0
LINE
  5
1EB
100
AcDbEntity
  8
1
  6
CONTINUOUS
 62
           7
100
AcDbLine
 10
139.92704
 20
200.635467
 30
0.0
 11
140.47704
 21
200.635467
 31
0.0
  0
LINE
  5
1EC
100
AcDbEntity
  8
1
  6
CONTINUOUS
 62
           7
100
AcDbLine
 10
139.92704
 20
198.435467
 30
0.0
 11
139.92704
 21
198.58413
 31
0.0
  0
LINE
  5
1ED
100
AcDbEntity
  8
1
  6
CONTINUOUS
 62
           7
100
AcDbLine
 10
140.47704
 20
198.58413
 30
0.0
 11
140.47704
 21
198.435467
 31
0.0
  0
LINE
  5
1EE
100
AcDbEntity
  8
1
  6
CONTINUOUS
 62
           7
100
AcDbLine
 10
141.849445
 20
199.260467
 30
0.0
 11
141.153376
 21
199.260467
 31
0.0
  0
LINE
  5
1EF
100
AcDbEntity
  8
1
  6
CONTINUOUS
 62
           7
100
AcDbLine
 10
140.47704
 20
200.635467
 30
0.0
 11
140.47704
 21
200.486803
 31
0.0
  0
LINE
  5
1F0
100
AcDbEntity
  8
1
  6
CONTINUOUS
 62
           7
100
AcDbLine
 10
139.92704
 20
200.486803
 30
0.0
 11
139.92704
 21
200.635467
 31
0.0
  0
LINE
  5
1F1
100
AcDbEntity
  8
1
  6
CONTINUOUS
 62
           7
100
AcDbLine
 10
138.554634
 20
199.810467
 30
0.0
 11
139.250703
 21
199.810467
 31
0.0
  0
LINE
  5
1F2
100
AcDbEntity
  8
1
  6
CONTINUOUS
 62
           7
100
AcDbLine
 10
139.250703
 20
199.260467
 30
0.0
 11
138.554634
 21
199.260467
 31
0.0
  0
LINE
  5
1F3
100
AcDbEntity
  8
1
  6
CONTINUOUS
 62
           7
100
AcDbLine
 10
141.153376
 20
199.810467
 30
0.0
 11
141.849445
 21
199.810467
 31
0.0
  0
ARC
  5
1F4
100
AcDbEntity
  8
1
  6
CONTINUOUS
 62
           7
100
AcDbCircle
 10
134.45204
 20
188.285467
 30
0.0
 40
1.0
100
AcDbArc
 50
270.0
 51
0.0
  0
LINE
  5
1F5
100
AcDbEntity
  8
1
  6
CONTINUOUS
 62
           7
100
AcDbLine
 10
135.45204
 20
202.285467
 30
0.0
 11
135.45204
 21
188.285467
 31
0.0
  0
POLYLINE
  5
1F6
100
AcDbEntity
  8
1
  6
CONTINUOUS
 62
           7
100
AcDb2dPolyline
 66
           1
 10
0.0
 20
0.0
 30
0.0
  0
VERTEX
  5
1F7
100
AcDbEntity
  8
1
  6
CONTINUOUS
 62
           7
100
AcDbVertex
100
AcDb2dVertex
 10
129.381912
 20
187.285467
 30
0.0
  0
VERTEX
  5
1F8
100
AcDbEntity
  8
1
  6
CONTINUOUS
 62
           7
100
AcDbVertex
100
AcDb2dVertex
 10
129.439913
 20
187.373685
 30
0.0
  0
VERTEX
  5
1F9
100
AcDbEntity
  8
1
  6
CONTINUOUS
 62
           7
100
AcDbVertex
100
AcDb2dVertex
 10
129.496224
 20
187.464436
 30
0.0
  0
VERTEX
  5
1FA
100
AcDbEntity
  8
1
  6
CONTINUOUS
 62
           7
100
AcDbVertex
100
AcDb2dVertex
 10
129.508845
 20
187.485467
 30
0.0
  0
SEQEND
  5
1FB
100
AcDbEntity
  8
1
  6
CONTINUOUS
 62
           7
  0
ARC
  5
1FC
100
AcDbEntity
  8
1
  6
CONTINUOUS
 62
           7
100
AcDbCircle
 10
128.452508
 20
186.915135
 30
0.0
 40
1.000469
100
AcDbArc
 50
21.72536
 51
158.27464
  0
POLYLINE
  5
1FD
100
AcDbEntity
  8
1
  6
CONTINUOUS
 62
           7
100
AcDb2dPolyline
 66
           1
 10
0.0
 20
0.0
 30
0.0
  0
VERTEX
  5
1FE
100
AcDbEntity
  8
1
  6
CONTINUOUS
 62
           7
100
AcDbVertex
100
AcDb2dVertex
 10
127.523104
 20
187.285467
 30
0.0
  0
VERTEX
  5
1FF
100
AcDbEntity
  8
1
  6
CONTINUOUS
 62
           7
100
AcDbVertex
100
AcDb2dVertex
 10
127.465104
 20
187.373685
 30
0.0
  0
VERTEX
  5
200
100
AcDbEntity
  8
1
  6
CONTINUOUS
 62
           7
100
AcDbVertex
100
AcDb2dVertex
 10
127.408793
 20
187.464436
 30
0.0
  0
VERTEX
  5
201
100
AcDbEntity
  8
1
  6
CONTINUOUS
 62
           7
100
AcDbVertex
100
AcDb2dVertex
 10
127.396172
 20
187.485467
 30
0.0
  0
SEQEND
  5
202
100
AcDbEntity
  8
1
  6
CONTINUOUS
 62
           7
  0
LINE
  5
203
100
AcDbEntity
  8
1
  6
CONTINUOUS
 62
           7
100
AcDbLine
 10
111.05204
 20
203.285467
 30
0.0
 11
122.02314
 21
203.285467
 31
0.0
  0
POLYLINE
  5
204
100
AcDbEntity
  8
1
  6
CONTINUOUS
 62
           7
100
AcDb2dPolyline
 66
           1
 10
0.0
 20
0.0
 30
0.0
  0
VERTEX
  5
205
100
AcDbEntity
  8
1
  6
CONTINUOUS
 62
           7
100
AcDbVertex
100
AcDb2dVertex
 10
121.896236
 20
203.085467
 30
0.0
  0
VERTEX
  5
206
100
AcDbEntity
  8
1
  6
CONTINUOUS
 62
           7
100
AcDbVertex
100
AcDb2dVertex
 10
121.953407
 20
203.178731
 30
0.0
  0
VERTEX
  5
207
100
AcDbEntity
  8
1
  6
CONTINUOUS
 62
           7
100
AcDbVertex
100
AcDb2dVertex
 10
122.010406
 20
203.266552
 30
0.0
  0
VERTEX
  5
208
100
AcDbEntity
  8
1
  6
CONTINUOUS
 62
           7
100
AcDbVertex
100
AcDb2dVertex
 10
122.02314
 20
203.285467
 30
0.0
  0
SEQEND
  5
209
100
AcDbEntity
  8
1
  6
CONTINUOUS
 62
           7
  0
LINE
  5
20A
100
AcDbEntity
  8
1
  6
CONTINUOUS
 62
           7
100
AcDbLine
 10
123.880939
 20
203.285467
 30
0.0
 11
124.772636
 21
203.285467
 31
0.0
  0
POLYLINE
  5
20B
100
AcDbEntity
  8
1
  6
CONTINUOUS
 62
           7
100
AcDb2dPolyline
 66
           1
 10
0.0
 20
0.0
 30
0.0
  0
VERTEX
  5
20C
100
AcDbEntity
  8
1
  6
CONTINUOUS
 62
           7
100
AcDbVertex
100
AcDb2dVertex
 10
124.645703
 20
203.085467
 30
0.0
  0
VERTEX
  5
20D
100
AcDbEntity
  8
1
  6
CONTINUOUS
 62
           7
100
AcDbVertex
100
AcDb2dVertex
 10
124.702894
 20
203.17874
 30
0.0
  0
VERTEX
  5
20E
100
AcDbEntity
  8
1
  6
CONTINUOUS
 62
           7
100
AcDbVertex
100
AcDb2dVertex
 10
124.7599
 20
203.266554
 30
0.0
  0
VERTEX
  5
20F
100
AcDbEntity
  8
1
  6
CONTINUOUS
 62
           7
100
AcDbVertex
100
AcDb2dVertex
 10
124.772636
 20
203.285467
 30
0.0
  0
SEQEND
  5
210
100
AcDbEntity
  8
1
  6
CONTINUOUS
 62
           7
  0
POLYLINE
  5
211
100
AcDbEntity
  8
1
  6
CONTINUOUS
 62
           7
100
AcDb2dPolyline
 66
           1
 10
0.0
 20
0.0
 30
0.0
  0
VERTEX
  5
212
100
AcDbEntity
  8
1
  6
CONTINUOUS
 62
           7
100
AcDbVertex
100
AcDb2dVertex
 10
124.007844
 20
203.085467
 30
0.0
  0
VERTEX
  5
213
100
AcDbEntity
  8
1
  6
CONTINUOUS
 62
           7
100
AcDbVertex
100
AcDb2dVertex
 10
123.950673
 20
203.178731
 30
0.0
  0
VERTEX
  5
214
100
AcDbEntity
  8
1
  6
CONTINUOUS
 62
           7
100
AcDbVertex
100
AcDb2dVertex
 10
123.893673
 20
203.266552
 30
0.0
  0
VERTEX
  5
215
100
AcDbEntity
  8
1
  6
CONTINUOUS
 62
           7
100
AcDbVertex
100
AcDb2dVertex
 10
123.880939
 20
203.285467
 30
0.0
  0
SEQEND
  5
216
100
AcDbEntity
  8
1
  6
CONTINUOUS
 62
           7
  0
ARC
  5
217
100
AcDbEntity
  8
1
  6
CONTINUOUS
 62
           7
100
AcDbCircle
 10
134.45204
 20
202.285467
 30
0.0
 40
1.0
100
AcDbArc
 50
0.0
 51
90.0
  0
POLYLINE
  5
218
100
AcDbEntity
  8
1
  6
CONTINUOUS
 62
           7
100
AcDb2dPolyline
 66
           1
 10
0.0
 20
0.0
 30
0.0
  0
VERTEX
  5
219
100
AcDbEntity
  8
1
  6
CONTINUOUS
 62
           7
100
AcDbVertex
100
AcDb2dVertex
 10
122.02314
 20
187.285467
 30
0.0
  0
VERTEX
  5
21A
100
AcDbEntity
  8
1
  6
CONTINUOUS
 62
           7
100
AcDbVertex
100
AcDb2dVertex
 10
121.965147
 20
187.373693
 30
0.0
  0
VERTEX
  5
21B
100
AcDbEntity
  8
1
  6
CONTINUOUS
 62
           7
100
AcDbVertex
100
AcDb2dVertex
 10
121.908852
 20
187.464439
 30
0.0
  0
VERTEX
  5
21C
100
AcDbEntity
  8
1
  6
CONTINUOUS
 62
           7
100
AcDbVertex
100
AcDb2dVertex
 10
121.896236
 20
187.485467
 30
0.0
  0
SEQEND
  5
21D
100
AcDbEntity
  8
1
  6
CONTINUOUS
 62
           7
  0
LINE
  5
21E
100
AcDbEntity
  8
1
  6
CONTINUOUS
 62
           7
100
AcDbLine
 10
122.02314
 20
187.285467
 30
0.0
 11
111.05204
 21
187.285467
 31
0.0
  0
LINE
  5
21F
100
AcDbEntity
  8
1
  6
CONTINUOUS
 62
           7
100
AcDbLine
 10
129.381912
 20
203.285467
 30
0.0
 11
134.45204
 21
203.285467
 31
0.0
  0
POLYLINE
  5
220
100
AcDbEntity
  8
1
  6
CONTINUOUS
 62
           7
100
AcDb2dPolyline
 66
           1
 10
0.0
 20
0.0
 30
0.0
  0
VERTEX
  5
221
100
AcDbEntity
  8
1
  6
CONTINUOUS
 62
           7
100
AcDbVertex
100
AcDb2dVertex
 10
129.508845
 20
203.085467
 30
0.0
  0
VERTEX
  5
222
100
AcDbEntity
  8
1
  6
CONTINUOUS
 62
           7
100
AcDbVertex
100
AcDb2dVertex
 10
129.451654
 20
203.17874
 30
0.0
  0
VERTEX
  5
223
100
AcDbEntity
  8
1
  6
CONTINUOUS
 62
           7
100
AcDbVertex
100
AcDb2dVertex
 10
129.394648
 20
203.266554
 30
0.0
  0
VERTEX
  5
224
100
AcDbEntity
  8
1
  6
CONTINUOUS
 62
           7
100
AcDbVertex
100
AcDb2dVertex
 10
129.381912
 20
203.285467
 30
0.0
  0
SEQEND
  5
225
100
AcDbEntity
  8
1
  6
CONTINUOUS
 62
           7
  0
ARC
  5
226
100
AcDbEntity
  8
1
  6
CONTINUOUS
 62
           7
100
AcDbCircle
 10
122.95204
 20
203.655798
 30
0.0
 40
1.0
100
AcDbArc
 50
201.736056
 51
338.263944
  0
ARC
  5
227
100
AcDbEntity
  8
1
  6
CONTINUOUS
 62
           7
100
AcDbCircle
 10
128.452508
 20
203.655798
 30
0.0
 40
1.000469
100
AcDbArc
 50
201.72536
 51
338.27464
  0
POLYLINE
  5
228
100
AcDbEntity
  8
1
  6
CONTINUOUS
 62
           7
100
AcDb2dPolyline
 66
           1
 10
0.0
 20
0.0
 30
0.0
  0
VERTEX
  5
229
100
AcDbEntity
  8
1
  6
CONTINUOUS
 62
           7
100
AcDbVertex
100
AcDb2dVertex
 10
127.396172
 20
203.085467
 30
0.0
  0
VERTEX
  5
22A
100
AcDbEntity
  8
1
  6
CONTINUOUS
 62
           7
100
AcDbVertex
100
AcDb2dVertex
 10
127.453362
 20
203.17874
 30
0.0
  0
VERTEX
  5
22B
100
AcDbEntity
  8
1
  6
CONTINUOUS
 62
           7
100
AcDbVertex
100
AcDb2dVertex
 10
127.510369
 20
203.266554
 30
0.0
  0
VERTEX
  5
22C
100
AcDbEntity
  8
1
  6
CONTINUOUS
 62
           7
100
AcDbVertex
100
AcDb2dVertex
 10
127.523104
 20
203.285467
 30
0.0
  0
SEQEND
  5
22D
100
AcDbEntity
  8
1
  6
CONTINUOUS
 62
           7
  0
ARC
  5
22E
100
AcDbEntity
  8
1
  6
CONTINUOUS
 62
           7
100
AcDbCircle
 10
125.70204
 20
203.655798
 30
0.0
 40
1.000469
100
AcDbArc
 50
201.72536
 51
338.27464
  0
POLYLINE
  5
22F
100
AcDbEntity
  8
1
  6
CONTINUOUS
 62
           7
100
AcDb2dPolyline
 66
           1
 10
0.0
 20
0.0
 30
0.0
  0
VERTEX
  5
230
100
AcDbEntity
  8
1
  6
CONTINUOUS
 62
           7
100
AcDbVertex
100
AcDb2dVertex
 10
126.758376
 20
203.085467
 30
0.0
  0
VERTEX
  5
231
100
AcDbEntity
  8
1
  6
CONTINUOUS
 62
           7
100
AcDbVertex
100
AcDb2dVertex
 10
126.701186
 20
203.17874
 30
0.0
  0
VERTEX
  5
232
100
AcDbEntity
  8
1
  6
CONTINUOUS
 62
           7
100
AcDbVertex
100
AcDb2dVertex
 10
126.644179
 20
203.266554
 30
0.0
  0
VERTEX
  5
233
100
AcDbEntity
  8
1
  6
CONTINUOUS
 62
           7
100
AcDbVertex
100
AcDb2dVertex
 10
126.631444
 20
203.285467
 30
0.0
  0
SEQEND
  5
234
100
AcDbEntity
  8
1
  6
CONTINUOUS
 62
           7
  0
LINE
  5
235
100
AcDbEntity
  8
1
  6
CONTINUOUS
 62
           7
100
AcDbLine
 10
126.631444
 20
203.285467
 30
0.0
 11
127.523104
 21
203.285467
 31
0.0
  0
LINE
  5
236
100
AcDbEntity
  8
1
  6
CONTINUOUS
 62
           7
100
AcDbLine
 10
134.45204
 20
187.285467
 30
0.0
 11
129.381912
 21
187.285467
 31
0.0
  0
POLYLINE
  5
237
100
AcDbEntity
  8
1
  6
CONTINUOUS
 62
           7
100
AcDb2dPolyline
 66
           1
 10
0.0
 20
0.0
 30
0.0
  0
VERTEX
  5
238
100
AcDbEntity
  8
1
  6
CONTINUOUS
 62
           7
100
AcDbVertex
100
AcDb2dVertex
 10
126.631444
 20
187.285467
 30
0.0
  0
VERTEX
  5
239
100
AcDbEntity
  8
1
  6
CONTINUOUS
 62
           7
100
AcDbVertex
100
AcDb2dVertex
 10
126.689444
 20
187.373685
 30
0.0
  0
VERTEX
  5
23A
100
AcDbEntity
  8
1
  6
CONTINUOUS
 62
           7
100
AcDbVertex
100
AcDb2dVertex
 10
126.745755
 20
187.464436
 30
0.0
  0
VERTEX
  5
23B
100
AcDbEntity
  8
1
  6
CONTINUOUS
 62
           7
100
AcDbVertex
100
AcDb2dVertex
 10
126.758376
 20
187.485467
 30
0.0
  0
SEQEND
  5
23C
100
AcDbEntity
  8
1
  6
CONTINUOUS
 62
           7
  0
ARC
  5
23D
100
AcDbEntity
  8
1
  6
CONTINUOUS
 62
           7
100
AcDbCircle
 10
125.70204
 20
186.915135
 30
0.0
 40
1.000469
100
AcDbArc
 50
21.72536
 51
158.27464
  0
POLYLINE
  5
23E
100
AcDbEntity
  8
1
  6
CONTINUOUS
 62
           7
100
AcDb2dPolyline
 66
           1
 10
0.0
 20
0.0
 30
0.0
  0
VERTEX
  5
23F
100
AcDbEntity
  8
1
  6
CONTINUOUS
 62
           7
100
AcDbVertex
100
AcDb2dVertex
 10
124.772636
 20
187.285467
 30
0.0
  0
VERTEX
  5
240
100
AcDbEntity
  8
1
  6
CONTINUOUS
 62
           7
100
AcDbVertex
100
AcDb2dVertex
 10
124.714635
 20
187.373685
 30
0.0
  0
VERTEX
  5
241
100
AcDbEntity
  8
1
  6
CONTINUOUS
 62
           7
100
AcDbVertex
100
AcDb2dVertex
 10
124.658324
 20
187.464436
 30
0.0
  0
VERTEX
  5
242
100
AcDbEntity
  8
1
  6
CONTINUOUS
 62
           7
100
AcDbVertex
100
AcDb2dVertex
 10
124.645703
 20
187.485467
 30
0.0
  0
SEQEND
  5
243
100
AcDbEntity
  8
1
  6
CONTINUOUS
 62
           7
  0
LINE
  5
244
100
AcDbEntity
  8
1
  6
CONTINUOUS
 62
           7
100
AcDbLine
 10
127.523104
 20
187.285467
 30
0.0
 11
126.631444
 21
187.285467
 31
0.0
  0
POLYLINE
  5
245
100
AcDbEntity
  8
1
  6
CONTINUOUS
 62
           7
100
AcDb2dPolyline
 66
           1
 10
0.0
 20
0.0
 30
0.0
  0
VERTEX
  5
246
100
AcDbEntity
  8
1
  6
CONTINUOUS
 62
           7
100
AcDbVertex
100
AcDb2dVertex
 10
123.880939
 20
187.285467
 30
0.0
  0
VERTEX
  5
247
100
AcDbEntity
  8
1
  6
CONTINUOUS
 62
           7
100
AcDbVertex
100
AcDb2dVertex
 10
123.938933
 20
187.373693
 30
0.0
  0
VERTEX
  5
248
100
AcDbEntity
  8
1
  6
CONTINUOUS
 62
           7
100
AcDbVertex
100
AcDb2dVertex
 10
123.995227
 20
187.464439
 30
0.0
  0
VERTEX
  5
249
100
AcDbEntity
  8
1
  6
CONTINUOUS
 62
           7
100
AcDbVertex
100
AcDb2dVertex
 10
124.007844
 20
187.485467
 30
0.0
  0
SEQEND
  5
24A
100
AcDbEntity
  8
1
  6
CONTINUOUS
 62
           7
  0
ARC
  5
24B
100
AcDbEntity
  8
1
  6
CONTINUOUS
 62
           7
100
AcDbCircle
 10
122.95204
 20
186.915135
 30
0.0
 40
1.0
100
AcDbArc
 50
21.736056
 51
158.263944
  0
LINE
  5
24C
100
AcDbEntity
  8
1
  6
CONTINUOUS
 62
           7
100
AcDbLine
 10
124.772636
 20
187.285467
 30
0.0
 11
123.880939
 21
187.285467
 31
0.0
  0
LINE
  5
24D
100
AcDbEntity
  8
1
  6
CONTINUOUS
 62
           7
100
AcDbLine
 10
138.95204
 20
201.785467
 30
0.0
 11
141.45204
 21
201.785467
 31
0.0
  0
LINE
  5
24E
100
AcDbEntity
  8
1
  6
CONTINUOUS
 62
           7
100
AcDbLine
 10
142.45204
 20
200.785467
 30
0.0
 11
142.45204
 21
189.785467
 31
0.0
  0
ARC
  5
24F
100
AcDbEntity
  8
1
  6
CONTINUOUS
 62
           7
100
AcDbCircle
 10
138.95204
 20
200.785467
 30
0.0
 40
1.0
100
AcDbArc
 50
90.0
 51
180.0
  0
ARC
  5
250
100
AcDbEntity
  8
1
  6
CONTINUOUS
 62
           7
100
AcDbCircle
 10
138.95204
 20
189.785467
 30
0.0
 40
1.0
100
AcDbArc
 50
180.0
 51
270.0
  0
LINE
  5
251
100
AcDbEntity
  8
1
  6
CONTINUOUS
 62
           7
100
AcDbLine
 10
141.45204
 20
188.785467
 30
0.0
 11
138.95204
 21
188.785467
 31
0.0
  0
ARC
  5
252
100
AcDbEntity
  8
1
  6
CONTINUOUS
 62
           7
100
AcDbCircle
 10
141.45204
 20
189.785467
 30
0.0
 40
1.0
100
AcDbArc
 50
270.0
 51
0.0
  0
ARC
  5
253
100
AcDbEntity
  8
1
  6
CONTINUOUS
 62
           7
100
AcDbCircle
 10
141.45204
 20
200.785467
 30
0.0
 40
1.0
100
AcDbArc
 50
0.0
 51
90.0
  0
LINE
  5
254
100
AcDbEntity
  8
1
  6
CONTINUOUS
 62
           7
100
AcDbLine
 10
137.95204
 20
189.785467
 30
0.0
 11
137.95204
 21
200.785467
 31
0.0
  0
LINE
  5
255
100
AcDbEntity
  8
1
  6
CONTINUOUS
 62
           7
100
AcDbLine
 10
160.45204
 20
193.185467
 30
0.0
 11
160.45204
 21
197.385467
 31
0.0
  0
LINE
  5
256
100
AcDbEntity
  8
1
  6
DOT
 62
           9
100
AcDbLine
 10
143.05204
 20
193.815773
 30
0.0
 11
142.45204
 21
193.815773
 31
0.0
  0
INSERT
  5
257
100
AcDbEntity
  8
0
  6
CONTINUOUS
 62
           7
100
AcDbBlockReference
  2
_POLYLINE_$2$
 10
0.0
 20
0.0
 30
0.0
  0
LINE
  5
258
100
AcDbEntity
  8
1
  6
DOT
 62
           9
100
AcDbLine
 10
142.45204
 20
196.75516
 30
0.0
 11
143.05204
 21
196.75516
 31
0.0
  0
LINE
  5
259
100
AcDbEntity
  8
1
  6
DOT
 62
           9
100
AcDbLine
 10
142.45204
 20
193.815773
 30
0.0
 11
137.95204
 21
193.815773
 31
0.0
  0
LINE
  5
25A
100
AcDbEntity
  8
1
  6
DOT
 62
           9
100
AcDbLine
 10
137.95204
 20
196.75516
 30
0.0
 11
142.45204
 21
196.75516
 31
0.0
  0
CIRCLE
  5
25B
100
AcDbEntity
  8
1
  6
DOT
 62
           9
100
AcDbCircle
 10
140.20204
 20
191.035467
 30
0.0
 40
1.0
  0
CIRCLE
  5
25C
100
AcDbEntity
  8
1
  6
DOT
 62
           9
100
AcDbCircle
 10
140.20204
 20
199.535467
 30
0.0
 40
1.0
  0
LINE
  5
25D
100
AcDbEntity
  8
1
  6
CONTINUOUS
 62
           7
100
AcDbLine
 10
129.45204
 20
186.285467
 30
0.0
 11
129.45204
 21
187.285467
 31
0.0
  0
LINE
  5
25E
100
AcDbEntity
  8
1
  6
CONTINUOUS
 62
           7
100
AcDbLine
 10
129.65204
 20
186.285467
 30
0.0
 11
129.45204
 21
186.285467
 31
0.0
  0
LINE
  5
25F
100
AcDbEntity
  8
1
  6
CONTINUOUS
 62
           7
100
AcDbLine
 10
133.25204
 20
186.285467
 30
0.0
 11
129.65204
 21
186.285467
 31
0.0
  0
LINE
  5
260
100
AcDbEntity
  8
1
  6
CONTINUOUS
 62
           7
100
AcDbLine
 10
133.45204
 20
187.285467
 30
0.0
 11
133.45204
 21
186.285467
 31
0.0
  0
LINE
  5
261
100
AcDbEntity
  8
1
  6
CONTINUOUS
 62
           7
100
AcDbLine
 10
133.45204
 20
186.285467
 30
0.0
 11
133.25204
 21
186.285467
 31
0.0
  0
LINE
  5
262
100
AcDbEntity
  8
1
  6
CONTINUOUS
 62
           7
100
AcDbLine
 10
129.45204
 20
203.285467
 30
0.0
 11
129.45204
 21
204.285467
 31
0.0
  0
LINE
  5
263
100
AcDbEntity
  8
1
  6
CONTINUOUS
 62
           7
100
AcDbLine
 10
129.45204
 20
204.285467
 30
0.0
 11
129.65204
 21
204.285467
 31
0.0
  0
LINE
  5
264
100
AcDbEntity
  8
1
  6
CONTINUOUS
 62
           7
100
AcDbLine
 10
133.25204
 20
204.285467
 30
0.0
 11
129.65204
 21
204.285467
 31
0.0
  0
LINE
  5
265
100
AcDbEntity
  8
1
  6
CONTINUOUS
 62
           7
100
AcDbLine
 10
133.45204
 20
204.285467
 30
0.0
 11
133.45204
 21
203.285467
 31
0.0
  0
LINE
  5
266
100
AcDbEntity
  8
1
  6
CONTINUOUS
 62
           7
100
AcDbLine
 10
133.25204
 20
204.285467
 30
0.0
 11
133.45204
 21
204.285467
 31
0.0
  0
LINE
  5
267
100
AcDbEntity
  8
1
  6
CONTINUOUS
 62
           7
100
AcDbLine
 10
142.05204
 20
188.785467
 30
0.0
 11
141.45204
 21
188.785467
 31
0.0
  0
LINE
  5
268
100
AcDbEntity
  8
1
  6
CONTINUOUS
 62
           7
100
AcDbLine
 10
138.95204
 20
188.785467
 30
0.0
 11
137.95204
 21
188.785467
 31
0.0
  0
LINE
  5
269
100
AcDbEntity
  8
1
  6
CONTINUOUS
 62
           7
100
AcDbLine
 10
137.95204
 20
201.785467
 30
0.0
 11
138.95204
 21
201.785467
 31
0.0
  0
LINE
  5
26A
100
AcDbEntity
  8
1
  6
CONTINUOUS
 62
           7
100
AcDbLine
 10
141.45204
 20
201.785467
 30
0.0
 11
142.05204
 21
201.785467
 31
0.0
  0
LINE
  5
26B
100
AcDbEntity
  8
1
  6
CONTINUOUS
 62
           7
100
AcDbLine
 10
136.95204
 20
188.785467
 30
0.0
 11
136.95204
 21
193.185467
 31
0.0
  0
LINE
  5
26C
100
AcDbEntity
  8
1
  6
DOT
 62
           9
100
AcDbLine
 10
136.95204
 20
193.185467
 30
0.0
 11
136.95204
 21
197.385467
 31
0.0
  0
LINE
  5
26D
100
AcDbEntity
  8
1
  6
CONTINUOUS
 62
           7
100
AcDbLine
 10
136.95204
 20
197.385467
 30
0.0
 11
136.95204
 21
201.785467
 31
0.0
  0
LINE
  5
26E
100
AcDbEntity
  8
1
  6
CONTINUOUS
 62
           7
100
AcDbLine
 10
136.95204
 20
201.785467
 30
0.0
 11
137.95204
 21
201.785467
 31
0.0
  0
LINE
  5
26F
100
AcDbEntity
  8
1
  6
CONTINUOUS
 62
           7
100
AcDbLine
 10
137.95204
 20
188.785467
 30
0.0
 11
136.95204
 21
188.785467
 31
0.0
  0
LINE
  5
270
100
AcDbEntity
  8
1
  6
DOT
 62
           9
100
AcDbLine
 10
137.95204
 20
201.785467
 30
0.0
 11
137.95204
 21
200.785467
 31
0.0
  0
LINE
  5
271
100
AcDbEntity
  8
1
  6
DOT
 62
           9
100
AcDbLine
 10
137.95204
 20
189.785467
 30
0.0
 11
137.95204
 21
188.785467
 31
0.0
  0
CIRCLE
  5
272
100
AcDbEntity
  8
1
  6
DOT
 62
           9
100
AcDbCircle
 10
140.20204
 20
191.035467
 30
0.0
 40
0.8
  0
CIRCLE
  5
273
100
AcDbEntity
  8
1
  6
DOT
 62
           9
100
AcDbCircle
 10
140.20204
 20
199.535467
 30
0.0
 40
0.8
  0
ARC
  5
274
100
AcDbEntity
  8
1
  6
DOT
 62
           9
100
AcDbCircle
 10
128.452508
 20
186.915135
 30
0.0
 40
1.200469
100
AcDbArc
 50
28.365254
 51
33.6314
  0
LINE
  5
275
100
AcDbEntity
  8
1
  6
DOT
 62
           9
100
AcDbLine
 10
133.45204
 20
187.485467
 30
0.0
 11
129.508845
 21
187.485467
 31
0.0
  0
ARC
  5
276
100
AcDbEntity
  8
1
  6
DOT
 62
           9
100
AcDbCircle
 10
128.452508
 20
203.655798
 30
0.0
 40
1.200469
100
AcDbArc
 50
326.3686
 51
331.634746
  0
LINE
  5
277
100
AcDbEntity
  8
1
  6
DOT
 62
           9
100
AcDbLine
 10
129.508845
 20
203.085467
 30
0.0
 11
133.45204
 21
203.085467
 31
0.0
  0
LINE
  5
278
100
AcDbEntity
  8
1
  6
DOT
 62
           9
100
AcDbLine
 10
135.25204
 20
201.785467
 30
0.0
 11
135.45204
 21
201.785467
 31
0.0
  0
LINE
  5
279
100
AcDbEntity
  8
1
  6
CONTINUOUS
 62
           7
100
AcDbLine
 10
135.45204
 20
201.785467
 30
0.0
 11
136.95204
 21
201.785467
 31
0.0
  0
LINE
  5
27A
100
AcDbEntity
  8
1
  6
CONTINUOUS
 62
           7
100
AcDbLine
 10
136.95204
 20
188.785467
 30
0.0
 11
135.45204
 21
188.785467
 31
0.0
  0
LINE
  5
27B
100
AcDbEntity
  8
1
  6
DOT
 62
           9
100
AcDbLine
 10
135.45204
 20
188.785467
 30
0.0
 11
135.25204
 21
188.785467
 31
0.0
  0
LINE
  5
27C
100
AcDbEntity
  8
1
  6
DOT
 62
           9
100
AcDbLine
 10
133.45204
 20
201.785467
 30
0.0
 11
135.25204
 21
201.785467
 31
0.0
  0
LINE
  5
27D
100
AcDbEntity
  8
1
  6
DOT
 62
           9
100
AcDbLine
 10
133.45204
 20
203.085467
 30
0.0
 11
133.45204
 21
201.785467
 31
0.0
  0
LINE
  5
27E
100
AcDbEntity
  8
1
  6
DOT
 62
           9
100
AcDbLine
 10
129.45204
 20
187.285467
 30
0.0
 11
129.45204
 21
187.580012
 31
0.0
  0
LINE
  5
27F
100
AcDbEntity
  8
1
  6
DOT
 62
           9
100
AcDbLine
 10
133.45204
 20
187.485467
 30
0.0
 11
133.45204
 21
187.285467
 31
0.0
  0
LINE
  5
280
100
AcDbEntity
  8
1
  6
DOT
 62
           9
100
AcDbLine
 10
118.45204
 20
201.785467
 30
0.0
 11
129.45204
 21
201.785467
 31
0.0
  0
LINE
  5
281
100
AcDbEntity
  8
1
  6
DOT
 62
           9
100
AcDbLine
 10
117.45204
 20
189.785467
 30
0.0
 11
117.45204
 21
200.785467
 31
0.0
  0
ARC
  5
282
100
AcDbEntity
  8
1
  6
DOT
 62
           9
100
AcDbCircle
 10
118.45204
 20
189.785467
 30
0.0
 40
1.0
100
AcDbArc
 50
180.0
 51
270.0
  0
LINE
  5
283
100
AcDbEntity
  8
1
  6
DOT
 62
           9
100
AcDbLine
 10
129.45204
 20
188.785467
 30
0.0
 11
118.45204
 21
188.785467
 31
0.0
  0
ARC
  5
284
100
AcDbEntity
  8
1
  6
DOT
 62
           9
100
AcDbCircle
 10
118.45204
 20
200.785467
 30
0.0
 40
1.0
100
AcDbArc
 50
90.0
 51
180.0
  0
LINE
  5
285
100
AcDbEntity
  8
1
  6
DOT
 62
           9
100
AcDbLine
 10
129.45204
 20
187.580012
 30
0.0
 11
129.45204
 21
188.785467
 31
0.0
  0
LINE
  5
286
100
AcDbEntity
  8
1
  6
DOT
 62
           9
100
AcDbLine
 10
129.45204
 20
201.785467
 30
0.0
 11
129.45204
 21
202.990921
 31
0.0
  0
LINE
  5
287
100
AcDbEntity
  8
1
  6
DOT
 62
           9
100
AcDbLine
 10
135.25204
 20
188.785467
 30
0.0
 11
133.45204
 21
188.785467
 31
0.0
  0
LINE
  5
288
100
AcDbEntity
  8
1
  6
DOT
 62
           9
100
AcDbLine
 10
133.45204
 20
188.785467
 30
0.0
 11
133.45204
 21
187.485467
 31
0.0
  0
LINE
  5
289
100
AcDbEntity
  8
1
  6
DOT
 62
           9
100
AcDbLine
 10
129.45204
 20
202.990921
 30
0.0
 11
129.45204
 21
203.285467
 31
0.0
  0
LINE
  5
28A
100
AcDbEntity
  8
1
  6
DOT
 62
           9
100
AcDbLine
 10
133.45204
 20
203.285467
 30
0.0
 11
133.45204
 21
203.085467
 31
0.0
  0
LINE
  5
28B
100
AcDbEntity
  8
1
  6
CONTINUOUS
 62
           7
100
AcDbLine
 10
160.45204
 20
197.385467
 30
0.0
 11
142.45204
 21
197.385467
 31
0.0
  0
LINE
  5
28C
100
AcDbEntity
  8
1
  6
DOT
 62
           9
100
AcDbLine
 10
142.45204
 20
197.385467
 30
0.0
 11
137.95204
 21
197.385467
 31
0.0
  0
LINE
  5
28D
100
AcDbEntity
  8
1
  6
CONTINUOUS
 62
           7
100
AcDbLine
 10
137.95204
 20
197.385467
 30
0.0
 11
135.45204
 21
197.385467
 31
0.0
  0
LINE
  5
28E
100
AcDbEntity
  8
1
  6
CONTINUOUS
 62
           7
100
AcDbLine
 10
135.45204
 20
193.185467
 30
0.0
 11
137.95204
 21
193.185467
 31
0.0
  0
LINE
  5
28F
100
AcDbEntity
  8
1
  6
DOT
 62
           9
100
AcDbLine
 10
137.95204
 20
193.185467
 30
0.0
 11
142.45204
 21
193.185467
 31
0.0
  0
LINE
  5
290
100
AcDbEntity
  8
1
  6
CONTINUOUS
 62
           7
100
AcDbLine
 10
142.45204
 20
193.185467
 30
0.0
 11
160.45204
 21
193.185467
 31
0.0
  0
LINE
  5
291
100
AcDbEntity
  8
1
  6
CONTINUOUS
 62
           7
100
AcDbLine
 10
200.496427
 20
196.785467
 30
0.0
 11
160.45204
 21
196.785467
 31
0.0
  0
LINE
  5
292
100
AcDbEntity
  8
1
  6
CONTINUOUS
 62
           7
100
AcDbLine
 10
160.45204
 20
193.785467
 30
0.0
 11
198.153381
 21
193.785467
 31
0.0
  0
LINE
  5
293
100
AcDbEntity
  8
1
  6
CONTINUOUS
 62
           7
100
AcDbLine
 10
280.62775
 20
181.258703
 30
0.0
 11
282.025373
 21
186.474703
 31
0.0
  0
LINE
  5
294
100
AcDbEntity
  8
1
  6
CONTINUOUS
 62
           7
100
AcDbLine
 10
280.62775
 20
209.31223
 30
0.0
 11
282.025373
 21
204.096231
 31
0.0
  0
LINE
  5
295
100
AcDbEntity
  8
1
  6
CONTINUOUS
 62
           7
100
AcDbLine
 10
269.692479
 20
201.826925
 30
0.0
 11
268.812498
 21
205.111059
 31
0.0
  0
LINE
  5
296
100
AcDbEntity
  8
1
  6
CONTINUOUS
 62
           7
100
AcDbLine
 10
269.692479
 20
188.744008
 30
0.0
 11
268.812498
 21
185.459874
 31
0.0
  0
LINE
  5
297
100
AcDbEntity
  8
1
  6
CONTINUOUS
 62
           7
100
AcDbLine
 10
239.870081
 20
193.785467
 30
0.0
 11
239.870081
 21
196.785467
 31
0.0
  0
LINE
  5
298
100
AcDbEntity
  8
1
  6
CONTINUOUS
 62
           7
100
AcDbLine
 10
282.289378
 20
186.378081
 30
0.0
 11
288.29742
 21
184.768231
 31
0.0
  0
ARC
  5
299
100
AcDbEntity
  8
1
  6
CONTINUOUS
 62
           7
100
AcDbCircle
 10
288.16801
 20
184.285268
 30
0.0
 40
0.5
100
AcDbArc
 50
255.0
 51
75.0
  0
LINE
  5
29A
100
AcDbEntity
  8
1
  6
CONTINUOUS
 62
           7
100
AcDbLine
 10
288.038601
 20
183.802305
 30
0.0
 11
286.275786
 21
184.27465
 31
0.0
  0
ARC
  5
29B
100
AcDbEntity
  8
1
  6
CONTINUOUS
 62
           7
100
AcDbCircle
 10
285.842264
 20
182.656724
 30
0.0
 40
1.675
100
AcDbArc
 50
75.0
 51
255.0
  0
LINE
  5
29C
100
AcDbEntity
  8
1
  6
CONTINUOUS
 62
           7
100
AcDbLine
 10
285.408742
 20
181.038798
 30
0.0
 11
287.171557
 21
180.566453
 31
0.0
  0
LINE
  5
29D
100
AcDbEntity
  8
1
  6
CONTINUOUS
 62
           7
100
AcDbLine
 10
286.912738
 20
179.600527
 30
0.0
 11
280.904696
 21
181.210377
 31
0.0
  0
LINE
  5
29E
100
AcDbEntity
  8
1
  6
CONTINUOUS
 62
           7
100
AcDbLine
 10
280.904696
 20
181.210377
 30
0.0
 11
280.74947
 21
181.712968
 31
0.0
  0
LINE
  5
29F
100
AcDbEntity
  8
1
  6
CONTINUOUS
 62
           7
100
AcDbLine
 10
281.903653
 20
186.020437
 30
0.0
 11
282.289378
 21
186.378081
 31
0.0
  0
ARC
  5
2A0
100
AcDbEntity
  8
1
  6
CONTINUOUS
 62
           7
100
AcDbCircle
 10
287.042148
 20
180.08349
 30
0.0
 40
0.5
100
AcDbArc
 50
255.0
 51
75.0
  0
LINE
  5
2A1
100
AcDbEntity
  8
1
  6
CONTINUOUS
 62
           7
100
AcDbLine
 10
285.408742
 20
209.532135
 30
0.0
 11
287.171557
 21
210.00448
 31
0.0
  0
ARC
  5
2A2
100
AcDbEntity
  8
1
  6
CONTINUOUS
 62
           7
100
AcDbCircle
 10
285.842264
 20
207.914209
 30
0.0
 40
1.675
100
AcDbArc
 50
105.0
 51
285.0
  0
LINE
  5
2A3
100
AcDbEntity
  8
1
  6
CONTINUOUS
 62
           7
100
AcDbLine
 10
282.289378
 20
204.192853
 30
0.0
 11
288.29742
 21
205.802703
 31
0.0
  0
LINE
  5
2A4
100
AcDbEntity
  8
1
  6
CONTINUOUS
 62
           7
100
AcDbLine
 10
281.903653
 20
204.550496
 30
0.0
 11
282.289378
 21
204.192853
 31
0.0
  0
LINE
  5
2A5
100
AcDbEntity
  8
1
  6
CONTINUOUS
 62
           7
100
AcDbLine
 10
280.904696
 20
209.360556
 30
0.0
 11
280.74947
 21
208.857965
 31
0.0
  0
ARC
  5
2A6
100
AcDbEntity
  8
1
  6
CONTINUOUS
 62
           7
100
AcDbCircle
 10
288.16801
 20
206.285665
 30
0.0
 40
0.5
100
AcDbArc
 50
285.0
 51
105.0
  0
LINE
  5
2A7
100
AcDbEntity
  8
1
  6
CONTINUOUS
 62
           7
100
AcDbLine
 10
286.912738
 20
210.970406
 30
0.0
 11
280.904696
 21
209.360556
 31
0.0
  0
ARC
  5
2A8
100
AcDbEntity
  8
1
  6
CONTINUOUS
 62
           7
100
AcDbCircle
 10
287.042148
 20
210.487443
 30
0.0
 40
0.5
100
AcDbArc
 50
285.0
 51
105.0
  0
LINE
  5
2A9
100
AcDbEntity
  8
1
  6
CONTINUOUS
 62
           7
100
AcDbLine
 10
288.038601
 20
206.768628
 30
0.0
 11
286.275786
 21
206.296284
 31
0.0
  0
ARC
  5
2AA
100
AcDbEntity
  8
1
  6
CONTINUOUS
 62
           7
100
AcDbCircle
 10
277.061971
 20
186.044672
 30
0.0
 40
2.0
100
AcDbArc
 50
75.0
 51
92.500212
  0
ARC
  5
2AB
100
AcDbEntity
  8
1
  6
CONTINUOUS
 62
           7
100
AcDbCircle
 10
276.544333
 20
184.112821
 30
0.0
 40
2.0
100
AcDbArc
 50
237.499788
 51
255.0
  0
LINE
  5
2AC
100
AcDbEntity
  8
1
  6
CONTINUOUS
 62
           7
100
AcDbLine
 10
276.026695
 20
182.180969
 30
0.0
 11
280.260326
 21
181.046571
 31
0.0
  0
LINE
  5
2AD
100
AcDbEntity
  8
1
  6
CONTINUOUS
 62
           7
100
AcDbLine
 10
281.81324
 20
186.842126
 30
0.0
 11
277.579609
 21
187.976524
 31
0.0
  0
ARC
  5
2AE
100
AcDbEntity
  8
1
  6
CONTINUOUS
 62
           7
100
AcDbCircle
 10
280.337972
 20
181.336349
 30
0.0
 40
0.3
100
AcDbArc
 50
255.0
 51
345.0
  0
ARC
  5
2AF
100
AcDbEntity
  8
1
  6
CONTINUOUS
 62
           7
100
AcDbCircle
 10
281.735595
 20
186.552348
 30
0.0
 40
0.3
100
AcDbArc
 50
345.0
 51
75.0
  0
LINE
  5
2B0
100
AcDbEntity
  8
1
  6
CONTINUOUS
 62
           7
100
AcDbLine
 10
277.579609
 20
202.594409
 30
0.0
 11
281.81324
 21
203.728807
 31
0.0
  0
LINE
  5
2B1
100
AcDbEntity
  8
1
  6
CONTINUOUS
 62
           7
100
AcDbLine
 10
280.260326
 20
209.524362
 30
0.0
 11
276.026695
 21
208.389964
 31
0.0
  0
ARC
  5
2B2
100
AcDbEntity
  8
1
  6
CONTINUOUS
 62
           7
100
AcDbCircle
 10
276.544333
 20
206.458112
 30
0.0
 40
2.0
100
AcDbArc
 50
105.0
 51
122.500212
  0
ARC
  5
2B3
100
AcDbEntity
  8
1
  6
CONTINUOUS
 62
           7
100
AcDbCircle
 10
277.061971
 20
204.526261
 30
0.0
 40
2.0
100
AcDbArc
 50
267.499788
 51
285.0
  0
ARC
  5
2B4
100
AcDbEntity
  8
1
  6
CONTINUOUS
 62
           7
100
AcDbCircle
 10
281.735595
 20
204.018585
 30
0.0
 40
0.3
100
AcDbArc
 50
285.0
 51
15.0
  0
ARC
  5
2B5
100
AcDbEntity
  8
1
  6
CONTINUOUS
 62
           7
100
AcDbCircle
 10
280.337972
 20
209.234584
 30
0.0
 40
0.3
100
AcDbArc
 50
15.0
 51
105.0
  0
LINE
  5
2B6
100
AcDbEntity
  8
1
  6
CONTINUOUS
 62
           7
100
AcDbLine
 10
276.974725
 20
188.042769
 30
0.0
 11
274.267476
 21
187.924557
 31
0.0
  0
LINE
  5
2B7
100
AcDbEntity
  8
1
  6
CONTINUOUS
 62
           7
100
AcDbLine
 10
273.184287
 20
183.88204
 30
0.0
 11
275.469728
 21
182.426042
 31
0.0
  0
LINE
  5
2B8
100
AcDbEntity
  8
1
  6
CONTINUOUS
 62
           7
100
AcDbLine
 10
275.469728
 20
208.144891
 30
0.0
 11
273.184287
 21
206.688893
 31
0.0
  0
LINE
  5
2B9
100
AcDbEntity
  8
1
  6
CONTINUOUS
 62
           7
100
AcDbLine
 10
274.267476
 20
202.646376
 30
0.0
 11
276.974725
 21
202.528165
 31
0.0
  0
ARC
  5
2BA
100
AcDbEntity
  8
1
  6
CONTINUOUS
 62
           7
100
AcDbCircle
 10
272.109682
 20
182.195261
 30
0.0
 40
2.0
100
AcDbArc
 50
57.499788
 51
75.0
  0
ARC
  5
2BB
100
AcDbEntity
  8
1
  6
CONTINUOUS
 62
           7
100
AcDbCircle
 10
274.18023
 20
189.922654
 30
0.0
 40
2.0
100
AcDbArc
 50
255.0
 51
272.500212
  0
ARC
  5
2BC
100
AcDbEntity
  8
1
  6
CONTINUOUS
 62
           7
100
AcDbCircle
 10
274.18023
 20
200.64828
 30
0.0
 40
2.0
100
AcDbArc
 50
87.499788
 51
105.0
  0
ARC
  5
2BD
100
AcDbEntity
  8
1
  6
CONTINUOUS
 62
           7
100
AcDbCircle
 10
272.109682
 20
208.375672
 30
0.0
 40
2.0
100
AcDbArc
 50
285.0
 51
302.500212
  0
ARC
  5
2BE
100
AcDbEntity
  8
1
  6
CONTINUOUS
 62
           7
100
AcDbCircle
 10
269.102276
 20
205.188705
 30
0.0
 40
0.3
100
AcDbArc
 50
105.0
 51
195.0
  0
ARC
  5
2BF
100
AcDbEntity
  8
1
  6
CONTINUOUS
 62
           7
100
AcDbCircle
 10
269.982256
 20
201.904571
 30
0.0
 40
0.3
100
AcDbArc
 50
195.0
 51
285.0
  0
LINE
  5
2C0
100
AcDbEntity
  8
1
  6
CONTINUOUS
 62
           7
100
AcDbLine
 10
270.059902
 20
201.614793
 30
0.0
 11
273.662592
 21
202.580131
 31
0.0
  0
LINE
  5
2C1
100
AcDbEntity
  8
1
  6
CONTINUOUS
 62
           7
100
AcDbLine
 10
272.62732
 20
206.44382
 30
0.0
 11
269.02463
 21
205.478483
 31
0.0
  0
ARC
  5
2C2
100
AcDbEntity
  8
1
  6
CONTINUOUS
 62
           7
100
AcDbCircle
 10
269.982256
 20
188.666362
 30
0.0
 40
0.3
100
AcDbArc
 50
75.0
 51
165.0
  0
ARC
  5
2C3
100
AcDbEntity
  8
1
  6
CONTINUOUS
 62
           7
100
AcDbCircle
 10
269.102276
 20
185.382228
 30
0.0
 40
0.3
100
AcDbArc
 50
165.0
 51
255.0
  0
LINE
  5
2C4
100
AcDbEntity
  8
1
  6
CONTINUOUS
 62
           7
100
AcDbLine
 10
269.02463
 20
185.092451
 30
0.0
 11
272.62732
 21
184.127113
 31
0.0
  0
LINE
  5
2C5
100
AcDbEntity
  8
1
  6
CONTINUOUS
 62
           7
100
AcDbLine
 10
273.662592
 20
187.990802
 30
0.0
 11
270.059902
 21
188.95614
 31
0.0
  0
LINE
  5
2C6
100
AcDbEntity
  8
1
  6
CONTINUOUS
 62
           7
100
AcDbLine
 10
239.870081
 20
196.785467
 30
0.0
 11
205.496427
 21
196.785467
 31
0.0
  0
LINE
  5
2C7
100
AcDbEntity
  8
1
  6
CONTINUOUS
 62
           7
100
AcDbLine
 10
203.153381
 20
193.785467
 30
0.0
 11
239.870081
 21
193.785467
 31
0.0
  0
LINE
  5
2C8
100
AcDbEntity
  8
1
  6
CONTINUOUS
 62
           7
100
AcDbLine
 10
239.870081
 20
194.66435
 30
0.0
 11
269.174843
 21
186.812163
 31
0.0
  0
LINE
  5
2C9
100
AcDbEntity
  8
1
  6
CONTINUOUS
 62
           7
100
AcDbLine
 10
269.330134
 20
187.391719
 30
0.0
 11
239.870266
 21
195.285467
 31
0.0
  0
LINE
  5
2CA
100
AcDbEntity
  8
1
  6
CONTINUOUS
 62
           7
100
AcDbLine
 10
239.870266
 20
195.285467
 30
0.0
 11
269.330134
 21
203.179215
 31
0.0
  0
LINE
  5
2CB
100
AcDbEntity
  8
1
  6
CONTINUOUS
 62
           7
100
AcDbLine
 10
269.174843
 20
203.75877
 30
0.0
 11
239.870081
 21
195.906583
 31
0.0
  0
LINE
  5
2CC
100
AcDbEntity
  8
1
  6
CONTINUOUS
 62
          11
100
AcDbLine
 10
195.963118
 20
190.981088
 30
0.0
 11
202.611123
 21
199.49309
 31
0.0
  0
LINE
  5
2CD
100
AcDbEntity
  8
1
  6
CONTINUOUS
 62
          11
100
AcDbLine
 10
200.963118
 20
190.981088
 30
0.0
 11
207.611123
 21
199.49309
 31
0.0
  0
LINE
  5
2CE
100
AcDbEntity
  8
1
  6
CONTINUOUS
 62
           7
100
AcDbLine
 10
129.45204
 20
115.619517
 30
0.0
 11
129.45204
 21
119.369517
 31
0.0
  0
ARC
  5
2CF
100
AcDbEntity
  8
1
  6
CONTINUOUS
 62
           7
100
AcDbCircle
 10
129.65204
 20
119.369517
 30
0.0
 40
0.2
100
AcDbArc
 50
90.0
 51
180.0
  0
LINE
  5
2D0
100
AcDbEntity
  8
1
  6
CONTINUOUS
 62
           7
100
AcDbLine
 10
133.25204
 20
119.569517
 30
0.0
 11
129.65204
 21
119.569517
 31
0.0
  0
ARC
  5
2D1
100
AcDbEntity
  8
1
  6
CONTINUOUS
 62
           7
100
AcDbCircle
 10
133.25204
 20
119.369517
 30
0.0
 40
0.2
100
AcDbArc
 50
0.0
 51
90.0
  0
LINE
  5
2D2
100
AcDbEntity
  8
1
  6
CONTINUOUS
 62
           7
100
AcDbLine
 10
133.45204
 20
115.619517
 30
0.0
 11
133.45204
 21
119.369517
 31
0.0
  0
LINE
  5
2D3
100
AcDbEntity
  8
1
  6
CONTINUOUS
 62
           7
100
AcDbLine
 10
133.45204
 20
114.619517
 30
0.0
 11
129.45204
 21
114.619517
 31
0.0
  0
LINE
  5
2D4
100
AcDbEntity
  8
1
  6
CONTINUOUS
 62
           7
100
AcDbLine
 10
133.45204
 20
115.619517
 30
0.0
 11
133.45204
 21
114.619517
 31
0.0
  0
LINE
  5
2D5
100
AcDbEntity
  8
1
  6
CONTINUOUS
 62
           7
100
AcDbLine
 10
129.45204
 20
114.619517
 30
0.0
 11
129.45204
 21
115.619517
 31
0.0
  0
LINE
  5
2D6
100
AcDbEntity
  8
1
  6
CONTINUOUS
 62
           7
100
AcDbLine
 10
126.758376
 20
123.519517
 30
0.0
 11
127.396172
 21
123.519517
 31
0.0
  0
POLYLINE
  5
2D7
100
AcDbEntity
  8
1
  6
CONTINUOUS
 62
           7
100
AcDb2dPolyline
 66
           1
 10
0.0
 20
0.0
 30
0.0
  0
VERTEX
  5
2D8
100
AcDbEntity
  8
1
  6
CONTINUOUS
 62
           7
100
AcDbVertex
100
AcDb2dVertex
 10
127.523104
 20
123.319517
 30
0.0
  0
VERTEX
  5
2D9
100
AcDbEntity
  8
1
  6
CONTINUOUS
 62
           7
100
AcDbVertex
100
AcDb2dVertex
 10
127.504518
 20
123.421038
 30
0.0
  0
VERTEX
  5
2DA
100
AcDbEntity
  8
1
  6
CONTINUOUS
 62
           7
100
AcDbVertex
100
AcDb2dVertex
 10
127.44124
 20
123.505347
 30
0.0
  0
VERTEX
  5
2DB
100
AcDbEntity
  8
1
  6
CONTINUOUS
 62
           7
100
AcDbVertex
100
AcDb2dVertex
 10
127.396172
 20
123.519517
 30
0.0
  0
SEQEND
  5
2DC
100
AcDbEntity
  8
1
  6
CONTINUOUS
 62
           7
  0
POLYLINE
  5
2DD
100
AcDbEntity
  8
1
  6
CONTINUOUS
 62
           7
100
AcDb2dPolyline
 66
           1
 10
0.0
 20
0.0
 30
0.0
  0
VERTEX
  5
2DE
100
AcDbEntity
  8
1
  6
CONTINUOUS
 62
           7
100
AcDbVertex
100
AcDb2dVertex
 10
126.631444
 20
123.319517
 30
0.0
  0
VERTEX
  5
2DF
100
AcDbEntity
  8
1
  6
CONTINUOUS
 62
           7
100
AcDbVertex
100
AcDb2dVertex
 10
126.65003
 20
123.421038
 30
0.0
  0
VERTEX
  5
2E0
100
AcDbEntity
  8
1
  6
CONTINUOUS
 62
           7
100
AcDbVertex
100
AcDb2dVertex
 10
126.713308
 20
123.505347
 30
0.0
  0
VERTEX
  5
2E1
100
AcDbEntity
  8
1
  6
CONTINUOUS
 62
           7
100
AcDbVertex
100
AcDb2dVertex
 10
126.758376
 20
123.519517
 30
0.0
  0
SEQEND
  5
2E2
100
AcDbEntity
  8
1
  6
CONTINUOUS
 62
           7
  0
LINE
  5
2E3
100
AcDbEntity
  8
1
  6
CONTINUOUS
 62
           7
100
AcDbLine
 10
135.45204
 20
123.319517
 30
0.0
 11
135.45204
 21
115.819517
 31
0.0
  0
LINE
  5
2E4
100
AcDbEntity
  8
1
  6
CONTINUOUS
 62
           7
100
AcDbLine
 10
126.631444
 20
123.319517
 30
0.0
 11
126.631444
 21
115.819517
 31
0.0
  0
LINE
  5
2E5
100
AcDbEntity
  8
1
  6
CONTINUOUS
 62
           7
100
AcDbLine
 10
127.523104
 20
123.319517
 30
0.0
 11
127.523104
 21
115.819517
 31
0.0
  0
LINE
  5
2E6
100
AcDbEntity
  8
1
  6
CONTINUOUS
 62
           7
100
AcDbLine
 10
122.02314
 20
123.319517
 30
0.0
 11
122.02314
 21
115.819517
 31
0.0
  0
LINE
  5
2E7
100
AcDbEntity
  8
1
  6
CONTINUOUS
 62
           7
100
AcDbLine
 10
123.880939
 20
123.319517
 30
0.0
 11
123.880939
 21
115.819517
 31
0.0
  0
POLYLINE
  5
2E8
100
AcDbEntity
  8
1
  6
CONTINUOUS
 62
           7
100
AcDb2dPolyline
 66
           1
 10
0.0
 20
0.0
 30
0.0
  0
VERTEX
  5
2E9
100
AcDbEntity
  8
1
  6
CONTINUOUS
 62
           7
100
AcDbVertex
100
AcDb2dVertex
 10
124.645703
 20
115.619517
 30
0.0
  0
VERTEX
  5
2EA
100
AcDbEntity
  8
1
  6
CONTINUOUS
 62
           7
100
AcDbVertex
100
AcDb2dVertex
 10
124.734813
 20
115.679782
 30
0.0
  0
VERTEX
  5
2EB
100
AcDbEntity
  8
1
  6
CONTINUOUS
 62
           7
100
AcDbVertex
100
AcDb2dVertex
 10
124.769291
 20
115.775333
 30
0.0
  0
VERTEX
  5
2EC
100
AcDbEntity
  8
1
  6
CONTINUOUS
 62
           7
100
AcDbVertex
100
AcDb2dVertex
 10
124.772636
 20
115.819517
 30
0.0
  0
SEQEND
  5
2ED
100
AcDbEntity
  8
1
  6
CONTINUOUS
 62
           7
  0
LINE
  5
2EE
100
AcDbEntity
  8
1
  6
CONTINUOUS
 62
           7
100
AcDbLine
 10
124.645703
 20
115.619517
 30
0.0
 11
124.007844
 21
115.619517
 31
0.0
  0
POLYLINE
  5
2EF
100
AcDbEntity
  8
1
  6
CONTINUOUS
 62
           7
100
AcDb2dPolyline
 66
           1
 10
0.0
 20
0.0
 30
0.0
  0
VERTEX
  5
2F0
100
AcDbEntity
  8
1
  6
CONTINUOUS
 62
           7
100
AcDbVertex
100
AcDb2dVertex
 10
124.007844
 20
115.619517
 30
0.0
  0
VERTEX
  5
2F1
100
AcDbEntity
  8
1
  6
CONTINUOUS
 62
           7
100
AcDbVertex
100
AcDb2dVertex
 10
123.918758
 20
115.679776
 30
0.0
  0
VERTEX
  5
2F2
100
AcDbEntity
  8
1
  6
CONTINUOUS
 62
           7
100
AcDbVertex
100
AcDb2dVertex
 10
123.884284
 20
115.775331
 30
0.0
  0
VERTEX
  5
2F3
100
AcDbEntity
  8
1
  6
CONTINUOUS
 62
           7
100
AcDbVertex
100
AcDb2dVertex
 10
123.880939
 20
115.819517
 30
0.0
  0
SEQEND
  5
2F4
100
AcDbEntity
  8
1
  6
CONTINUOUS
 62
           7
  0
LINE
  5
2F5
100
AcDbEntity
  8
1
  6
CONTINUOUS
 62
           7
100
AcDbLine
 10
129.508845
 20
123.519517
 30
0.0
 11
134.45204
 21
123.519517
 31
0.0
  0
POLYLINE
  5
2F6
100
AcDbEntity
  8
1
  6
CONTINUOUS
 62
           7
100
AcDb2dPolyline
 66
           1
 10
0.0
 20
0.0
 30
0.0
  0
VERTEX
  5
2F7
100
AcDbEntity
  8
1
  6
CONTINUOUS
 62
           7
100
AcDbVertex
100
AcDb2dVertex
 10
129.381912
 20
123.319517
 30
0.0
  0
VERTEX
  5
2F8
100
AcDbEntity
  8
1
  6
CONTINUOUS
 62
           7
100
AcDbVertex
100
AcDb2dVertex
 10
129.400498
 20
123.421038
 30
0.0
  0
VERTEX
  5
2F9
100
AcDbEntity
  8
1
  6
CONTINUOUS
 62
           7
100
AcDbVertex
100
AcDb2dVertex
 10
129.463777
 20
123.505347
 30
0.0
  0
VERTEX
  5
2FA
100
AcDbEntity
  8
1
  6
CONTINUOUS
 62
           7
100
AcDbVertex
100
AcDb2dVertex
 10
129.508845
 20
123.519517
 30
0.0
  0
SEQEND
  5
2FB
100
AcDbEntity
  8
1
  6
CONTINUOUS
 62
           7
  0
LINE
  5
2FC
100
AcDbEntity
  8
1
  6
CONTINUOUS
 62
           7
100
AcDbLine
 10
134.45204
 20
123.519517
 30
0.0
 11
135.25204
 21
123.519517
 31
0.0
  0
ARC
  5
2FD
100
AcDbEntity
  8
1
  6
CONTINUOUS
 62
           7
100
AcDbCircle
 10
135.25204
 20
123.319517
 30
0.0
 40
0.2
100
AcDbArc
 50
0.0
 51
90.0
  0
ARC
  5
2FE
100
AcDbEntity
  8
1
  6
CONTINUOUS
 62
           7
100
AcDbCircle
 10
135.25204
 20
115.819517
 30
0.0
 40
0.2
100
AcDbArc
 50
270.0
 51
0.0
  0
LINE
  5
2FF
100
AcDbEntity
  8
1
  6
CONTINUOUS
 62
           7
100
AcDbLine
 10
135.25204
 20
115.619517
 30
0.0
 11
134.45204
 21
115.619517
 31
0.0
  0
LINE
  5
300
100
AcDbEntity
  8
1
  6
CONTINUOUS
 62
           7
100
AcDbLine
 10
129.381912
 20
123.319517
 30
0.0
 11
129.381912
 21
115.819517
 31
0.0
  0
LINE
  5
301
100
AcDbEntity
  8
1
  6
DOT
 62
           9
100
AcDbLine
 10
129.45204
 20
115.819517
 30
0.0
 11
133.45204
 21
115.819517
 31
0.0
  0
LINE
  5
302
100
AcDbEntity
  8
1
  6
CONTINUOUS
 62
           7
100
AcDbLine
 10
134.45204
 20
115.619517
 30
0.0
 11
133.45204
 21
115.619517
 31
0.0
  0
LINE
  5
303
100
AcDbEntity
  8
1
  6
DOT
 62
           9
100
AcDbLine
 10
129.508845
 20
115.619517
 30
0.0
 11
129.460719
 21
115.635711
 31
0.0
  0
LINE
  5
304
100
AcDbEntity
  8
1
  6
DOT
 62
           9
100
AcDbLine
 10
129.460719
 20
115.635711
 30
0.0
 11
129.452036
 21
115.642282
 31
0.0
  0
POLYLINE
  5
305
100
AcDbEntity
  8
1
  6
CONTINUOUS
 62
           7
100
AcDb2dPolyline
 66
           1
 10
0.0
 20
0.0
 30
0.0
  0
VERTEX
  5
306
100
AcDbEntity
  8
1
  6
CONTINUOUS
 62
           7
100
AcDbVertex
100
AcDb2dVertex
 10
129.452036
 20
115.642282
 30
0.0
  0
VERTEX
  5
307
100
AcDbEntity
  8
1
  6
CONTINUOUS
 62
           7
100
AcDbVertex
100
AcDb2dVertex
 10
129.394648
 20
115.734651
 30
0.0
  0
VERTEX
  5
308
100
AcDbEntity
  8
1
  6
CONTINUOUS
 62
           7
100
AcDbVertex
100
AcDb2dVertex
 10
129.381912
 20
115.819517
 30
0.0
  0
SEQEND
  5
309
100
AcDbEntity
  8
1
  6
CONTINUOUS
 62
           7
  0
POLYLINE
  5
30A
100
AcDbEntity
  8
1
  6
CONTINUOUS
 62
           7
100
AcDb2dPolyline
 66
           1
 10
0.0
 20
0.0
 30
0.0
  0
VERTEX
  5
30B
100
AcDbEntity
  8
1
  6
CONTINUOUS
 62
           7
100
AcDbVertex
100
AcDb2dVertex
 10
126.758376
 20
115.619517
 30
0.0
  0
VERTEX
  5
30C
100
AcDbEntity
  8
1
  6
CONTINUOUS
 62
           7
100
AcDbVertex
100
AcDb2dVertex
 10
126.669266
 20
115.679782
 30
0.0
  0
VERTEX
  5
30D
100
AcDbEntity
  8
1
  6
CONTINUOUS
 62
           7
100
AcDbVertex
100
AcDb2dVertex
 10
126.634789
 20
115.775333
 30
0.0
  0
VERTEX
  5
30E
100
AcDbEntity
  8
1
  6
CONTINUOUS
 62
           7
100
AcDbVertex
100
AcDb2dVertex
 10
126.631444
 20
115.819517
 30
0.0
  0
SEQEND
  5
30F
100
AcDbEntity
  8
1
  6
CONTINUOUS
 62
           7
  0
LINE
  5
310
100
AcDbEntity
  8
1
  6
CONTINUOUS
 62
           7
100
AcDbLine
 10
124.645703
 20
115.619517
 30
0.0
 11
126.758376
 21
115.619517
 31
0.0
  0
LINE
  5
311
100
AcDbEntity
  8
1
  6
CONTINUOUS
 62
           7
100
AcDbLine
 10
124.007844
 20
123.519517
 30
0.0
 11
124.645703
 21
123.519517
 31
0.0
  0
POLYLINE
  5
312
100
AcDbEntity
  8
1
  6
CONTINUOUS
 62
           7
100
AcDb2dPolyline
 66
           1
 10
0.0
 20
0.0
 30
0.0
  0
VERTEX
  5
313
100
AcDbEntity
  8
1
  6
CONTINUOUS
 62
           7
100
AcDbVertex
100
AcDb2dVertex
 10
124.772636
 20
123.319517
 30
0.0
  0
VERTEX
  5
314
100
AcDbEntity
  8
1
  6
CONTINUOUS
 62
           7
100
AcDbVertex
100
AcDb2dVertex
 10
124.75405
 20
123.421038
 30
0.0
  0
VERTEX
  5
315
100
AcDbEntity
  8
1
  6
CONTINUOUS
 62
           7
100
AcDbVertex
100
AcDb2dVertex
 10
124.690771
 20
123.505347
 30
0.0
  0
VERTEX
  5
316
100
AcDbEntity
  8
1
  6
CONTINUOUS
 62
           7
100
AcDbVertex
100
AcDb2dVertex
 10
124.645703
 20
123.519517
 30
0.0
  0
SEQEND
  5
317
100
AcDbEntity
  8
1
  6
CONTINUOUS
 62
           7
  0
POLYLINE
  5
318
100
AcDbEntity
  8
1
  6
CONTINUOUS
 62
           7
100
AcDb2dPolyline
 66
           1
 10
0.0
 20
0.0
 30
0.0
  0
VERTEX
  5
319
100
AcDbEntity
  8
1
  6
CONTINUOUS
 62
           7
100
AcDbVertex
100
AcDb2dVertex
 10
123.880939
 20
123.319517
 30
0.0
  0
VERTEX
  5
31A
100
AcDbEntity
  8
1
  6
CONTINUOUS
 62
           7
100
AcDbVertex
100
AcDb2dVertex
 10
123.899523
 20
123.421043
 30
0.0
  0
VERTEX
  5
31B
100
AcDbEntity
  8
1
  6
CONTINUOUS
 62
           7
100
AcDbVertex
100
AcDb2dVertex
 10
123.962793
 20
123.505351
 30
0.0
  0
VERTEX
  5
31C
100
AcDbEntity
  8
1
  6
CONTINUOUS
 62
           7
100
AcDbVertex
100
AcDb2dVertex
 10
124.007844
 20
123.519517
 30
0.0
  0
SEQEND
  5
31D
100
AcDbEntity
  8
1
  6
CONTINUOUS
 62
           7
  0
LINE
  5
31E
100
AcDbEntity
  8
1
  6
CONTINUOUS
 62
           7
100
AcDbLine
 10
126.758376
 20
123.519517
 30
0.0
 11
124.645703
 21
123.519517
 31
0.0
  0
POLYLINE
  5
31F
100
AcDbEntity
  8
1
  6
CONTINUOUS
 62
           7
100
AcDb2dPolyline
 66
           1
 10
0.0
 20
0.0
 30
0.0
  0
VERTEX
  5
320
100
AcDbEntity
  8
1
  6
CONTINUOUS
 62
           7
100
AcDbVertex
100
AcDb2dVertex
 10
127.396172
 20
115.619517
 30
0.0
  0
VERTEX
  5
321
100
AcDbEntity
  8
1
  6
CONTINUOUS
 62
           7
100
AcDbVertex
100
AcDb2dVertex
 10
127.485282
 20
115.679782
 30
0.0
  0
VERTEX
  5
322
100
AcDbEntity
  8
1
  6
CONTINUOUS
 62
           7
100
AcDbVertex
100
AcDb2dVertex
 10
127.519759
 20
115.775333
 30
0.0
  0
VERTEX
  5
323
100
AcDbEntity
  8
1
  6
CONTINUOUS
 62
           7
100
AcDbVertex
100
AcDb2dVertex
 10
127.523104
 20
115.819517
 30
0.0
  0
SEQEND
  5
324
100
AcDbEntity
  8
1
  6
CONTINUOUS
 62
           7
  0
LINE
  5
325
100
AcDbEntity
  8
1
  6
CONTINUOUS
 62
           7
100
AcDbLine
 10
127.396172
 20
115.619517
 30
0.0
 11
126.758376
 21
115.619517
 31
0.0
  0
POLYLINE
  5
326
100
AcDbEntity
  8
1
  6
CONTINUOUS
 62
           7
100
AcDb2dPolyline
 66
           1
 10
0.0
 20
0.0
 30
0.0
  0
VERTEX
  5
327
100
AcDbEntity
  8
1
  6
CONTINUOUS
 62
           7
100
AcDbVertex
100
AcDb2dVertex
 10
122.02314
 20
115.819517
 30
0.0
  0
VERTEX
  5
328
100
AcDbEntity
  8
1
  6
CONTINUOUS
 62
           7
100
AcDbVertex
100
AcDb2dVertex
 10
122.004556
 20
115.71799
 30
0.0
  0
VERTEX
  5
329
100
AcDbEntity
  8
1
  6
CONTINUOUS
 62
           7
100
AcDbVertex
100
AcDb2dVertex
 10
121.941287
 20
115.633682
 30
0.0
  0
VERTEX
  5
32A
100
AcDbEntity
  8
1
  6
CONTINUOUS
 62
           7
100
AcDbVertex
100
AcDb2dVertex
 10
121.896236
 20
115.619517
 30
0.0
  0
SEQEND
  5
32B
100
AcDbEntity
  8
1
  6
CONTINUOUS
 62
           7
  0
LINE
  5
32C
100
AcDbEntity
  8
1
  6
CONTINUOUS
 62
           7
100
AcDbLine
 10
121.896236
 20
115.619517
 30
0.0
 11
111.05204
 21
115.619517
 31
0.0
  0
LINE
  5
32D
100
AcDbEntity
  8
1
  6
DOT
 62
           9
100
AcDbLine
 10
133.45204
 20
115.619517
 30
0.0
 11
129.45204
 21
115.619517
 31
0.0
  0
LINE
  5
32E
100
AcDbEntity
  8
1
  6
CONTINUOUS
 62
           7
100
AcDbLine
 10
127.396172
 20
115.619517
 30
0.0
 11
129.45204
 21
115.619517
 31
0.0
  0
LINE
  5
32F
100
AcDbEntity
  8
1
  6
CONTINUOUS
 62
           7
100
AcDbLine
 10
129.508845
 20
123.519517
 30
0.0
 11
127.396172
 21
123.519517
 31
0.0
  0
LINE
  5
330
100
AcDbEntity
  8
1
  6
CONTINUOUS
 62
           7
100
AcDbLine
 10
111.05204
 20
123.519517
 30
0.0
 11
121.896236
 21
123.519517
 31
0.0
  0
POLYLINE
  5
331
100
AcDbEntity
  8
1
  6
CONTINUOUS
 62
           7
100
AcDb2dPolyline
 66
           1
 10
0.0
 20
0.0
 30
0.0
  0
VERTEX
  5
332
100
AcDbEntity
  8
1
  6
CONTINUOUS
 62
           7
100
AcDbVertex
100
AcDb2dVertex
 10
122.02314
 20
123.319517
 30
0.0
  0
VERTEX
  5
333
100
AcDbEntity
  8
1
  6
CONTINUOUS
 62
           7
100
AcDbVertex
100
AcDb2dVertex
 10
122.004556
 20
123.421043
 30
0.0
  0
VERTEX
  5
334
100
AcDbEntity
  8
1
  6
CONTINUOUS
 62
           7
100
AcDbVertex
100
AcDb2dVertex
 10
121.941287
 20
123.505351
 30
0.0
  0
VERTEX
  5
335
100
AcDbEntity
  8
1
  6
CONTINUOUS
 62
           7
100
AcDbVertex
100
AcDb2dVertex
 10
121.896236
 20
123.519517
 30
0.0
  0
SEQEND
  5
336
100
AcDbEntity
  8
1
  6
CONTINUOUS
 62
           7
  0
LINE
  5
337
100
AcDbEntity
  8
1
  6
CONTINUOUS
 62
           7
100
AcDbLine
 10
124.007844
 20
123.519517
 30
0.0
 11
121.896236
 21
123.519517
 31
0.0
  0
LINE
  5
338
100
AcDbEntity
  8
1
  6
CONTINUOUS
 62
           7
100
AcDbLine
 10
121.896236
 20
115.619517
 30
0.0
 11
124.007844
 21
115.619517
 31
0.0
  0
LINE
  5
339
100
AcDbEntity
  8
1
  6
CONTINUOUS
 62
           7
100
AcDbLine
 10
124.772636
 20
123.319517
 30
0.0
 11
124.772636
 21
115.819517
 31
0.0
  0
LINE
  5
33A
100
AcDbEntity
  8
1
  6
CONTINUOUS
 62
           7
100
AcDbLine
 10
136.95204
 20
115.619517
 30
0.0
 11
135.25204
 21
115.619517
 31
0.0
  0
LINE
  5
33B
100
AcDbEntity
  8
1
  6
CONTINUOUS
 62
           7
100
AcDbLine
 10
136.95204
 20
115.619517
 30
0.0
 11
136.95204
 21
117.319517
 31
0.0
  0
ARC
  5
33C
100
AcDbEntity
  8
1
  6
CONTINUOUS
 62
           7
100
AcDbCircle
 10
137.95204
 20
117.319517
 30
0.0
 40
1.0
100
AcDbArc
 50
90.0
 51
180.0
  0
LINE
  5
33D
100
AcDbEntity
  8
1
  6
CONTINUOUS
 62
           7
100
AcDbLine
 10
142.05204
 20
118.319517
 30
0.0
 11
137.95204
 21
118.319517
 31
0.0
  0
LINE
  5
33E
100
AcDbEntity
  8
1
  6
CONTINUOUS
 62
           7
100
AcDbLine
 10
142.05204
 20
117.319517
 30
0.0
 11
137.95204
 21
117.319517
 31
0.0
  0
LINE
  5
33F
100
AcDbEntity
  8
1
  6
CONTINUOUS
 62
           7
100
AcDbLine
 10
137.95204
 20
115.619517
 30
0.0
 11
137.95204
 21
117.319517
 31
0.0
  0
ARC
  5
340
100
AcDbEntity
  8
1
  6
CONTINUOUS
 62
           7
100
AcDbCircle
 10
136.95204
 20
115.619517
 30
0.0
 40
1.0
100
AcDbArc
 50
270.0
 51
0.0
  0
LINE
  5
341
100
AcDbEntity
  8
1
  6
CONTINUOUS
 62
           7
100
AcDbLine
 10
136.95204
 20
114.619517
 30
0.0
 11
133.45204
 21
114.619517
 31
0.0
  0
LINE
  5
342
100
AcDbEntity
  8
1
  6
CONTINUOUS
 62
           7
100
AcDbLine
 10
129.45204
 20
114.619517
 30
0.0
 11
118.45204
 21
114.619517
 31
0.0
  0
LINE
  5
343
100
AcDbEntity
  8
1
  6
CONTINUOUS
 62
           7
100
AcDbLine
 10
117.45204
 20
114.619517
 30
0.0
 11
117.45204
 21
115.619517
 31
0.0
  0
LINE
  5
344
100
AcDbEntity
  8
1
  6
CONTINUOUS
 62
           7
100
AcDbLine
 10
118.45204
 20
114.619517
 30
0.0
 11
117.45204
 21
114.619517
 31
0.0
  0
LINE
  5
345
100
AcDbEntity
  8
1
  6
CONTINUOUS
 62
           7
100
AcDbLine
 10
137.95204
 20
122.319517
 30
0.0
 11
137.95204
 21
121.319517
 31
0.0
  0
LINE
  5
346
100
AcDbEntity
  8
1
  6
CONTINUOUS
 62
           7
100
AcDbLine
 10
138.95204
 20
122.319517
 30
0.0
 11
137.95204
 21
122.319517
 31
0.0
  0
LINE
  5
347
100
AcDbEntity
  8
1
  6
CONTINUOUS
 62
           7
100
AcDbLine
 10
138.95204
 20
121.319517
 30
0.0
 11
137.95204
 21
121.319517
 31
0.0
  0
LINE
  5
348
100
AcDbEntity
  8
1
  6
CONTINUOUS
 62
           7
100
AcDbLine
 10
141.45204
 20
122.319517
 30
0.0
 11
138.95204
 21
122.319517
 31
0.0
  0
LINE
  5
349
100
AcDbEntity
  8
1
  6
CONTINUOUS
 62
           7
100
AcDbLine
 10
141.45204
 20
121.319517
 30
0.0
 11
138.95204
 21
121.319517
 31
0.0
  0
LINE
  5
34A
100
AcDbEntity
  8
1
  6
CONTINUOUS
 62
           7
100
AcDbLine
 10
142.45204
 20
122.319517
 30
0.0
 11
141.45204
 21
122.319517
 31
0.0
  0
LINE
  5
34B
100
AcDbEntity
  8
1
  6
CONTINUOUS
 62
           7
100
AcDbLine
 10
142.45204
 20
122.319517
 30
0.0
 11
142.45204
 21
121.319517
 31
0.0
  0
LINE
  5
34C
100
AcDbEntity
  8
1
  6
CONTINUOUS
 62
           7
100
AcDbLine
 10
142.45204
 20
121.319517
 30
0.0
 11
141.45204
 21
121.319517
 31
0.0
  0
LINE
  5
34D
100
AcDbEntity
  8
1
  6
CONTINUOUS
 62
           7
100
AcDbLine
 10
141.87224
 20
122.919517
 30
0.0
 11
141.849445
 21
122.919517
 31
0.0
  0
LINE
  5
34E
100
AcDbEntity
  8
1
  6
CONTINUOUS
 62
           7
100
AcDbLine
 10
138.554634
 20
122.919517
 30
0.0
 11
138.531839
 21
122.919517
 31
0.0
  0
POLYLINE
  5
34F
100
AcDbEntity
  8
1
  6
CONTINUOUS
 62
           7
100
AcDb2dPolyline
 66
           1
 10
0.0
 20
0.0
 30
0.0
  0
VERTEX
  5
350
100
AcDbEntity
  8
1
  6
CONTINUOUS
 62
           7
100
AcDbVertex
100
AcDb2dVertex
 10
138.554634
 20
122.919517
 30
0.0
  0
VERTEX
  5
351
100
AcDbEntity
  8
1
  6
CONTINUOUS
 62
           7
100
AcDbVertex
100
AcDb2dVertex
 10
138.571828
 20
122.957189
 30
0.0
  0
VERTEX
  5
352
100
AcDbEntity
  8
1
  6
CONTINUOUS
 62
           7
100
AcDbVertex
100
AcDb2dVertex
 10
138.590597
 20
122.994143
 30
0.0
  0
VERTEX
  5
353
100
AcDbEntity
  8
1
  6
CONTINUOUS
 62
           7
100
AcDbVertex
100
AcDb2dVertex
 10
138.61089
 20
123.030284
 30
0.0
  0
VERTEX
  5
354
100
AcDbEntity
  8
1
  6
CONTINUOUS
 62
           7
100
AcDbVertex
100
AcDb2dVertex
 10
138.632653
 20
123.065515
 30
0.0
  0
VERTEX
  5
355
100
AcDbEntity
  8
1
  6
CONTINUOUS
 62
           7
100
AcDbVertex
100
AcDb2dVertex
 10
138.656572
 20
123.100794
 30
0.0
  0
VERTEX
  5
356
100
AcDbEntity
  8
1
  6
CONTINUOUS
 62
           7
100
AcDbVertex
100
AcDb2dVertex
 10
138.682004
 20
123.135046
 30
0.0
  0
VERTEX
  5
357
100
AcDbEntity
  8
1
  6
CONTINUOUS
 62
           7
100
AcDbVertex
100
AcDb2dVertex
 10
138.708876
 20
123.168182
 30
0.0
  0
VERTEX
  5
358
100
AcDbEntity
  8
1
  6
CONTINUOUS
 62
           7
100
AcDbVertex
100
AcDb2dVertex
 10
138.737113
 20
123.20011
 30
0.0
  0
VERTEX
  5
359
100
AcDbEntity
  8
1
  6
CONTINUOUS
 62
           7
100
AcDbVertex
100
AcDb2dVertex
 10
138.765831
 20
123.229941
 30
0.0
  0
VERTEX
  5
35A
100
AcDbEntity
  8
1
  6
CONTINUOUS
 62
           7
100
AcDbVertex
100
AcDb2dVertex
 10
138.795785
 20
123.258582
 30
0.0
  0
VERTEX
  5
35B
100
AcDbEntity
  8
1
  6
CONTINUOUS
 62
           7
100
AcDbVertex
100
AcDb2dVertex
 10
138.826895
 20
123.285964
 30
0.0
  0
VERTEX
  5
35C
100
AcDbEntity
  8
1
  6
CONTINUOUS
 62
           7
100
AcDbVertex
100
AcDb2dVertex
 10
138.859079
 20
123.312017
 30
0.0
  0
VERTEX
  5
35D
100
AcDbEntity
  8
1
  6
CONTINUOUS
 62
           7
100
AcDbVertex
100
AcDb2dVertex
 10
138.893275
 20
123.337402
 30
0.0
  0
VERTEX
  5
35E
100
AcDbEntity
  8
1
  6
CONTINUOUS
 62
           7
100
AcDbVertex
100
AcDb2dVertex
 10
138.928544
 20
123.361343
 30
0.0
  0
VERTEX
  5
35F
100
AcDbEntity
  8
1
  6
CONTINUOUS
 62
           7
100
AcDbVertex
100
AcDb2dVertex
 10
138.964787
 20
123.383781
 30
0.0
  0
VERTEX
  5
360
100
AcDbEntity
  8
1
  6
CONTINUOUS
 62
           7
100
AcDbVertex
100
AcDb2dVertex
 10
139.001907
 20
123.40466
 30
0.0
  0
VERTEX
  5
361
100
AcDbEntity
  8
1
  6
CONTINUOUS
 62
           7
100
AcDbVertex
100
AcDb2dVertex
 10
139.041207
 20
123.424608
 30
0.0
  0
VERTEX
  5
362
100
AcDbEntity
  8
1
  6
CONTINUOUS
 62
           7
100
AcDbVertex
100
AcDb2dVertex
 10
139.081349
 20
123.442854
 30
0.0
  0
VERTEX
  5
363
100
AcDbEntity
  8
1
  6
CONTINUOUS
 62
           7
100
AcDbVertex
100
AcDb2dVertex
 10
139.122217
 20
123.459355
 30
0.0
  0
VERTEX
  5
364
100
AcDbEntity
  8
1
  6
CONTINUOUS
 62
           7
100
AcDbVertex
100
AcDb2dVertex
 10
139.164461
 20
123.474329
 30
0.0
  0
VERTEX
  5
365
100
AcDbEntity
  8
1
  6
CONTINUOUS
 62
           7
100
AcDbVertex
100
AcDb2dVertex
 10
139.207331
 20
123.487475
 30
0.0
  0
VERTEX
  5
366
100
AcDbEntity
  8
1
  6
CONTINUOUS
 62
           7
100
AcDbVertex
100
AcDb2dVertex
 10
139.250703
 20
123.498772
 30
0.0
  0
SEQEND
  5
367
100
AcDbEntity
  8
1
  6
CONTINUOUS
 62
           7
  0
LINE
  5
368
100
AcDbEntity
  8
1
  6
CONTINUOUS
 62
           7
100
AcDbLine
 10
139.92704
 20
123.498772
 30
0.0
 11
139.92704
 21
123.451463
 31
0.0
  0
ARC
  5
369
100
AcDbEntity
  8
1
  6
CONTINUOUS
 62
           7
100
AcDbCircle
 10
140.20204
 20
120.627003
 30
0.0
 40
2.837817
100
AcDbArc
 50
84.438998
 51
95.561002
  0
LINE
  5
36A
100
AcDbEntity
  8
1
  6
CONTINUOUS
 62
           7
100
AcDbLine
 10
140.47704
 20
123.451463
 30
0.0
 11
140.47704
 21
123.498772
 31
0.0
  0
POLYLINE
  5
36B
100
AcDbEntity
  8
1
  6
CONTINUOUS
 62
           7
100
AcDb2dPolyline
 66
           1
 10
0.0
 20
0.0
 30
0.0
  0
VERTEX
  5
36C
100
AcDbEntity
  8
1
  6
CONTINUOUS
 62
           7
100
AcDbVertex
100
AcDb2dVertex
 10
141.153376
 20
123.498772
 30
0.0
  0
VERTEX
  5
36D
100
AcDbEntity
  8
1
  6
CONTINUOUS
 62
           7
100
AcDbVertex
100
AcDb2dVertex
 10
141.195004
 20
123.487966
 30
0.0
  0
VERTEX
  5
36E
100
AcDbEntity
  8
1
  6
CONTINUOUS
 62
           7
100
AcDbVertex
100
AcDb2dVertex
 10
141.236189
 20
123.47545
 30
0.0
  0
VERTEX
  5
36F
100
AcDbEntity
  8
1
  6
CONTINUOUS
 62
           7
100
AcDbVertex
100
AcDb2dVertex
 10
141.276822
 20
123.461247
 30
0.0
  0
VERTEX
  5
370
100
AcDbEntity
  8
1
  6
CONTINUOUS
 62
           7
100
AcDbVertex
100
AcDb2dVertex
 10
141.316794
 20
123.44538
 30
0.0
  0
VERTEX
  5
371
100
AcDbEntity
  8
1
  6
CONTINUOUS
 62
           7
100
AcDbVertex
100
AcDb2dVertex
 10
141.357202
 20
123.42731
 30
0.0
  0
VERTEX
  5
372
100
AcDbEntity
  8
1
  6
CONTINUOUS
 62
           7
100
AcDbVertex
100
AcDb2dVertex
 10
141.396827
 20
123.407491
 30
0.0
  0
VERTEX
  5
373
100
AcDbEntity
  8
1
  6
CONTINUOUS
 62
           7
100
AcDbVertex
100
AcDb2dVertex
 10
141.435556
 20
123.385975
 30
0.0
  0
VERTEX
  5
374
100
AcDbEntity
  8
1
  6
CONTINUOUS
 62
           7
100
AcDbVertex
100
AcDb2dVertex
 10
141.473275
 20
123.362813
 30
0.0
  0
VERTEX
  5
375
100
AcDbEntity
  8
1
  6
CONTINUOUS
 62
           7
100
AcDbVertex
100
AcDb2dVertex
 10
141.508741
 20
123.338864
 30
0.0
  0
VERTEX
  5
376
100
AcDbEntity
  8
1
  6
CONTINUOUS
 62
           7
100
AcDbVertex
100
AcDb2dVertex
 10
141.543191
 20
123.313409
 30
0.0
  0
VERTEX
  5
377
100
AcDbEntity
  8
1
  6
CONTINUOUS
 62
           7
100
AcDbVertex
100
AcDb2dVertex
 10
141.57653
 20
123.286516
 30
0.0
  0
VERTEX
  5
378
100
AcDbEntity
  8
1
  6
CONTINUOUS
 62
           7
100
AcDbVertex
100
AcDb2dVertex
 10
141.608663
 20
123.258252
 30
0.0
  0
VERTEX
  5
379
100
AcDbEntity
  8
1
  6
CONTINUOUS
 62
           7
100
AcDbVertex
100
AcDb2dVertex
 10
141.640482
 20
123.227705
 30
0.0
  0
VERTEX
  5
37A
100
AcDbEntity
  8
1
  6
CONTINUOUS
 62
           7
100
AcDbVertex
100
AcDb2dVertex
 10
141.670953
 20
123.195754
 30
0.0
  0
VERTEX
  5
37B
100
AcDbEntity
  8
1
  6
CONTINUOUS
 62
           7
100
AcDbVertex
100
AcDb2dVertex
 10
141.699987
 20
123.162492
 30
0.0
  0
VERTEX
  5
37C
100
AcDbEntity
  8
1
  6
CONTINUOUS
 62
           7
100
AcDbVertex
100
AcDb2dVertex
 10
141.727494
 20
123.128011
 30
0.0
  0
VERTEX
  5
37D
100
AcDbEntity
  8
1
  6
CONTINUOUS
 62
           7
100
AcDbVertex
100
AcDb2dVertex
 10
141.751119
 20
123.095675
 30
0.0
  0
VERTEX
  5
37E
100
AcDbEntity
  8
1
  6
CONTINUOUS
 62
           7
100
AcDbVertex
100
AcDb2dVertex
 10
141.773433
 20
123.0624
 30
0.0
  0
VERTEX
  5
37F
100
AcDbEntity
  8
1
  6
CONTINUOUS
 62
           7
100
AcDbVertex
100
AcDb2dVertex
 10
141.794379
 20
123.028267
 30
0.0
  0
VERTEX
  5
380
100
AcDbEntity
  8
1
  6
CONTINUOUS
 62
           7
100
AcDbVertex
100
AcDb2dVertex
 10
141.814213
 20
122.992784
 30
0.0
  0
VERTEX
  5
381
100
AcDbEntity
  8
1
  6
CONTINUOUS
 62
           7
100
AcDbVertex
100
AcDb2dVertex
 10
141.832584
 20
122.956504
 30
0.0
  0
VERTEX
  5
382
100
AcDbEntity
  8
1
  6
CONTINUOUS
 62
           7
100
AcDbVertex
100
AcDb2dVertex
 10
141.849445
 20
122.919517
 30
0.0
  0
SEQEND
  5
383
100
AcDbEntity
  8
1
  6
CONTINUOUS
 62
           7
  0
LINE
  5
384
100
AcDbEntity
  8
1
  6
DOT
 62
           9
100
AcDbLine
 10
139.92704
 20
122.919517
 30
0.0
 11
139.92704
 21
123.401453
 31
0.0
  0
LINE
  5
385
100
AcDbEntity
  8
1
  6
DOT
 62
           9
100
AcDbLine
 10
139.92704
 20
123.401453
 30
0.0
 11
139.92704
 21
123.451463
 31
0.0
  0
LINE
  5
386
100
AcDbEntity
  8
1
  6
DOT
 62
           9
100
AcDbLine
 10
140.47704
 20
122.919517
 30
0.0
 11
140.47704
 21
123.401453
 31
0.0
  0
LINE
  5
387
100
AcDbEntity
  8
1
  6
DOT
 62
           9
100
AcDbLine
 10
140.47704
 20
123.401453
 30
0.0
 11
140.47704
 21
123.451463
 31
0.0
  0
LINE
  5
388
100
AcDbEntity
  8
1
  6
DOT
 62
           9
100
AcDbLine
 10
140.47704
 20
122.919517
 30
0.0
 11
139.92704
 21
122.919517
 31
0.0
  0
LINE
  5
389
100
AcDbEntity
  8
1
  6
CONTINUOUS
 62
           7
100
AcDbLine
 10
139.20204
 20
116.519517
 30
0.0
 11
141.20204
 21
116.519517
 31
0.0
  0
LINE
  5
38A
100
AcDbEntity
  8
1
  6
CONTINUOUS
 62
           7
100
AcDbLine
 10
141.00204
 20
116.319517
 30
0.0
 11
139.40204
 21
116.319517
 31
0.0
  0
ARC
  5
38B
100
AcDbEntity
  8
1
  6
CONTINUOUS
 62
           7
100
AcDbCircle
 10
140.20204
 20
119.498234
 30
0.0
 40
4.112097
100
AcDbArc
 50
93.834566
 51
103.376606
  0
ARC
  5
38C
100
AcDbEntity
  8
1
  6
CONTINUOUS
 62
           7
100
AcDbCircle
 10
140.20204
 20
119.498234
 30
0.0
 40
4.112097
100
AcDbArc
 50
85.289255
 51
86.165434
  0
ARC
  5
38D
100
AcDbEntity
  8
1
  6
CONTINUOUS
 62
           7
100
AcDbCircle
 10
140.20204
 20
119.498234
 30
0.0
 40
4.112097
100
AcDbArc
 50
76.623394
 51
85.289255
  0
LINE
  5
38E
100
AcDbEntity
  8
1
  6
DOT
 62
           9
100
AcDbLine
 10
139.92704
 20
122.919517
 30
0.0
 11
138.554634
 21
122.919517
 31
0.0
  0
LINE
  5
38F
100
AcDbEntity
  8
1
  6
DOT
 62
           9
100
AcDbLine
 10
141.849445
 20
122.919517
 30
0.0
 11
140.47704
 21
122.919517
 31
0.0
  0
LINE
  5
390
100
AcDbEntity
  8
1
  6
CONTINUOUS
 62
           7
100
AcDbLine
 10
160.45204
 20
117.719517
 30
0.0
 11
160.45204
 21
121.919517
 31
0.0
  0
LINE
  5
391
100
AcDbEntity
  8
1
  6
CONTINUOUS
 62
           7
100
AcDbLine
 10
138.45204
 20
122.52807
 30
0.0
 11
138.45204
 21
122.319517
 31
0.0
  0
LINE
  5
392
100
AcDbEntity
  8
1
  6
CONTINUOUS
 62
           7
100
AcDbLine
 10
141.95204
 20
122.319517
 30
0.0
 11
141.95204
 21
122.52807
 31
0.0
  0
ARC
  5
393
100
AcDbEntity
  8
1
  6
CONTINUOUS
 62
           7
100
AcDbCircle
 10
139.45204
 20
122.52807
 30
0.0
 40
1.0
100
AcDbArc
 50
156.955446
 51
180.0
  0
ARC
  5
394
100
AcDbEntity
  8
1
  6
CONTINUOUS
 62
           7
100
AcDbCircle
 10
140.95204
 20
122.52807
 30
0.0
 40
1.0
100
AcDbArc
 50
0.0
 51
23.044554
  0
LINE
  5
395
100
AcDbEntity
  8
1
  6
CONTINUOUS
 62
           7
100
AcDbLine
 10
139.20204
 20
116.519517
 30
0.0
 11
139.40204
 21
116.319517
 31
0.0
  0
LINE
  5
396
100
AcDbEntity
  8
1
  6
CONTINUOUS
 62
           7
100
AcDbLine
 10
141.00204
 20
116.319517
 30
0.0
 11
141.20204
 21
116.519517
 31
0.0
  0
LINE
  5
397
100
AcDbEntity
  8
1
  6
CONTINUOUS
 62
           7
100
AcDbLine
 10
139.20204
 20
117.319517
 30
0.0
 11
139.20204
 21
116.519517
 31
0.0
  0
LINE
  5
398
100
AcDbEntity
  8
1
  6
CONTINUOUS
 62
           7
100
AcDbLine
 10
141.20204
 20
116.519517
 30
0.0
 11
141.20204
 21
117.319517
 31
0.0
  0
LINE
  5
399
100
AcDbEntity
  8
1
  6
CONTINUOUS
 62
           7
100
AcDbLine
 10
139.20204
 20
121.319517
 30
0.0
 11
139.20204
 21
118.319517
 31
0.0
  0
LINE
  5
39A
100
AcDbEntity
  8
1
  6
CONTINUOUS
 62
           7
100
AcDbLine
 10
141.20204
 20
118.319517
 30
0.0
 11
141.20204
 21
121.319517
 31
0.0
  0
LINE
  5
39B
100
AcDbEntity
  8
1
  6
CONTINUOUS
 62
           7
100
AcDbLine
 10
137.95204
 20
121.919517
 30
0.0
 11
135.45204
 21
121.919517
 31
0.0
  0
LINE
  5
39C
100
AcDbEntity
  8
1
  6
CONTINUOUS
 62
           7
100
AcDbLine
 10
160.45204
 20
121.919517
 30
0.0
 11
142.45204
 21
121.919517
 31
0.0
  0
LINE
  5
39D
100
AcDbEntity
  8
1
  6
CONTINUOUS
 62
           7
100
AcDbLine
 10
143.05204
 20
117.719517
 30
0.0
 11
160.45204
 21
117.719517
 31
0.0
  0
LINE
  5
39E
100
AcDbEntity
  8
1
  6
CONTINUOUS
 62
           7
100
AcDbLine
 10
135.45204
 20
117.719517
 30
0.0
 11
137.035525
 21
117.719517
 31
0.0
  0
LINE
  5
39F
100
AcDbEntity
  8
1
  6
DOT
 62
           9
100
AcDbLine
 10
137.035525
 20
117.719517
 30
0.0
 11
137.035663
 21
117.719517
 31
0.0
  0
LINE
  5
3A0
100
AcDbEntity
  8
1
  6
CONTINUOUS
 62
           7
100
AcDbLine
 10
201.380982
 20
121.319517
 30
0.0
 11
160.45204
 21
121.319517
 31
0.0
  0
LINE
  5
3A1
100
AcDbEntity
  8
1
  6
CONTINUOUS
 62
           7
100
AcDbLine
 10
160.45204
 20
118.319517
 30
0.0
 11
199.325145
 21
118.319517
 31
0.0
  0
LINE
  5
3A2
100
AcDbEntity
  8
1
  6
CONTINUOUS
 62
           7
100
AcDbLine
 10
287.542148
 20
119.519517
 30
0.0
 11
286.912738
 21
119.519517
 31
0.0
  0
LINE
  5
3A3
100
AcDbEntity
  8
1
  6
CONTINUOUS
 62
           7
100
AcDbLine
 10
287.542148
 20
120.119517
 30
0.0
 11
286.912738
 21
120.119517
 31
0.0
  0
LINE
  5
3A4
100
AcDbEntity
  8
1
  6
CONTINUOUS
 62
           7
100
AcDbLine
 10
280.904696
 20
119.519517
 30
0.0
 11
280.904696
 21
120.119517
 31
0.0
  0
LINE
  5
3A5
100
AcDbEntity
  8
1
  6
CONTINUOUS
 62
           7
100
AcDbLine
 10
286.912738
 20
119.519517
 30
0.0
 11
280.904696
 21
119.519517
 31
0.0
  0
LINE
  5
3A6
100
AcDbEntity
  8
1
  6
CONTINUOUS
 62
           7
100
AcDbLine
 10
286.912738
 20
120.119517
 30
0.0
 11
280.904696
 21
120.119517
 31
0.0
  0
LINE
  5
3A7
100
AcDbEntity
  8
1
  6
CONTINUOUS
 62
           7
100
AcDbLine
 10
280.74947
 20
119.519517
 30
0.0
 11
280.74947
 21
120.119517
 31
0.0
  0
LINE
  5
3A8
100
AcDbEntity
  8
1
  6
CONTINUOUS
 62
           7
100
AcDbLine
 10
280.904696
 20
119.519517
 30
0.0
 11
280.74947
 21
119.519517
 31
0.0
  0
LINE
  5
3A9
100
AcDbEntity
  8
1
  6
CONTINUOUS
 62
           7
100
AcDbLine
 10
280.904696
 20
120.119517
 30
0.0
 11
280.74947
 21
120.119517
 31
0.0
  0
LINE
  5
3AA
100
AcDbEntity
  8
1
  6
DOT
 62
           9
100
AcDbLine
 10
281.903653
 20
119.519517
 30
0.0
 11
281.903653
 21
120.119517
 31
0.0
  0
LINE
  5
3AB
100
AcDbEntity
  8
1
  6
CONTINUOUS
 62
           7
100
AcDbLine
 10
288.66801
 20
119.519517
 30
0.0
 11
288.038601
 21
119.519517
 31
0.0
  0
LINE
  5
3AC
100
AcDbEntity
  8
1
  6
CONTINUOUS
 62
           7
100
AcDbLine
 10
288.66801
 20
120.119517
 30
0.0
 11
288.038601
 21
120.119517
 31
0.0
  0
LINE
  5
3AD
100
AcDbEntity
  8
1
  6
CONTINUOUS
 62
           7
100
AcDbLine
 10
288.038601
 20
119.519517
 30
0.0
 11
287.542148
 21
119.519517
 31
0.0
  0
LINE
  5
3AE
100
AcDbEntity
  8
1
  6
CONTINUOUS
 62
           7
100
AcDbLine
 10
288.038601
 20
120.119517
 30
0.0
 11
287.542148
 21
120.119517
 31
0.0
  0
LINE
  5
3AF
100
AcDbEntity
  8
1
  6
DOT
 62
           9
100
AcDbLine
 10
282.289378
 20
119.519517
 30
0.0
 11
282.289378
 21
120.119517
 31
0.0
  0
ELLIPSE
  5
3B0
100
AcDbEntity
  8
1
  6
DOT
 62
           9
100
AcDbEllipse
 10
269.252488
 20
119.819517
 30
0.0
 11
-0.0000000000000001
 21
-0.2999999999999531
 31
0.0
210
0.0
220
0.0
230
1.0
 40
0.258819
 41
1.5707963267948966
 42
3.1415926535897931
  0
ELLIPSE
  5
3B1
100
AcDbEntity
  8
1
  6
DOT
 62
           9
100
AcDbEllipse
 10
269.252488
 20
119.819517
 30
0.0
 11
-0.0000000000000001
 21
-0.2999999999999531
 31
0.0
210
0.0
220
0.0
230
1.0
 40
0.258819
 41
3.1415926535897931
 42
6.2831853071795862
  0
ELLIPSE
  5
3B2
100
AcDbEntity
  8
1
  6
DOT
 62
           9
100
AcDbEllipse
 10
269.252488
 20
119.819517
 30
0.0
 11
-0.0000000000000001
 21
-0.2999999999999531
 31
0.0
210
0.0
220
0.0
230
1.0
 40
0.258819
 41
0.0
 42
1.5707963267948966
  0
LINE
  5
3B3
100
AcDbEntity
  8
1
  6
CONTINUOUS
 62
           7
100
AcDbLine
 10
239.870081
 20
118.319517
 30
0.0
 11
239.870081
 21
121.319517
 31
0.0
  0
LINE
  5
3B4
100
AcDbEntity
  8
1
  6
CONTINUOUS
 62
           7
100
AcDbLine
 10
287.542148
 20
119.519517
 30
0.0
 11
287.542148
 21
120.119517
 31
0.0
  0
INSERT
  5
3B5
100
AcDbEntity
  8
0
  6
CONTINUOUS
 62
           7
100
AcDbBlockReference
  2
_POLYLINE_$3$
 10
0.0
 20
0.0
 30
0.0
  0
POLYLINE
  5
3B6
100
AcDbEntity
  8
1
  6
DOT
 62
           9
100
AcDb2dPolyline
 66
           1
 10
0.0
 20
0.0
 30
0.0
  0
VERTEX
  5
3B7
100
AcDbEntity
  8
1
  6
DOT
 62
           9
100
AcDbVertex
100
AcDb2dVertex
 10
282.031388
 20
119.519464
 30
0.0
  0
VERTEX
  5
3B8
100
AcDbEntity
  8
1
  6
DOT
 62
           9
100
AcDbVertex
100
AcDb2dVertex
 10
282.031986
 20
119.54154
 30
0.0
  0
VERTEX
  5
3B9
100
AcDbEntity
  8
1
  6
DOT
 62
           9
100
AcDbVertex
100
AcDb2dVertex
 10
282.034728
 20
119.68315
 30
0.0
  0
VERTEX
  5
3BA
100
AcDbEntity
  8
1
  6
DOT
 62
           9
100
AcDbVertex
100
AcDb2dVertex
 10
282.035595
 20
119.819517
 30
0.0
  0
SEQEND
  5
3BB
100
AcDbEntity
  8
1
  6
DOT
 62
           9
  0
POLYLINE
  5
3BC
100
AcDbEntity
  8
1
  6
DOT
 62
           9
100
AcDb2dPolyline
 66
           1
 10
0.0
 20
0.0
 30
0.0
  0
VERTEX
  5
3BD
100
AcDbEntity
  8
1
  6
DOT
 62
           9
100
AcDbVertex
100
AcDb2dVertex
 10
282.035595
 20
119.819517
 30
0.0
  0
VERTEX
  5
3BE
100
AcDbEntity
  8
1
  6
DOT
 62
           9
100
AcDbVertex
100
AcDb2dVertex
 10
282.03461
 20
119.964826
 30
0.0
  0
VERTEX
  5
3BF
100
AcDbEntity
  8
1
  6
DOT
 62
           9
100
AcDbVertex
100
AcDb2dVertex
 10
282.031754
 20
120.106282
 30
0.0
  0
VERTEX
  5
3C0
100
AcDbEntity
  8
1
  6
DOT
 62
           9
100
AcDbVertex
100
AcDb2dVertex
 10
282.031389
 20
120.119551
 30
0.0
  0
SEQEND
  5
3C1
100
AcDbEntity
  8
1
  6
DOT
 62
           9
  0
INSERT
  5
3C2
100
AcDbEntity
  8
0
  6
CONTINUOUS
 62
           7
100
AcDbBlockReference
  2
_POLYLINE_$4$
 10
0.0
 20
0.0
 30
0.0
  0
LINE
  5
3C3
100
AcDbEntity
  8
1
  6
DOT
 62
           9
100
AcDbLine
 10
284.167264
 20
120.119517
 30
0.0
 11
284.167264
 21
119.519517
 31
0.0
  0
LINE
  5
3C4
100
AcDbEntity
  8
1
  6
CONTINUOUS
 62
           7
100
AcDbLine
 10
276.803152
 20
116.819517
 30
0.0
 11
281.036783
 21
116.819517
 31
0.0
  0
LINE
  5
3C5
100
AcDbEntity
  8
1
  6
CONTINUOUS
 62
           7
100
AcDbLine
 10
281.036783
 20
122.819517
 30
0.0
 11
276.803152
 21
122.819517
 31
0.0
  0
ARC
  5
3C6
100
AcDbEntity
  8
1
  6
CONTINUOUS
 62
           7
100
AcDbCircle
 10
276.803352
 20
120.749651
 30
0.0
 40
2.069866
100
AcDbArc
 50
90.005526
 51
108.162734
  0
ARC
  5
3C7
100
AcDbEntity
  8
1
  6
CONTINUOUS
 62
           7
100
AcDbCircle
 10
276.803302
 20
118.889071
 30
0.0
 40
2.069554
100
AcDbArc
 50
251.832292
 51
269.996022
  0
LINE
  5
3C8
100
AcDbEntity
  8
1
  6
CONTINUOUS
 62
           7
100
AcDbLine
 10
276.158652
 20
122.716553
 30
0.0
 11
273.680125
 21
121.904596
 31
0.0
  0
LINE
  5
3C9
100
AcDbEntity
  8
1
  6
CONTINUOUS
 62
           7
100
AcDbLine
 10
273.680125
 20
117.734437
 30
0.0
 11
276.158652
 21
116.92248
 31
0.0
  0
LINE
  5
3CA
100
AcDbEntity
  8
1
  6
CONTINUOUS
 62
           7
100
AcDbLine
 10
288.66801
 20
119.519517
 30
0.0
 11
288.66801
 21
120.119517
 31
0.0
  0
POLYLINE
  5
3CB
100
AcDbEntity
  8
1
  6
CONTINUOUS
 62
           7
100
AcDb2dPolyline
 66
           1
 10
0.0
 20
0.0
 30
0.0
  0
VERTEX
  5
3CC
100
AcDbEntity
  8
1
  6
CONTINUOUS
 62
           7
100
AcDbVertex
100
AcDb2dVertex
 10
273.680299
 20
121.904653
 30
0.0
  0
VERTEX
  5
3CD
100
AcDbEntity
  8
1
  6
CONTINUOUS
 62
           7
100
AcDbVertex
100
AcDb2dVertex
 10
273.653448
 20
121.8961
 30
0.0
  0
VERTEX
  5
3CE
100
AcDbEntity
  8
1
  6
CONTINUOUS
 62
           7
100
AcDbVertex
100
AcDb2dVertex
 10
273.560897
 20
121.870308
 30
0.0
  0
VERTEX
  5
3CF
100
AcDbEntity
  8
1
  6
CONTINUOUS
 62
           7
100
AcDbVertex
100
AcDb2dVertex
 10
273.465214
 20
121.849413
 30
0.0
  0
VERTEX
  5
3D0
100
AcDbEntity
  8
1
  6
CONTINUOUS
 62
           7
100
AcDbVertex
100
AcDb2dVertex
 10
273.367322
 20
121.833851
 30
0.0
  0
VERTEX
  5
3D1
100
AcDbEntity
  8
1
  6
CONTINUOUS
 62
           7
100
AcDbVertex
100
AcDb2dVertex
 10
273.268094
 20
121.823893
 30
0.0
  0
VERTEX
  5
3D2
100
AcDbEntity
  8
1
  6
CONTINUOUS
 62
           7
100
AcDbVertex
100
AcDb2dVertex
 10
273.168335
 20
121.819667
 30
0.0
  0
VERTEX
  5
3D3
100
AcDbEntity
  8
1
  6
CONTINUOUS
 62
           7
100
AcDbVertex
100
AcDb2dVertex
 10
273.144923
 20
121.819509
 30
0.0
  0
SEQEND
  5
3D4
100
AcDbEntity
  8
1
  6
CONTINUOUS
 62
           7
  0
POLYLINE
  5
3D5
100
AcDbEntity
  8
1
  6
CONTINUOUS
 62
           7
100
AcDb2dPolyline
 66
           1
 10
0.0
 20
0.0
 30
0.0
  0
VERTEX
  5
3D6
100
AcDbEntity
  8
1
  6
CONTINUOUS
 62
           7
100
AcDbVertex
100
AcDb2dVertex
 10
273.145022
 20
117.819524
 30
0.0
  0
VERTEX
  5
3D7
100
AcDbEntity
  8
1
  6
CONTINUOUS
 62
           7
100
AcDbVertex
100
AcDb2dVertex
 10
273.336693
 20
117.808874
 30
0.0
  0
VERTEX
  5
3D8
100
AcDbEntity
  8
1
  6
CONTINUOUS
 62
           7
100
AcDbVertex
100
AcDb2dVertex
 10
273.527765
 20
117.77661
 30
0.0
  0
VERTEX
  5
3D9
100
AcDbEntity
  8
1
  6
CONTINUOUS
 62
           7
100
AcDbVertex
100
AcDb2dVertex
 10
273.680287
 20
117.734384
 30
0.0
  0
SEQEND
  5
3DA
100
AcDbEntity
  8
1
  6
CONTINUOUS
 62
           7
  0
LINE
  5
3DB
100
AcDbEntity
  8
1
  6
CONTINUOUS
 62
           7
100
AcDbLine
 10
269.542266
 20
117.819524
 30
0.0
 11
273.144956
 21
117.819524
 31
0.0
  0
LINE
  5
3DC
100
AcDbEntity
  8
1
  6
CONTINUOUS
 62
           7
100
AcDbLine
 10
273.144956
 20
121.819509
 30
0.0
 11
269.542266
 21
121.819509
 31
0.0
  0
INSERT
  5
3DD
100
AcDbEntity
  8
0
  6
CONTINUOUS
 62
           7
100
AcDbBlockReference
  2
_POLYLINE_$5$
 10
0.0
 20
0.0
 30
0.0
  0
INSERT
  5
3DE
100
AcDbEntity
  8
0
  6
CONTINUOUS
 62
           7
100
AcDbBlockReference
  2
_POLYLINE_$6$
 10
0.0
 20
0.0
 30
0.0
  0
LINE
  5
3DF
100
AcDbEntity
  8
1
  6
CONTINUOUS
 62
           7
100
AcDbLine
 10
239.870081
 20
119.519517
 30
0.0
 11
268.808994
 21
119.519517
 31
0.0
  0
LINE
  5
3E0
100
AcDbEntity
  8
1
  6
DOT
 62
           9
100
AcDbLine
 10
268.808994
 20
119.519517
 30
0.0
 11
269.252488
 21
119.519517
 31
0.0
  0
LINE
  5
3E1
100
AcDbEntity
  8
1
  6
DOT
 62
           9
100
AcDbLine
 10
269.252488
 20
120.119517
 30
0.0
 11
268.809016
 21
120.119517
 31
0.0
  0
LINE
  5
3E2
100
AcDbEntity
  8
1
  6
CONTINUOUS
 62
           7
100
AcDbLine
 10
268.809016
 20
120.119517
 30
0.0
 11
239.870081
 21
120.119517
 31
0.0
  0
LINE
  5
3E3
100
AcDbEntity
  8
1
  6
CONTINUOUS
 62
           7
100
AcDbLine
 10
239.870081
 20
121.319517
 30
0.0
 11
205.205903
 21
121.319517
 31
0.0
  0
LINE
  5
3E4
100
AcDbEntity
  8
1
  6
CONTINUOUS
 62
           7
100
AcDbLine
 10
203.240903
 20
118.319517
 30
0.0
 11
239.870081
 21
118.319517
 31
0.0
  0
LINE
  5
3E5
100
AcDbEntity
  8
5
  6
CONTINUOUS
 62
          11
100
AcDbLine
 10
195.963118
 20
117.879258
 30
0.0
 11
202.611123
 21
120.313712
 31
0.0
  0
LINE
  5
3E6
100
AcDbEntity
  8
5
  6
CONTINUOUS
 62
          11
100
AcDbLine
 10
200.963118
 20
117.879258
 30
0.0
 11
207.611123
 21
120.313712
 31
0.0
  0
POINT
  5
3E7
100
AcDbEntity
  8
5
  6
CONTINUOUS
 62
           9
100
AcDbPoint
 10
203.508454
 20
124.42405
 30
0.0
  0
POINT
  5
3E8
100
AcDbEntity
  8
5
  6
CONTINUOUS
 62
           9
100
AcDbPoint
 10
197.391823
 20
115.498299
 30
0.0
  0
LINE
  5
3E9
100
AcDbEntity
  8
1
  6
CONTINUOUS
 62
           9
100
AcDbLine
 10
203.508454
 20
124.42405
 30
0.0
 11
197.391823
 21
115.498299
 31
0.0
  0
LINE
  5
3EA
100
AcDbEntity
  8
1
  6
CONTINUOUS
 62
           9
100
AcDbLine
 10
203.508454
 20
124.42405
 30
0.0
 11
197.391823
 21
115.498299
 31
0.0
  0
POINT
  5
3EB
100
AcDbEntity
  8
5
  6
CONTINUOUS
 62
           9
100
AcDbPoint
 10
207.26905
 20
124.469358
 30
0.0
  0
POINT
  5
3EC
100
AcDbEntity
  8
5
  6
CONTINUOUS
 62
           9
100
AcDbPoint
 10
201.333652
 20
115.407683
 30
0.0
  0
LINE
  5
3ED
100
AcDbEntity
  8
1
  6
CONTINUOUS
 62
           9
100
AcDbLine
 10
207.26905
 20
124.469358
 30
0.0
 11
201.333652
 21
115.407683
 31
0.0
  0
LINE
  5
3EE
100
AcDbEntity
  8
1
  6
CONTINUOUS
 62
           9
100
AcDbLine
 10
207.26905
 20
124.469358
 30
0.0
 11
201.333652
 21
115.407683
 31
0.0
  0
LINE
  5
3EF
100
AcDbEntity
  8
1
  6
DASHDOT
 62
           1
100
AcDbLine
 10
109.111633
 20
195.285467
 30
0.0
 11
291.028073
 21
195.285467
 31
0.0
  0
LINE
  5
3F0
100
AcDbEntity
  8
1
  6
DASHDOT
 62
           1
100
AcDbLine
 10
238.826694
 20
195.316425
 30
0.0
 11
288.649916
 21
208.666517
 31
0.0
  0
LINE
  5
3F1
100
AcDbEntity
  8
1
  6
DASHDOT
 62
           1
100
AcDbLine
 10
289.001094
 20
181.810318
 30
0.0
 11
238.826694
 21
195.254508
 31
0.0
  0
LINE
  5
3F2
100
AcDbEntity
  8
1
  6
DASHDOT
 62
           1
100
AcDbLine
 10
289.251013
 20
119.819517
 30
0.0
 11
109.111633
 21
119.819517
 31
0.0
  0
POINT
  5
3F3
100
AcDbEntity
  8
5
  6
CONTINUOUS
 62
           9
100
AcDbPoint
 10
288.533328
 20
209.10163
 30
0.0
  0
POINT
  5
3F4
100
AcDbEntity
  8
5
  6
CONTINUOUS
 62
           9
100
AcDbPoint
 10
289.251013
 20
182.743028
 30
0.0
  0
POINT
  5
3F5
100
AcDbEntity
  8
5
  6
CONTINUOUS
 62
           9
100
AcDbPoint
 10
109.111633
 20
196.799285
 30
0.0
  0
LINE
  5
3F6
100
AcDbEntity
  8
1
  6
DOT
 62
           9
100
AcDbLine
 10
239.870266
 20
195.285467
 30
0.0
 11
239.870081
 21
195.285467
 31
0.0
  0
ELLIPSE
  5
3F7
100
AcDbEntity
  8
1
  6
DOT
 62
           9
100
AcDbEllipse
 10
238.711155
 20
119.819517
 30
0.0
 11
-1.1591109915467523
 21
0.0000000000000001
 31
0.0
210
0.0
220
0.0
230
1.0
 40
0.258819
 41
3.1237320083347866
 42
3.1594532988448005
  0
INSERT
  5
3F8
100
AcDbEntity
  8
0
  6
CONTINUOUS
 62
           7
100
AcDbBlockReference
  2
AID1007_$7$
 10
0.0
 20
0.0
 30
0.0
  0
LINE
  5
3F9
100
AcDbEntity
  8
1
  6
CONTINUOUS
 62
           7
100
AcDbLine
 10
110.05204
 20
188.285467
 30
0.0
 11
110.05204
 21
202.285467
 31
0.0
  0
ARC
  5
3FA
100
AcDbEntity
  8
1
  6
CONTINUOUS
 62
           7
100
AcDbCircle
 10
111.05204
 20
202.285467
 30
0.0
 40
1.0
100
AcDbArc
 50
90.0
 51
180.0
  0
ARC
  5
3FB
100
AcDbEntity
  8
1
  6
CONTINUOUS
 62
           7
100
AcDbCircle
 10
111.05204
 20
188.285467
 30
0.0
 40
1.0
100
AcDbArc
 50
180.0
 51
270.0
  0
LINE
  5
3FC
100
AcDbEntity
  8
1
  6
DOT
 62
           9
100
AcDbLine
 10
135.25204
 20
201.785467
 30
0.0
 11
135.25204
 21
188.785467
 31
0.0
  0
LINE
  5
3FD
100
AcDbEntity
  8
1
  6
CONTINUOUS
 62
           7
100
AcDbLine
 10
111.05204
 20
115.619517
 30
0.0
 11
110.25204
 21
115.619517
 31
0.0
  0
ARC
  5
3FE
100
AcDbEntity
  8
1
  6
CONTINUOUS
 62
           7
100
AcDbCircle
 10
110.25204
 20
115.819517
 30
0.0
 40
0.2
100
AcDbArc
 50
180.0
 51
270.0
  0
LINE
  5
3FF
100
AcDbEntity
  8
1
  6
CONTINUOUS
 62
           7
100
AcDbLine
 10
110.05204
 20
115.819517
 30
0.0
 11
110.05204
 21
123.319517
 31
0.0
  0
ARC
  5
400
100
AcDbEntity
  8
1
  6
CONTINUOUS
 62
           7
100
AcDbCircle
 10
110.25204
 20
123.319517
 30
0.0
 40
0.2
100
AcDbArc
 50
90.0
 51
180.0
  0
LINE
  5
401
100
AcDbEntity
  8
1
  6
CONTINUOUS
 62
           7
100
AcDbLine
 10
110.25204
 20
123.519517
 30
0.0
 11
111.05204
 21
123.519517
 31
0.0
  0
CIRCLE
  5
402
100
AcDbEntity
  8
1
  6
CONTINUOUS
 62
           7
100
AcDbCircle
 10
140.20204
 20
191.035467
 30
0.0
 40
1.75
  0
ARC
  5
403
100
AcDbEntity
  8
1
  6
CONTINUOUS
 62
           7
100
AcDbCircle
 10
140.20204
 20
191.035467
 30
0.0
 40
1.670201
100
AcDbArc
 50
350.523047
 51
9.476953
  0
CIRCLE
  5
404
100
AcDbEntity
  8
1
  6
CONTINUOUS
 62
           7
100
AcDbCircle
 10
140.20204
 20
199.535467
 30
0.0
 40
1.75
  0
ARC
  5
405
100
AcDbEntity
  8
1
  6
CONTINUOUS
 62
           7
100
AcDbCircle
 10
140.20204
 20
199.535467
 30
0.0
 40
1.670201
100
AcDbArc
 50
350.523047
 51
9.476953
  0
INSERT
  5
406
100
AcDbEntity
  8
0
  6
CONTINUOUS
 62
           7
100
AcDbBlockReference
  2
AID1046_$8$
 10
0.0
 20
0.0
 30
0.0
  0
INSERT
  5
407
100
AcDbEntity
  8
0
  6
CONTINUOUS
 62
           7
100
AcDbBlockReference
  2
AID1059_$9$
 10
0.0
 20
0.0
 30
0.0
  0
LINE
  5
408
100
AcDbEntity
  8
1
  6
DOT
 62
           9
100
AcDbLine
 10
143.05204
 20
193.815773
 30
0.0
 11
143.05204
 21
196.75516
 31
0.0
  0
LINE
  5
409
100
AcDbEntity
  8
1
  6
CONTINUOUS
 62
           7
100
AcDbLine
 10
143.05204
 20
200.785467
 30
0.0
 11
143.05204
 21
197.385467
 31
0.0
  0
LINE
  5
40A
100
AcDbEntity
  8
1
  6
DOT
 62
           9
100
AcDbLine
 10
143.05204
 20
197.385467
 30
0.0
 11
143.05204
 21
196.75516
 31
0.0
  0
LINE
  5
40B
100
AcDbEntity
  8
1
  6
DOT
 62
           9
100
AcDbLine
 10
143.05204
 20
193.815773
 30
0.0
 11
143.05204
 21
193.185467
 31
0.0
  0
LINE
  5
40C
100
AcDbEntity
  8
1
  6
CONTINUOUS
 62
           7
100
AcDbLine
 10
143.05204
 20
193.185467
 30
0.0
 11
143.05204
 21
189.785467
 31
0.0
  0
ARC
  5
40D
100
AcDbEntity
  8
1
  6
CONTINUOUS
 62
           7
100
AcDbCircle
 10
142.05204
 20
200.785467
 30
0.0
 40
1.0
100
AcDbArc
 50
0.0
 51
90.0
  0
ARC
  5
40E
100
AcDbEntity
  8
1
  6
CONTINUOUS
 62
           7
100
AcDbCircle
 10
142.05204
 20
189.785467
 30
0.0
 40
1.0
100
AcDbArc
 50
270.0
 51
0.0
  0
LINE
  5
40F
100
AcDbEntity
  8
1
  6
CONTINUOUS
 62
           7
100
AcDbLine
 10
143.05204
 20
118.319517
 30
0.0
 11
143.05204
 21
117.319517
 31
0.0
  0
LINE
  5
410
100
AcDbEntity
  8
1
  6
CONTINUOUS
 62
           7
100
AcDbLine
 10
143.05204
 20
117.319517
 30
0.0
 11
142.05204
 21
117.319517
 31
0.0
  0
LINE
  5
411
100
AcDbEntity
  8
1
  6
CONTINUOUS
 62
           7
100
AcDbLine
 10
142.05204
 20
118.319517
 30
0.0
 11
143.05204
 21
118.319517
 31
0.0
  0
INSERT
  5
412
100
AcDbEntity
  8
0
  6
CONTINUOUS
 62
           7
100
AcDbBlockReference
  2
AID1092_$10$
 10
0.0
 20
0.0
 30
0.0
  0
POINT
  5
413
100
AcDbEntity
  8
5
  6
CONTINUOUS
 62
           9
100
AcDbPoint
 10
287.961637
 20
212.595547
 30
0.0
  0
POINT
  5
414
100
AcDbEntity
  8
5
  6
CONTINUOUS
 62
           9
100
AcDbPoint
 10
287.554514
 20
177.739558
 30
0.0
  0
ARC
  5
415
100
AcDbEntity
  8
1
  6
DASHDOT
 62
           1
100
AcDbCircle
 10
238.711155
 20
195.285467
 30
0.0
 40
51.164965
100
AcDbArc
 50
340.240285
 51
19.365059
  0
POINT
  5
416
100
AcDbEntity
  8
5
  6
CONTINUOUS
 62
           1
100
AcDbPoint
 10
291.028073
 20
198.976156
 30
0.0
  0
POINT
  5
417
100
AcDbEntity
  8
5
  6
CONTINUOUS
 62
           2
100
AcDbPoint
 10
289.87612
 20
195.285467
 30
0.0
  0
INSERT
  5
418
100
AcDbEntity
  8
0
  6
CONTINUOUS
 62
           7
100
AcDbBlockReference
  2
AID1115_$11$
 10
0.0
 20
0.0
 30
0.0
  0
POINT
  5
419
100
AcDbEntity
  8
5
  6
CONTINUOUS
 62
           2
100
AcDbPoint
 10
289.87612
 20
195.285467
 30
0.0
  0
INSERT
  5
41A
100
AcDbEntity
  8
0
  6
CONTINUOUS
 62
           7
100
AcDbBlockReference
  2
AID1134_$12$
 10
0.0
 20
0.0
 30
0.0
  0
INSERT
  5
41B
100
AcDbEntity
  8
0
  6
CONTINUOUS
 62
           7
100
AcDbBlockReference
  2
AID1147_$13$
 10
0.0
 20
0.0
 30
0.0
  0
INSERT
  5
41C
100
AcDbEntity
  8
0
  6
CONTINUOUS
 62
           7
100
AcDbBlockReference
  2
AID1160_$14$
 10
0.0
 20
0.0
 30
0.0
  0
INSERT
  5
41D
100
AcDbEntity
  8
0
  6
CONTINUOUS
 62
           7
100
AcDbBlockReference
  2
AID1163_$15$
 10
0.0
 20
0.0
 30
0.0
  0
INSERT
  5
41E
100
AcDbEntity
  8
0
  6
CONTINUOUS
 62
           7
100
AcDbBlockReference
  2
AID1166_$16$
 10
0.0
 20
0.0
 30
0.0
  0
LINE
  5
41F
100
AcDbEntity
  8
1
  6
CONTINUOUS
 62
           7
100
AcDbLine
 10
55.944709
 20
187.285467
 30
0.0
 11
48.444709
 21
187.285467
 31
0.0
  0
LINE
  5
420
100
AcDbEntity
  8
1
  6
CONTINUOUS
 62
           7
100
AcDbLine
 10
56.144709
 20
203.085467
 30
0.0
 11
56.144709
 21
202.285467
 31
0.0
  0
ARC
  5
421
100
AcDbEntity
  8
1
  6
CONTINUOUS
 62
           7
100
AcDbCircle
 10
55.944709
 20
203.085467
 30
0.0
 40
0.2
100
AcDbArc
 50
0.0
 51
90.0
  0
LINE
  5
422
100
AcDbEntity
  8
1
  6
CONTINUOUS
 62
           7
100
AcDbLine
 10
56.144709
 20
202.285467
 30
0.0
 11
56.144709
 21
188.285467
 31
0.0
  0
LINE
  5
423
100
AcDbEntity
  8
1
  6
CONTINUOUS
 62
           7
100
AcDbLine
 10
56.144709
 20
188.285467
 30
0.0
 11
56.144709
 21
187.485467
 31
0.0
  0
ARC
  5
424
100
AcDbEntity
  8
1
  6
CONTINUOUS
 62
           7
100
AcDbCircle
 10
55.944709
 20
187.485467
 30
0.0
 40
0.2
100
AcDbArc
 50
270.0
 51
0.0
  0
LINE
  5
425
100
AcDbEntity
  8
1
  6
CONTINUOUS
 62
           7
100
AcDbLine
 10
48.444709
 20
203.285467
 30
0.0
 11
55.944709
 21
203.285467
 31
0.0
  0
LINE
  5
426
100
AcDbEntity
  8
1
  6
CONTINUOUS
 62
           7
100
AcDbLine
 10
48.244709
 20
188.285467
 30
0.0
 11
48.244709
 21
202.285467
 31
0.0
  0
ARC
  5
427
100
AcDbEntity
  8
1
  6
CONTINUOUS
 62
           7
100
AcDbCircle
 10
48.444709
 20
187.485467
 30
0.0
 40
0.2
100
AcDbArc
 50
180.0
 51
270.0
  0
LINE
  5
428
100
AcDbEntity
  8
1
  6
CONTINUOUS
 62
           7
100
AcDbLine
 10
48.244709
 20
187.485467
 30
0.0
 11
48.244709
 21
188.285467
 31
0.0
  0
LINE
  5
429
100
AcDbEntity
  8
1
  6
CONTINUOUS
 62
           7
100
AcDbLine
 10
48.244709
 20
202.285467
 30
0.0
 11
48.244709
 21
203.085467
 31
0.0
  0
ARC
  5
42A
100
AcDbEntity
  8
1
  6
CONTINUOUS
 62
           7
100
AcDbCircle
 10
48.444709
 20
203.085467
 30
0.0
 40
0.2
100
AcDbArc
 50
90.0
 51
180.0
  0
LINE
  5
42B
100
AcDbEntity
  8
1
  6
CONTINUOUS
 62
           7
100
AcDbLine
 10
47.244709
 20
189.785467
 30
0.0
 11
47.244709
 21
200.785467
 31
0.0
  0
LINE
  5
42C
100
AcDbEntity
  8
1
  6
CONTINUOUS
 62
           7
100
AcDbLine
 10
47.244709
 20
188.785467
 30
0.0
 11
48.244709
 21
188.785467
 31
0.0
  0
LINE
  5
42D
100
AcDbEntity
  8
1
  6
CONTINUOUS
 62
           7
100
AcDbLine
 10
47.244709
 20
188.785467
 30
0.0
 11
47.244709
 21
189.785467
 31
0.0
  0
LINE
  5
42E
100
AcDbEntity
  8
1
  6
CONTINUOUS
 62
           7
100
AcDbLine
 10
47.244709
 20
201.785467
 30
0.0
 11
48.244709
 21
201.785467
 31
0.0
  0
LINE
  5
42F
100
AcDbEntity
  8
1
  6
CONTINUOUS
 62
           7
100
AcDbLine
 10
47.244709
 20
200.785467
 30
0.0
 11
47.244709
 21
201.785467
 31
0.0
  0
ARC
  5
430
100
AcDbEntity
  8
1
  6
CONTINUOUS
 62
           7
100
AcDbCircle
 10
48.244709
 20
203.285467
 30
0.0
 40
1.0
100
AcDbArc
 50
90.0
 51
180.0
  0
LINE
  5
431
100
AcDbEntity
  8
1
  6
DOT
 62
           9
100
AcDbLine
 10
48.244709
 20
203.285467
 30
0.0
 11
48.444709
 21
203.285467
 31
0.0
  0
LINE
  5
432
100
AcDbEntity
  8
1
  6
CONTINUOUS
 62
           7
100
AcDbLine
 10
48.244709
 20
203.085467
 30
0.0
 11
48.244709
 21
203.285467
 31
0.0
  0
LINE
  5
433
100
AcDbEntity
  8
1
  6
CONTINUOUS
 62
           7
100
AcDbLine
 10
48.244709
 20
204.285467
 30
0.0
 11
51.994709
 21
204.285467
 31
0.0
  0
LINE
  5
434
100
AcDbEntity
  8
1
  6
CONTINUOUS
 62
           7
100
AcDbLine
 10
47.244709
 20
201.785467
 30
0.0
 11
47.244709
 21
203.285467
 31
0.0
  0
ARC
  5
435
100
AcDbEntity
  8
1
  6
CONTINUOUS
 62
           7
100
AcDbCircle
 10
48.244709
 20
187.285467
 30
0.0
 40
1.0
100
AcDbArc
 50
180.0
 51
270.0
  0
LINE
  5
436
100
AcDbEntity
  8
1
  6
CONTINUOUS
 62
           7
100
AcDbLine
 10
48.244709
 20
187.285467
 30
0.0
 11
48.244709
 21
187.485467
 31
0.0
  0
LINE
  5
437
100
AcDbEntity
  8
1
  6
DOT
 62
           9
100
AcDbLine
 10
48.244709
 20
187.285467
 30
0.0
 11
48.444709
 21
187.285467
 31
0.0
  0
LINE
  5
438
100
AcDbEntity
  8
1
  6
CONTINUOUS
 62
           7
100
AcDbLine
 10
48.244709
 20
186.285467
 30
0.0
 11
51.994709
 21
186.285467
 31
0.0
  0
LINE
  5
439
100
AcDbEntity
  8
1
  6
CONTINUOUS
 62
           7
100
AcDbLine
 10
47.244709
 20
187.285467
 30
0.0
 11
47.244709
 21
188.785467
 31
0.0
  0
LINE
  5
43A
100
AcDbEntity
  8
1
  6
CONTINUOUS
 62
           7
100
AcDbLine
 10
52.194709
 20
204.285467
 30
0.0
 11
52.194709
 21
203.285467
 31
0.0
  0
LINE
  5
43B
100
AcDbEntity
  8
1
  6
CONTINUOUS
 62
           7
100
AcDbLine
 10
51.994709
 20
204.285467
 30
0.0
 11
52.194709
 21
204.285467
 31
0.0
  0
LINE
  5
43C
100
AcDbEntity
  8
1
  6
CONTINUOUS
 62
           7
100
AcDbLine
 10
52.194709
 20
187.285467
 30
0.0
 11
52.194709
 21
186.285467
 31
0.0
  0
LINE
  5
43D
100
AcDbEntity
  8
1
  6
CONTINUOUS
 62
           7
100
AcDbLine
 10
52.194709
 20
186.285467
 30
0.0
 11
51.994709
 21
186.285467
 31
0.0
  0
CIRCLE
  5
43E
100
AcDbEntity
  8
1
  6
DOT
 62
           9
100
AcDbCircle
 10
52.444709
 20
195.285467
 30
0.0
 40
2.1
  0
LINE
  5
43F
100
AcDbEntity
  8
1
  6
DOT
 62
           9
100
AcDbLine
 10
48.244709
 20
201.785467
 30
0.0
 11
49.944709
 21
201.785467
 31
0.0
  0
LINE
  5
440
100
AcDbEntity
  8
1
  6
DOT
 62
           9
100
AcDbLine
 10
48.244709
 20
188.785467
 30
0.0
 11
49.944709
 21
188.785467
 31
0.0
  0
LINE
  5
441
100
AcDbEntity
  8
1
  6
DOT
 62
           9
100
AcDbLine
 10
50.944709
 20
193.815773
 30
0.0
 11
50.944709
 21
188.785467
 31
0.0
  0
LINE
  5
442
100
AcDbEntity
  8
1
  6
DOT
 62
           9
100
AcDbLine
 10
50.944709
 20
201.785467
 30
0.0
 11
50.944709
 21
196.75516
 31
0.0
  0
LINE
  5
443
100
AcDbEntity
  8
1
  6
DOT
 62
           9
100
AcDbLine
 10
49.944709
 20
201.785467
 30
0.0
 11
50.944709
 21
201.785467
 31
0.0
  0
LINE
  5
444
100
AcDbEntity
  8
1
  6
DOT
 62
           9
100
AcDbLine
 10
50.944709
 20
188.785467
 30
0.0
 11
49.944709
 21
188.785467
 31
0.0
  0
LINE
  5
445
100
AcDbEntity
  8
1
  6
DOT
 62
           9
100
AcDbLine
 10
54.944709
 20
188.785467
 30
0.0
 11
53.944709
 21
188.785467
 31
0.0
  0
LINE
  5
446
100
AcDbEntity
  8
1
  6
DOT
 62
           9
100
AcDbLine
 10
53.944709
 20
188.785467
 30
0.0
 11
53.944709
 21
189.785467
 31
0.0
  0
LINE
  5
447
100
AcDbEntity
  8
1
  6
DOT
 62
           9
100
AcDbLine
 10
54.944709
 20
188.785467
 30
0.0
 11
54.944709
 21
189.785467
 31
0.0
  0
LINE
  5
448
100
AcDbEntity
  8
1
  6
DOT
 62
           9
100
AcDbLine
 10
53.944709
 20
189.785467
 30
0.0
 11
53.944709
 21
193.815773
 31
0.0
  0
LINE
  5
449
100
AcDbEntity
  8
1
  6
DOT
 62
           9
100
AcDbLine
 10
54.944709
 20
189.785467
 30
0.0
 11
54.944709
 21
200.785467
 31
0.0
  0
LINE
  5
44A
100
AcDbEntity
  8
1
  6
DOT
 62
           9
100
AcDbLine
 10
53.944709
 20
196.75516
 30
0.0
 11
53.944709
 21
200.785467
 31
0.0
  0
LINE
  5
44B
100
AcDbEntity
  8
1
  6
DOT
 62
           9
100
AcDbLine
 10
54.944709
 20
201.785467
 30
0.0
 11
53.944709
 21
201.785467
 31
0.0
  0
LINE
  5
44C
100
AcDbEntity
  8
1
  6
DOT
 62
           9
100
AcDbLine
 10
54.944709
 20
200.785467
 30
0.0
 11
54.944709
 21
201.785467
 31
0.0
  0
LINE
  5
44D
100
AcDbEntity
  8
1
  6
DOT
 62
           9
100
AcDbLine
 10
53.944709
 20
200.785467
 30
0.0
 11
53.944709
 21
201.785467
 31
0.0
  0
LINE
  5
44E
100
AcDbEntity
  8
1
  6
DOT
 62
           9
100
AcDbLine
 10
49.944709
 20
201.785467
 30
0.0
 11
49.944709
 21
188.785467
 31
0.0
  0
POLYLINE
  5
44F
100
AcDbEntity
  8
1
  6
DOT
 62
           9
100
AcDb2dPolyline
 66
           1
 10
0.0
 20
0.0
 30
0.0
  0
VERTEX
  5
450
100
AcDbEntity
  8
1
  6
DOT
 62
           9
100
AcDbVertex
100
AcDb2dVertex
 10
56.123965
 20
200.486803
 30
0.0
  0
VERTEX
  5
451
100
AcDbEntity
  8
1
  6
DOT
 62
           9
100
AcDbVertex
100
AcDb2dVertex
 10
56.090606
 20
200.59889
 30
0.0
  0
VERTEX
  5
452
100
AcDbEntity
  8
1
  6
DOT
 62
           9
100
AcDbVertex
100
AcDb2dVertex
 10
56.076656
 20
200.635467
 30
0.0
  0
SEQEND
  5
453
100
AcDbEntity
  8
1
  6
DOT
 62
           9
  0
LINE
  5
454
100
AcDbEntity
  8
1
  6
DOT
 62
           9
100
AcDbLine
 10
55.544709
 20
199.810467
 30
0.0
 11
56.123965
 21
199.810467
 31
0.0
  0
LINE
  5
455
100
AcDbEntity
  8
1
  6
DOT
 62
           9
100
AcDbLine
 10
55.544709
 20
199.810467
 30
0.0
 11
55.544709
 21
199.260467
 31
0.0
  0
LINE
  5
456
100
AcDbEntity
  8
1
  6
DOT
 62
           9
100
AcDbLine
 10
56.123965
 20
199.260467
 30
0.0
 11
55.544709
 21
199.260467
 31
0.0
  0
POLYLINE
  5
457
100
AcDbEntity
  8
1
  6
DOT
 62
           9
100
AcDb2dPolyline
 66
           1
 10
0.0
 20
0.0
 30
0.0
  0
VERTEX
  5
458
100
AcDbEntity
  8
1
  6
DOT
 62
           9
100
AcDbVertex
100
AcDb2dVertex
 10
56.076656
 20
198.435467
 30
0.0
  0
VERTEX
  5
459
100
AcDbEntity
  8
1
  6
DOT
 62
           9
100
AcDbVertex
100
AcDb2dVertex
 10
56.112375
 20
198.539717
 30
0.0
  0
VERTEX
  5
45A
100
AcDbEntity
  8
1
  6
DOT
 62
           9
100
AcDbVertex
100
AcDb2dVertex
 10
56.123965
 20
198.58413
 30
0.0
  0
SEQEND
  5
45B
100
AcDbEntity
  8
1
  6
DOT
 62
           9
  0
POLYLINE
  5
45C
100
AcDbEntity
  8
1
  6
DOT
 62
           9
100
AcDb2dPolyline
 66
           1
 10
0.0
 20
0.0
 30
0.0
  0
VERTEX
  5
45D
100
AcDbEntity
  8
1
  6
DOT
 62
           9
100
AcDbVertex
100
AcDb2dVertex
 10
56.076656
 20
192.135467
 30
0.0
  0
VERTEX
  5
45E
100
AcDbEntity
  8
1
  6
DOT
 62
           9
100
AcDbVertex
100
AcDb2dVertex
 10
56.112375
 20
192.031216
 30
0.0
  0
VERTEX
  5
45F
100
AcDbEntity
  8
1
  6
DOT
 62
           9
100
AcDbVertex
100
AcDb2dVertex
 10
56.123965
 20
191.986803
 30
0.0
  0
SEQEND
  5
460
100
AcDbEntity
  8
1
  6
DOT
 62
           9
  0
LINE
  5
461
100
AcDbEntity
  8
1
  6
DOT
 62
           9
100
AcDbLine
 10
56.123965
 20
191.310467
 30
0.0
 11
55.544709
 21
191.310467
 31
0.0
  0
LINE
  5
462
100
AcDbEntity
  8
1
  6
DOT
 62
           9
100
AcDbLine
 10
55.544709
 20
190.760467
 30
0.0
 11
55.544709
 21
191.310467
 31
0.0
  0
LINE
  5
463
100
AcDbEntity
  8
1
  6
DOT
 62
           9
100
AcDbLine
 10
55.544709
 20
190.760467
 30
0.0
 11
56.123965
 21
190.760467
 31
0.0
  0
POLYLINE
  5
464
100
AcDbEntity
  8
1
  6
DOT
 62
           9
100
AcDb2dPolyline
 66
           1
 10
0.0
 20
0.0
 30
0.0
  0
VERTEX
  5
465
100
AcDbEntity
  8
1
  6
DOT
 62
           9
100
AcDbVertex
100
AcDb2dVertex
 10
56.123965
 20
190.08413
 30
0.0
  0
VERTEX
  5
466
100
AcDbEntity
  8
1
  6
DOT
 62
           9
100
AcDbVertex
100
AcDb2dVertex
 10
56.090606
 20
189.972043
 30
0.0
  0
VERTEX
  5
467
100
AcDbEntity
  8
1
  6
DOT
 62
           9
100
AcDbVertex
100
AcDb2dVertex
 10
56.076656
 20
189.935467
 30
0.0
  0
SEQEND
  5
468
100
AcDbEntity
  8
1
  6
DOT
 62
           9
  0
LINE
  5
469
100
AcDbEntity
  8
1
  6
DOT
 62
           9
100
AcDbLine
 10
49.144709
 20
198.535467
 30
0.0
 11
49.144709
 21
200.535467
 31
0.0
  0
LINE
  5
46A
100
AcDbEntity
  8
1
  6
DOT
 62
           9
100
AcDbLine
 10
48.944709
 20
190.235467
 30
0.0
 11
48.944709
 21
191.835467
 31
0.0
  0
LINE
  5
46B
100
AcDbEntity
  8
1
  6
DOT
 62
           9
100
AcDbLine
 10
49.144709
 20
192.035467
 30
0.0
 11
49.144709
 21
190.035467
 31
0.0
  0
LINE
  5
46C
100
AcDbEntity
  8
1
  6
DOT
 62
           9
100
AcDbLine
 10
48.944709
 20
200.335467
 30
0.0
 11
48.944709
 21
198.735467
 31
0.0
  0
ARC
  5
46D
100
AcDbEntity
  8
1
  6
CONTINUOUS
 62
           7
100
AcDbCircle
 10
52.123427
 20
199.535467
 30
0.0
 40
4.112097
100
AcDbArc
 50
3.834566
 51
4.710745
  0
ARC
  5
46E
100
AcDbEntity
  8
1
  6
CONTINUOUS
 62
           7
100
AcDbCircle
 10
52.123427
 20
199.535467
 30
0.0
 40
4.112097
100
AcDbArc
 50
4.710745
 51
12.063876
  0
ARC
  5
46F
100
AcDbEntity
  8
1
  6
DOT
 62
           9
100
AcDbCircle
 10
52.123427
 20
199.535467
 30
0.0
 40
4.112097
100
AcDbArc
 50
12.063876
 51
13.376606
  0
LINE
  5
470
100
AcDbEntity
  8
1
  6
DOT
 62
           9
100
AcDbLine
 10
56.123965
 20
199.810467
 30
0.0
 11
56.144709
 21
199.810467
 31
0.0
  0
LINE
  5
471
100
AcDbEntity
  8
1
  6
CONTINUOUS
 62
           7
100
AcDbLine
 10
56.144709
 20
199.810467
 30
0.0
 11
56.226318
 21
199.810467
 31
0.0
  0
ARC
  5
472
100
AcDbEntity
  8
1
  6
CONTINUOUS
 62
           7
100
AcDbCircle
 10
52.123427
 20
191.035467
 30
0.0
 40
4.112097
100
AcDbArc
 50
355.289255
 51
356.165434
  0
ARC
  5
473
100
AcDbEntity
  8
1
  6
CONTINUOUS
 62
           7
100
AcDbCircle
 10
52.123427
 20
191.035467
 30
0.0
 40
4.112097
100
AcDbArc
 50
347.936124
 51
355.289255
  0
ARC
  5
474
100
AcDbEntity
  8
1
  6
DOT
 62
           9
100
AcDbCircle
 10
52.123427
 20
191.035467
 30
0.0
 40
4.112097
100
AcDbArc
 50
346.623394
 51
347.936124
  0
LINE
  5
475
100
AcDbEntity
  8
1
  6
DOT
 62
           9
100
AcDbLine
 10
56.123965
 20
190.760467
 30
0.0
 11
56.144709
 21
190.760467
 31
0.0
  0
LINE
  5
476
100
AcDbEntity
  8
1
  6
CONTINUOUS
 62
           7
100
AcDbLine
 10
56.144709
 20
190.760467
 30
0.0
 11
56.226318
 21
190.760467
 31
0.0
  0
ARC
  5
477
100
AcDbEntity
  8
1
  6
DOT
 62
           9
100
AcDbCircle
 10
52.123427
 20
199.535467
 30
0.0
 40
4.112097
100
AcDbArc
 50
346.623394
 51
347.936124
  0
ARC
  5
478
100
AcDbEntity
  8
1
  6
CONTINUOUS
 62
           7
100
AcDbCircle
 10
52.123427
 20
199.535467
 30
0.0
 40
4.112097
100
AcDbArc
 50
347.936124
 51
356.165434
  0
LINE
  5
479
100
AcDbEntity
  8
1
  6
CONTINUOUS
 62
           7
100
AcDbLine
 10
56.226318
 20
199.260467
 30
0.0
 11
56.144709
 21
199.260467
 31
0.0
  0
LINE
  5
47A
100
AcDbEntity
  8
1
  6
DOT
 62
           9
100
AcDbLine
 10
56.144709
 20
199.260467
 30
0.0
 11
56.123965
 21
199.260467
 31
0.0
  0
ARC
  5
47B
100
AcDbEntity
  8
1
  6
DOT
 62
           9
100
AcDbCircle
 10
52.123427
 20
191.035467
 30
0.0
 40
4.112097
100
AcDbArc
 50
12.063876
 51
13.376606
  0
ARC
  5
47C
100
AcDbEntity
  8
1
  6
CONTINUOUS
 62
           7
100
AcDbCircle
 10
52.123427
 20
191.035467
 30
0.0
 40
4.112097
100
AcDbArc
 50
3.834566
 51
12.063876
  0
LINE
  5
47D
100
AcDbEntity
  8
1
  6
CONTINUOUS
 62
           7
100
AcDbLine
 10
56.226318
 20
191.310467
 30
0.0
 11
56.144709
 21
191.310467
 31
0.0
  0
LINE
  5
47E
100
AcDbEntity
  8
1
  6
DOT
 62
           9
100
AcDbLine
 10
56.144709
 20
191.310467
 30
0.0
 11
56.123965
 21
191.310467
 31
0.0
  0
LINE
  5
47F
100
AcDbEntity
  8
1
  6
DOT
 62
           9
100
AcDbLine
 10
55.544709
 20
189.935467
 30
0.0
 11
55.544709
 21
190.760467
 31
0.0
  0
LINE
  5
480
100
AcDbEntity
  8
1
  6
DOT
 62
           9
100
AcDbLine
 10
55.544709
 20
189.935467
 30
0.0
 11
56.076656
 21
189.935467
 31
0.0
  0
LINE
  5
481
100
AcDbEntity
  8
1
  6
DOT
 62
           9
100
AcDbLine
 10
55.544709
 20
199.260467
 30
0.0
 11
55.544709
 21
198.435467
 31
0.0
  0
LINE
  5
482
100
AcDbEntity
  8
1
  6
DOT
 62
           9
100
AcDbLine
 10
55.544709
 20
198.435467
 30
0.0
 11
56.076656
 21
198.435467
 31
0.0
  0
LINE
  5
483
100
AcDbEntity
  8
1
  6
DOT
 62
           9
100
AcDbLine
 10
55.544709
 20
192.135467
 30
0.0
 11
56.076656
 21
192.135467
 31
0.0
  0
LINE
  5
484
100
AcDbEntity
  8
1
  6
DOT
 62
           9
100
AcDbLine
 10
55.544709
 20
191.310467
 30
0.0
 11
55.544709
 21
192.135467
 31
0.0
  0
LINE
  5
485
100
AcDbEntity
  8
1
  6
DOT
 62
           9
100
AcDbLine
 10
55.544709
 20
200.635467
 30
0.0
 11
56.076656
 21
200.635467
 31
0.0
  0
LINE
  5
486
100
AcDbEntity
  8
1
  6
DOT
 62
           9
100
AcDbLine
 10
55.544709
 20
200.635467
 30
0.0
 11
55.544709
 21
199.810467
 31
0.0
  0
CIRCLE
  5
487
100
AcDbEntity
  8
1
  6
DOT
 62
           9
100
AcDbCircle
 10
52.444709
 20
195.285467
 30
0.0
 40
1.5
  0
ELLIPSE
  5
488
100
AcDbEntity
  8
1
  6
DOT
 62
           9
100
AcDbEllipse
 10
52.444709
 20
203.468992
 30
0.0
 11
0.2999999999998282
 21
0.0
 31
0.0
210
0.0
220
0.0
230
1.0
 40
0.965926
 41
3.1415926535897931
 42
4.7123889803846897
  0
ELLIPSE
  5
489
100
AcDbEntity
  8
1
  6
CONTINUOUS
 62
           7
100
AcDbEllipse
 10
52.444709
 20
203.468992
 30
0.0
 11
0.2999999999998282
 21
0.0
 31
0.0
210
0.0
220
0.0
230
1.0
 40
0.965926
 41
0.0
 42
2.5559071101338189
  0
ELLIPSE
  5
48A
100
AcDbEntity
  8
1
  6
DOT
 62
           9
100
AcDbEllipse
 10
52.444709
 20
203.468992
 30
0.0
 11
0.2999999999998282
 21
0.0000000000000833
 31
0.0
210
0.0
220
0.0
230
1.0
 40
0.965926
 41
2.5559071101335418
 42
3.141592653589516
  0
ELLIPSE
  5
48B
100
AcDbEntity
  8
1
  6
DOT
 62
           9
100
AcDbEllipse
 10
52.444709
 20
195.596
 30
0.0
 11
-0.0000000000000001
 21
-0.3105828541229705
 31
0.0
210
0.0
220
0.0
230
1.0
 40
0.965926
 41
4.7123889803846897
 42
6.2653246619245788
  0
ELLIPSE
  5
48C
100
AcDbEntity
  8
1
  6
DOT
 62
           9
100
AcDbEllipse
 10
52.444709
 20
195.596
 30
0.0
 11
-0.0000000000000001
 21
-0.3105828541229705
 31
0.0
210
0.0
220
0.0
230
1.0
 40
0.965926
 41
1.5707963267948966
 42
4.7123889803846897
  0
ELLIPSE
  5
48D
100
AcDbEntity
  8
1
  6
DOT
 62
           9
100
AcDbEllipse
 10
52.444709
 20
203.468992
 30
0.0
 11
0.2999999999998282
 21
0.0
 31
0.0
210
0.0
220
0.0
230
1.0
 40
0.965926
 41
4.7123889803846897
 42
6.2831853071795862
  0
LINE
  5
48E
100
AcDbEntity
  8
1
  6
DOT
 62
           9
100
AcDbLine
 10
52.450067
 20
195.285467
 30
0.0
 11
52.439351
 21
195.285467
 31
0.0
  0
ELLIPSE
  5
48F
100
AcDbEntity
  8
1
  6
DOT
 62
           9
100
AcDbEllipse
 10
52.444709
 20
195.596
 30
0.0
 11
-0.0000000000000001
 21
-0.3105828541229705
 31
0.0
210
0.0
220
0.0
230
1.0
 40
0.965926
 41
0.0178606452550077
 42
1.5707963267948966
  0
ELLIPSE
  5
490
100
AcDbEntity
  8
1
  6
DOT
 62
           9
100
AcDbEllipse
 10
52.444709
 20
187.101941
 30
0.0
 11
-0.2999999999999531
 21
0.0
 31
0.0
210
0.0
220
0.0
230
1.0
 40
0.965926
 41
3.1415926535897003
 42
4.7123889803846897
  0
ELLIPSE
  5
491
100
AcDbEntity
  8
1
  6
DOT
 62
           9
100
AcDbEllipse
 10
52.444709
 20
187.101941
 30
0.0
 11
-0.2999999999999531
 21
0.0
 31
0.0
210
0.0
220
0.0
230
1.0
 40
0.965926
 41
0.0
 42
0.5856855434564214
  0
ELLIPSE
  5
492
100
AcDbEntity
  8
1
  6
CONTINUOUS
 62
           7
100
AcDbEllipse
 10
52.444709
 20
187.101941
 30
0.0
 11
-0.2999999999999531
 21
-0.0000000000001111
 31
0.0
210
0.0
220
0.0
230
1.0
 40
0.965926
 41
0.5856855434562209
 42
3.1415926535894232
  0
ELLIPSE
  5
493
100
AcDbEntity
  8
1
  6
DOT
 62
           9
100
AcDbEllipse
 10
52.444709
 20
194.974933
 30
0.0
 11
0.0
 21
0.3105828541229705
 31
0.0
210
0.0
220
0.0
230
1.0
 40
0.965926
 41
4.7123889803846897
 42
6.2653246619245788
  0
ELLIPSE
  5
494
100
AcDbEntity
  8
1
  6
DOT
 62
           9
100
AcDbEllipse
 10
52.444709
 20
194.974933
 30
0.0
 11
0.0
 21
0.3105828541229705
 31
0.0
210
0.0
220
0.0
230
1.0
 40
0.965926
 41
1.5707963267948966
 42
4.7123889803846897
  0
ELLIPSE
  5
495
100
AcDbEntity
  8
1
  6
DOT
 62
           9
100
AcDbEllipse
 10
52.444709
 20
187.101941
 30
0.0
 11
-0.2999999999999531
 21
0.0
 31
0.0
210
0.0
220
0.0
230
1.0
 40
0.965926
 41
4.7123889803846897
 42
6.2831853071796786
  0
ELLIPSE
  5
496
100
AcDbEntity
  8
1
  6
DOT
 62
           9
100
AcDbEllipse
 10
52.444709
 20
194.974933
 30
0.0
 11
0.0
 21
0.3105828541229705
 31
0.0
210
0.0
220
0.0
230
1.0
 40
0.965926
 41
0.0178606452550076
 42
1.5707963267948966
  0
ELLIPSE
  5
497
100
AcDbEntity
  8
1
  6
DOT
 62
           9
100
AcDbEllipse
 10
52.444709
 20
187.024295
 30
0.0
 11
-1.9999927078861723
 21
0.0000000000003058
 31
0.0
210
0.0
220
0.0
230
1.0
 40
0.965926
 41
5.7072266540216239
 42
6.1359595706083239
  0
ELLIPSE
  5
498
100
AcDbEntity
  8
1
  6
DOT
 62
           9
100
AcDbEllipse
 10
52.444709
 20
187.024295
 30
0.0
 11
-1.9999927078861723
 21
-0.0000000000003053
 31
0.0
210
0.0
220
0.0
230
1.0
 40
0.965926
 41
6.1359595706080317
 42
6.2831853071794477
  0
ELLIPSE
  5
499
100
AcDbEntity
  8
1
  6
CONTINUOUS
 62
           7
100
AcDbEllipse
 10
52.444709
 20
187.024295
 30
0.0
 11
-1.9999927078861723
 21
0.0000000000003058
 31
0.0
210
0.0
220
0.0
230
1.0
 40
0.965926
 41
2.5656340004318365
 42
3.1415926535899459
  0
ELLIPSE
  5
49A
100
AcDbEntity
  8
1
  6
CONTINUOUS
 62
           7
100
AcDbEllipse
 10
52.444709
 20
203.546638
 30
0.0
 11
-1.9999927078861723
 21
-0.0000000000003053
 31
0.0
210
0.0
220
0.0
230
1.0
 40
0.965926
 41
3.1415926535896403
 42
3.7175513067477493
  0
ELLIPSE
  5
49B
100
AcDbEntity
  8
1
  6
DOT
 62
           9
100
AcDbEllipse
 10
52.444709
 20
203.546638
 30
0.0
 11
-1.9999927078861723
 21
-0.0000000000003053
 31
0.0
210
0.0
220
0.0
230
1.0
 40
0.965926
 41
0.147360910073061
 42
0.5759586531579621
  0
ELLIPSE
  5
49C
100
AcDbEntity
  8
1
  6
DOT
 62
           9
100
AcDbEllipse
 10
52.444709
 20
203.546638
 30
0.0
 11
-1.9999927078861723
 21
-0.0000000000001943
 31
0.0
210
0.0
220
0.0
230
1.0
 40
0.965926
 41
-0.0000000000000833
 42
0.1473609100731325
  0
ELLIPSE
  5
49D
100
AcDbEntity
  8
1
  6
DOT
 62
           9
100
AcDbEllipse
 10
52.444709
 20
187.024295
 30
0.0
 11
-1.9999927078861723
 21
0.0000000000000278
 31
0.0
210
0.0
220
0.0
230
1.0
 40
0.965926
 41
0.0
 42
0.3924434219502551
  0
ELLIPSE
  5
49E
100
AcDbEntity
  8
1
  6
CONTINUOUS
 62
           7
100
AcDbEllipse
 10
52.444709
 20
187.024295
 30
0.0
 11
-1.9999927078861723
 21
-0.0000000000000273
 31
0.0
210
0.0
220
0.0
230
1.0
 40
0.965926
 41
0.3924434219502568
 42
0.5759586531581271
  0
ELLIPSE
  5
49F
100
AcDbEntity
  8
1
  6
CONTINUOUS
 62
           7
100
AcDbEllipse
 10
52.444709
 20
187.024295
 30
0.0
 11
-1.9999927078861723
 21
-0.0000000000000273
 31
0.0
210
0.0
220
0.0
230
1.0
 40
0.965926
 41
3.1415926535898069
 42
3.2889535636630205
  0
ELLIPSE
  5
4A0
100
AcDbEntity
  8
1
  6
DOT
 62
           9
100
AcDbEllipse
 10
52.444709
 20
187.024295
 30
0.0
 11
-1.9999927078861723
 21
-0.0000000000001667
 31
0.0
210
0.0
220
0.0
230
1.0
 40
0.965926
 41
3.2889535636629241
 42
3.7175513067478367
  0
ELLIPSE
  5
4A1
100
AcDbEntity
  8
1
  6
DOT
 62
           9
100
AcDbEllipse
 10
52.444709
 20
203.546638
 30
0.0
 11
-1.9999927078861723
 21
-0.0000000000000273
 31
0.0
210
0.0
220
0.0
230
1.0
 40
0.965926
 41
5.8907418852293469
 42
6.2831853071795862
  0
ELLIPSE
  5
4A2
100
AcDbEntity
  8
1
  6
CONTINUOUS
 62
           7
100
AcDbEllipse
 10
52.444709
 20
203.546638
 30
0.0
 11
-1.9999927078861723
 21
0.0000000000000002
 31
0.0
210
0.0
220
0.0
230
1.0
 40
0.965926
 41
5.707226654021456
 42
5.8907418852293345
  0
ELLIPSE
  5
4A3
100
AcDbEntity
  8
1
  6
CONTINUOUS
 62
           7
100
AcDbEllipse
 10
52.444709
 20
203.546638
 30
0.0
 11
-1.9999927078861723
 21
0.0000000000000278
 31
0.0
210
0.0
220
0.0
230
1.0
 40
0.965926
 41
2.9943669170183775
 42
3.1415926535897793
  0
ELLIPSE
  5
4A4
100
AcDbEntity
  8
1
  6
DOT
 62
           9
100
AcDbEllipse
 10
52.444709
 20
203.546638
 30
0.0
 11
-1.9999927078861723
 21
-0.0000000000003053
 31
0.0
210
0.0
220
0.0
230
1.0
 40
0.965926
 41
2.565634000431519
 42
2.9943669170182394
  0
ELLIPSE
  5
4A5
100
AcDbEntity
  8
1
  6
DOT
 62
           9
100
AcDbEllipse
 10
52.444709
 20
206.626585
 30
0.0
 11
2.9999999999988787
 21
0.0
 31
0.0
210
0.0
220
0.0
230
1.0
 40
0.965926
 41
3.1415926535897931
 42
3.8915947750990245
  0
ELLIPSE
  5
4A6
100
AcDbEntity
  8
1
  6
CONTINUOUS
 62
           7
100
AcDbEllipse
 10
52.444709
 20
206.626585
 30
0.0
 11
2.9999999999988787
 21
0.0
 31
0.0
210
0.0
220
0.0
230
1.0
 40
0.965926
 41
0.0
 42
3.1415926535897931
  0
ELLIPSE
  5
4A7
100
AcDbEntity
  8
1
  6
DOT
 62
           9
100
AcDbEllipse
 10
52.444709
 20
183.944349
 30
0.0
 11
2.9999999999988787
 21
0.0
 31
0.0
210
0.0
220
0.0
230
1.0
 40
0.965926
 41
2.3920487444116914
 42
3.1415926535897931
  0
ELLIPSE
  5
4A8
100
AcDbEntity
  8
1
  6
CONTINUOUS
 62
           7
100
AcDbEllipse
 10
52.444709
 20
183.944349
 30
0.0
 11
2.9999999999988787
 21
0.0
 31
0.0
210
0.0
220
0.0
230
1.0
 40
0.965926
 41
3.1415926535897931
 42
6.2831853071795862
  0
ELLIPSE
  5
4A9
100
AcDbEntity
  8
1
  6
DOT
 62
           9
100
AcDbEllipse
 10
52.444709
 20
183.944349
 30
0.0
 11
2.9999999999988787
 21
0.0000000000000555
 31
0.0
210
0.0
220
0.0
230
1.0
 40
0.965926
 41
-0.0000000000000159
 42
0.7500021215092273
  0
ELLIPSE
  5
4AA
100
AcDbEntity
  8
1
  6
DOT
 62
           9
100
AcDbEllipse
 10
52.444709
 20
206.626585
 30
0.0
 11
2.9999999999988787
 21
-0.0000000000002778
 31
0.0
210
0.0
220
0.0
230
1.0
 40
0.965926
 41
5.5336413980032129
 42
6.2831853071796795
  0
LINE
  5
4AB
100
AcDbEntity
  8
1
  6
DOT
 62
           9
100
AcDbLine
 10
52.744709
 20
208.857965
 30
0.0
 11
52.744709
 21
204.550496
 31
0.0
  0
LINE
  5
4AC
100
AcDbEntity
  8
1
  6
DOT
 62
           9
100
AcDbLine
 10
52.144709
 20
181.712968
 30
0.0
 11
52.144709
 21
186.020437
 31
0.0
  0
LINE
  5
4AD
100
AcDbEntity
  8
1
  6
DOT
 62
           9
100
AcDbLine
 10
52.744709
 20
181.712968
 30
0.0
 11
52.744709
 21
186.020437
 31
0.0
  0
LINE
  5
4AE
100
AcDbEntity
  8
1
  6
DOT
 62
           9
100
AcDbLine
 10
52.144709
 20
181.210377
 30
0.0
 11
52.744709
 21
181.210377
 31
0.0
  0
LINE
  5
4AF
100
AcDbEntity
  8
1
  6
DOT
 62
           9
100
AcDbLine
 10
52.744709
 20
181.210377
 30
0.0
 11
52.744709
 21
181.712968
 31
0.0
  0
LINE
  5
4B0
100
AcDbEntity
  8
1
  6
DOT
 62
           9
100
AcDbLine
 10
52.144709
 20
181.210377
 30
0.0
 11
52.144709
 21
181.712968
 31
0.0
  0
LINE
  5
4B1
100
AcDbEntity
  8
1
  6
DOT
 62
           9
100
AcDbLine
 10
52.144709
 20
181.712968
 30
0.0
 11
52.744709
 21
181.712968
 31
0.0
  0
LINE
  5
4B2
100
AcDbEntity
  8
1
  6
DOT
 62
           9
100
AcDbLine
 10
52.144709
 20
209.360556
 30
0.0
 11
52.144709
 21
208.857965
 31
0.0
  0
LINE
  5
4B3
100
AcDbEntity
  8
1
  6
DOT
 62
           9
100
AcDbLine
 10
52.144709
 20
209.360556
 30
0.0
 11
52.744709
 21
209.360556
 31
0.0
  0
LINE
  5
4B4
100
AcDbEntity
  8
1
  6
DOT
 62
           9
100
AcDbLine
 10
52.744709
 20
209.360556
 30
0.0
 11
52.744709
 21
208.857965
 31
0.0
  0
LINE
  5
4B5
100
AcDbEntity
  8
1
  6
DOT
 62
           9
100
AcDbLine
 10
52.144709
 20
208.857965
 30
0.0
 11
52.744709
 21
208.857965
 31
0.0
  0
LINE
  5
4B6
100
AcDbEntity
  8
1
  6
DOT
 62
           9
100
AcDbLine
 10
52.144709
 20
208.857965
 30
0.0
 11
52.144709
 21
204.550496
 31
0.0
  0
LINE
  5
4B7
100
AcDbEntity
  8
1
  6
CONTINUOUS
 62
           7
100
AcDbLine
 10
52.144709
 20
210.970406
 30
0.0
 11
52.144709
 21
209.509837
 31
0.0
  0
LINE
  5
4B8
100
AcDbEntity
  8
1
  6
DOT
 62
           9
100
AcDbLine
 10
52.144709
 20
209.509837
 30
0.0
 11
52.144709
 21
209.360556
 31
0.0
  0
LINE
  5
4B9
100
AcDbEntity
  8
1
  6
CONTINUOUS
 62
           7
100
AcDbLine
 10
52.744709
 20
210.970406
 30
0.0
 11
52.744709
 21
209.509837
 31
0.0
  0
LINE
  5
4BA
100
AcDbEntity
  8
1
  6
DOT
 62
           9
100
AcDbLine
 10
52.744709
 20
209.509837
 30
0.0
 11
52.744709
 21
209.360556
 31
0.0
  0
LINE
  5
4BB
100
AcDbEntity
  8
1
  6
CONTINUOUS
 62
           7
100
AcDbLine
 10
52.744709
 20
179.600527
 30
0.0
 11
52.744709
 21
181.061096
 31
0.0
  0
LINE
  5
4BC
100
AcDbEntity
  8
1
  6
DOT
 62
           9
100
AcDbLine
 10
52.744709
 20
181.061096
 30
0.0
 11
52.744709
 21
181.210377
 31
0.0
  0
LINE
  5
4BD
100
AcDbEntity
  8
1
  6
CONTINUOUS
 62
           7
100
AcDbLine
 10
52.144709
 20
179.600527
 30
0.0
 11
52.144709
 21
181.061096
 31
0.0
  0
LINE
  5
4BE
100
AcDbEntity
  8
1
  6
DOT
 62
           9
100
AcDbLine
 10
52.144709
 20
181.061096
 30
0.0
 11
52.144709
 21
181.210377
 31
0.0
  0
LINE
  5
4BF
100
AcDbEntity
  8
1
  6
DOT
 62
           9
100
AcDbLine
 10
52.144709
 20
186.378081
 30
0.0
 11
52.194709
 21
186.378081
 31
0.0
  0
LINE
  5
4C0
100
AcDbEntity
  8
1
  6
DOT
 62
           9
100
AcDbLine
 10
52.194709
 20
186.378081
 30
0.0
 11
52.744709
 21
186.378081
 31
0.0
  0
LINE
  5
4C1
100
AcDbEntity
  8
1
  6
DOT
 62
           9
100
AcDbLine
 10
52.744709
 20
186.020437
 30
0.0
 11
52.744709
 21
186.378081
 31
0.0
  0
LINE
  5
4C2
100
AcDbEntity
  8
1
  6
DOT
 62
           9
100
AcDbLine
 10
52.144709
 20
186.020437
 30
0.0
 11
52.144709
 21
186.285467
 31
0.0
  0
LINE
  5
4C3
100
AcDbEntity
  8
1
  6
DOT
 62
           9
100
AcDbLine
 10
52.144709
 20
186.285467
 30
0.0
 11
52.144709
 21
186.378081
 31
0.0
  0
LINE
  5
4C4
100
AcDbEntity
  8
1
  6
DOT
 62
           9
100
AcDbLine
 10
52.144709
 20
186.020437
 30
0.0
 11
52.744709
 21
186.020437
 31
0.0
  0
LINE
  5
4C5
100
AcDbEntity
  8
1
  6
DOT
 62
           9
100
AcDbLine
 10
52.144709
 20
204.192853
 30
0.0
 11
52.194709
 21
204.192853
 31
0.0
  0
LINE
  5
4C6
100
AcDbEntity
  8
1
  6
DOT
 62
           9
100
AcDbLine
 10
52.194709
 20
204.192853
 30
0.0
 11
52.744709
 21
204.192853
 31
0.0
  0
LINE
  5
4C7
100
AcDbEntity
  8
1
  6
DOT
 62
           9
100
AcDbLine
 10
52.144709
 20
204.550496
 30
0.0
 11
52.144709
 21
204.285467
 31
0.0
  0
LINE
  5
4C8
100
AcDbEntity
  8
1
  6
DOT
 62
           9
100
AcDbLine
 10
52.144709
 20
204.285467
 30
0.0
 11
52.144709
 21
204.192853
 31
0.0
  0
LINE
  5
4C9
100
AcDbEntity
  8
1
  6
DOT
 62
           9
100
AcDbLine
 10
52.744709
 20
204.550496
 30
0.0
 11
52.744709
 21
204.192853
 31
0.0
  0
LINE
  5
4CA
100
AcDbEntity
  8
1
  6
DOT
 62
           9
100
AcDbLine
 10
52.144709
 20
204.550496
 30
0.0
 11
52.744709
 21
204.550496
 31
0.0
  0
LINE
  5
4CB
100
AcDbEntity
  8
1
  6
CONTINUOUS
 62
           7
100
AcDbLine
 10
52.144709
 20
210.987443
 30
0.0
 11
52.144709
 21
210.970406
 31
0.0
  0
LINE
  5
4CC
100
AcDbEntity
  8
1
  6
CONTINUOUS
 62
           7
100
AcDbLine
 10
52.744709
 20
210.987443
 30
0.0
 11
52.744709
 21
210.970406
 31
0.0
  0
LINE
  5
4CD
100
AcDbEntity
  8
1
  6
CONTINUOUS
 62
           7
100
AcDbLine
 10
52.144709
 20
179.58349
 30
0.0
 11
52.144709
 21
179.600527
 31
0.0
  0
LINE
  5
4CE
100
AcDbEntity
  8
1
  6
CONTINUOUS
 62
           7
100
AcDbLine
 10
52.744709
 20
179.58349
 30
0.0
 11
52.744709
 21
179.600527
 31
0.0
  0
ARC
  5
4CF
100
AcDbEntity
  8
1
  6
DOT
 62
           9
100
AcDbCircle
 10
55.944709
 20
188.115135
 30
0.0
 40
0.2
100
AcDbArc
 50
270.0
 51
0.0
  0
ARC
  5
4D0
100
AcDbEntity
  8
1
  6
DOT
 62
           9
100
AcDbCircle
 10
48.444709
 20
188.115135
 30
0.0
 40
0.2
100
AcDbArc
 50
180.0
 51
270.0
  0
ARC
  5
4D1
100
AcDbEntity
  8
1
  6
DOT
 62
           9
100
AcDbCircle
 10
48.444709
 20
202.455798
 30
0.0
 40
0.2
100
AcDbArc
 50
90.0
 51
180.0
  0
ARC
  5
4D2
100
AcDbEntity
  8
1
  6
DOT
 62
           9
100
AcDbCircle
 10
55.944709
 20
202.455798
 30
0.0
 40
0.2
100
AcDbArc
 50
0.0
 51
90.0
  0
LINE
  5
4D3
100
AcDbEntity
  8
1
  6
DOT
 62
           9
100
AcDbLine
 10
55.944709
 20
187.915135
 30
0.0
 11
48.444709
 21
187.915135
 31
0.0
  0
LINE
  5
4D4
100
AcDbEntity
  8
1
  6
DOT
 62
           9
100
AcDbLine
 10
48.444709
 20
202.655798
 30
0.0
 11
55.944709
 21
202.655798
 31
0.0
  0
ARC
  5
4D5
100
AcDbEntity
  8
1
  6
DOT
 62
           9
100
AcDbCircle
 10
55.944709
 20
188.115604
 30
0.0
 40
0.2
100
AcDbArc
 50
270.0
 51
0.0
  0
ARC
  5
4D6
100
AcDbEntity
  8
1
  6
DOT
 62
           9
100
AcDbCircle
 10
48.444709
 20
188.115604
 30
0.0
 40
0.2
100
AcDbArc
 50
180.0
 51
270.0
  0
ARC
  5
4D7
100
AcDbEntity
  8
1
  6
DOT
 62
           9
100
AcDbCircle
 10
55.944709
 20
202.455329
 30
0.0
 40
0.2
100
AcDbArc
 50
0.0
 51
90.0
  0
ARC
  5
4D8
100
AcDbEntity
  8
1
  6
DOT
 62
           9
100
AcDbCircle
 10
48.444709
 20
202.455329
 30
0.0
 40
0.2
100
AcDbArc
 50
90.0
 51
180.0
  0
LINE
  5
4D9
100
AcDbEntity
  8
1
  6
DOT
 62
           9
100
AcDbLine
 10
55.944709
 20
187.915604
 30
0.0
 11
48.444709
 21
187.915604
 31
0.0
  0
LINE
  5
4DA
100
AcDbEntity
  8
1
  6
DOT
 62
           9
100
AcDbLine
 10
48.444709
 20
202.655329
 30
0.0
 11
55.944709
 21
202.655329
 31
0.0
  0
ARC
  5
4DB
100
AcDbEntity
  8
1
  6
DOT
 62
           9
100
AcDbCircle
 10
55.153263
 20
200.285467
 30
0.0
 40
1.0
100
AcDbArc
 50
20.487981
 51
90.0
  0
ARC
  5
4DC
100
AcDbEntity
  8
1
  6
DOT
 62
           9
100
AcDbCircle
 10
55.153263
 20
198.785467
 30
0.0
 40
1.0
100
AcDbArc
 50
270.0
 51
339.512019
  0
LINE
  5
4DD
100
AcDbEntity
  8
1
  6
DOT
 62
           9
100
AcDbLine
 10
55.153263
 20
192.785467
 30
0.0
 11
54.944709
 21
192.785467
 31
0.0
  0
LINE
  5
4DE
100
AcDbEntity
  8
1
  6
DOT
 62
           9
100
AcDbLine
 10
54.944709
 20
189.285467
 30
0.0
 11
55.153263
 21
189.285467
 31
0.0
  0
ARC
  5
4DF
100
AcDbEntity
  8
1
  6
DOT
 62
           9
100
AcDbCircle
 10
55.153263
 20
191.785467
 30
0.0
 40
1.0
100
AcDbArc
 50
20.487981
 51
90.0
  0
ARC
  5
4E0
100
AcDbEntity
  8
1
  6
DOT
 62
           9
100
AcDbCircle
 10
55.153263
 20
190.285467
 30
0.0
 40
1.0
100
AcDbArc
 50
270.0
 51
339.512019
  0
LINE
  5
4E1
100
AcDbEntity
  8
1
  6
DOT
 62
           9
100
AcDbLine
 10
55.153263
 20
201.285467
 30
0.0
 11
54.944709
 21
201.285467
 31
0.0
  0
LINE
  5
4E2
100
AcDbEntity
  8
1
  6
DOT
 62
           9
100
AcDbLine
 10
54.944709
 20
197.785467
 30
0.0
 11
55.153263
 21
197.785467
 31
0.0
  0
LINE
  5
4E3
100
AcDbEntity
  8
1
  6
DOT
 62
           9
100
AcDbLine
 10
53.944709
 20
200.535467
 30
0.0
 11
50.944709
 21
200.535467
 31
0.0
  0
LINE
  5
4E4
100
AcDbEntity
  8
1
  6
DOT
 62
           9
100
AcDbLine
 10
50.944709
 20
198.535467
 30
0.0
 11
53.944709
 21
198.535467
 31
0.0
  0
LINE
  5
4E5
100
AcDbEntity
  8
1
  6
DOT
 62
           9
100
AcDbLine
 10
49.944709
 20
200.535467
 30
0.0
 11
49.144709
 21
200.535467
 31
0.0
  0
LINE
  5
4E6
100
AcDbEntity
  8
1
  6
DOT
 62
           9
100
AcDbLine
 10
49.144709
 20
198.535467
 30
0.0
 11
49.944709
 21
198.535467
 31
0.0
  0
LINE
  5
4E7
100
AcDbEntity
  8
1
  6
DOT
 62
           9
100
AcDbLine
 10
49.144709
 20
192.035467
 30
0.0
 11
48.944709
 21
191.835467
 31
0.0
  0
LINE
  5
4E8
100
AcDbEntity
  8
1
  6
DOT
 62
           9
100
AcDbLine
 10
48.944709
 20
190.235467
 30
0.0
 11
49.144709
 21
190.035467
 31
0.0
  0
LINE
  5
4E9
100
AcDbEntity
  8
1
  6
DOT
 62
           9
100
AcDbLine
 10
49.944709
 20
192.035467
 30
0.0
 11
49.144709
 21
192.035467
 31
0.0
  0
LINE
  5
4EA
100
AcDbEntity
  8
1
  6
DOT
 62
           9
100
AcDbLine
 10
49.144709
 20
190.035467
 30
0.0
 11
49.944709
 21
190.035467
 31
0.0
  0
LINE
  5
4EB
100
AcDbEntity
  8
1
  6
DOT
 62
           9
100
AcDbLine
 10
49.144709
 20
200.535467
 30
0.0
 11
48.944709
 21
200.335467
 31
0.0
  0
LINE
  5
4EC
100
AcDbEntity
  8
1
  6
DOT
 62
           9
100
AcDbLine
 10
48.944709
 20
198.735467
 30
0.0
 11
49.144709
 21
198.535467
 31
0.0
  0
LINE
  5
4ED
100
AcDbEntity
  8
1
  6
DOT
 62
           9
100
AcDbLine
 10
53.944709
 20
192.035467
 30
0.0
 11
50.944709
 21
192.035467
 31
0.0
  0
LINE
  5
4EE
100
AcDbEntity
  8
1
  6
DOT
 62
           9
100
AcDbLine
 10
50.944709
 20
190.035467
 30
0.0
 11
53.944709
 21
190.035467
 31
0.0
  0
LINE
  5
4EF
100
AcDbEntity
  8
1
  6
DOT
 62
           9
100
AcDbLine
 10
52.744709
 20
195.596
 30
0.0
 11
52.744709
 21
203.285467
 31
0.0
  0
LINE
  5
4F0
100
AcDbEntity
  8
1
  6
CONTINUOUS
 62
           7
100
AcDbLine
 10
52.744709
 20
203.285467
 30
0.0
 11
52.744709
 21
203.468992
 31
0.0
  0
LINE
  5
4F1
100
AcDbEntity
  8
1
  6
DOT
 62
           9
100
AcDbLine
 10
52.144709
 20
203.468992
 30
0.0
 11
52.144709
 21
203.285467
 31
0.0
  0
LINE
  5
4F2
100
AcDbEntity
  8
1
  6
DOT
 62
           9
100
AcDbLine
 10
52.144709
 20
203.285467
 30
0.0
 11
52.144709
 21
195.596
 31
0.0
  0
LINE
  5
4F3
100
AcDbEntity
  8
1
  6
DOT
 62
           9
100
AcDbLine
 10
52.144709
 20
194.974933
 30
0.0
 11
52.144709
 21
187.285467
 31
0.0
  0
LINE
  5
4F4
100
AcDbEntity
  8
1
  6
DOT
 62
           9
100
AcDbLine
 10
52.144709
 20
187.285467
 30
0.0
 11
52.144709
 21
187.101941
 31
0.0
  0
LINE
  5
4F5
100
AcDbEntity
  8
1
  6
CONTINUOUS
 62
           7
100
AcDbLine
 10
52.744709
 20
187.101941
 30
0.0
 11
52.744709
 21
187.285467
 31
0.0
  0
LINE
  5
4F6
100
AcDbEntity
  8
1
  6
DOT
 62
           9
100
AcDbLine
 10
52.744709
 20
187.285467
 30
0.0
 11
52.744709
 21
194.974933
 31
0.0
  0
ARC
  5
4F7
100
AcDbEntity
  8
1
  6
DOT
 62
           9
100
AcDbCircle
 10
52.444713
 20
186.933825
 30
0.0
 40
2.032538
100
AcDbArc
 50
33.942713
 51
146.071119
  0
ARC
  5
4F8
100
AcDbEntity
  8
1
  6
DOT
 62
           9
100
AcDbCircle
 10
52.444706
 20
203.637108
 30
0.0
 40
2.032538
100
AcDbArc
 50
213.942713
 51
326.071119
  0
LINE
  5
4F9
100
AcDbEntity
  8
1
  6
DOT
 62
           9
100
AcDbLine
 10
50.444717
 20
187.024295
 30
0.0
 11
50.444717
 21
186.285467
 31
0.0
  0
LINE
  5
4FA
100
AcDbEntity
  8
1
  6
CONTINUOUS
 62
           7
100
AcDbLine
 10
50.444717
 20
186.285467
 30
0.0
 11
50.444717
 21
186.058957
 31
0.0
  0
LINE
  5
4FB
100
AcDbEntity
  8
1
  6
CONTINUOUS
 62
           7
100
AcDbLine
 10
54.444702
 20
186.058957
 30
0.0
 11
54.444702
 21
187.024295
 31
0.0
  0
LINE
  5
4FC
100
AcDbEntity
  8
1
  6
CONTINUOUS
 62
           7
100
AcDbLine
 10
54.444702
 20
203.546638
 30
0.0
 11
54.444702
 21
204.511976
 31
0.0
  0
LINE
  5
4FD
100
AcDbEntity
  8
1
  6
CONTINUOUS
 62
           7
100
AcDbLine
 10
50.444717
 20
204.511976
 30
0.0
 11
50.444717
 21
204.285467
 31
0.0
  0
LINE
  5
4FE
100
AcDbEntity
  8
1
  6
DOT
 62
           9
100
AcDbLine
 10
50.444717
 20
204.285467
 30
0.0
 11
50.444717
 21
203.546638
 31
0.0
  0
INSERT
  5
4FF
100
AcDbEntity
  8
0
  6
CONTINUOUS
 62
           7
100
AcDbBlockReference
  2
_POLYLINE_$17$
 10
0.0
 20
0.0
 30
0.0
  0
LINE
  5
500
100
AcDbEntity
  8
1
  6
DOT
 62
           9
100
AcDbLine
 10
52.271613
 20
187.915644
 30
0.0
 11
52.277151
 21
187.916086
 31
0.0
  0
POLYLINE
  5
501
100
AcDbEntity
  8
1
  6
DOT
 62
           9
100
AcDb2dPolyline
 66
           1
 10
0.0
 20
0.0
 30
0.0
  0
VERTEX
  5
502
100
AcDbEntity
  8
1
  6
DOT
 62
           9
100
AcDbVertex
100
AcDb2dVertex
 10
52.277151
 20
187.916086
 30
0.0
  0
VERTEX
  5
503
100
AcDbEntity
  8
1
  6
DOT
 62
           9
100
AcDbVertex
100
AcDb2dVertex
 10
52.311417
 20
187.9185
 30
0.0
  0
VERTEX
  5
504
100
AcDbEntity
  8
1
  6
DOT
 62
           9
100
AcDbVertex
100
AcDb2dVertex
 10
52.405956
 20
187.922303
 30
0.0
  0
VERTEX
  5
505
100
AcDbEntity
  8
1
  6
DOT
 62
           9
100
AcDbVertex
100
AcDb2dVertex
 10
52.444709
 20
187.922654
 30
0.0
  0
SEQEND
  5
506
100
AcDbEntity
  8
1
  6
DOT
 62
           9
  0
LINE
  5
507
100
AcDbEntity
  8
1
  6
DOT
 62
           9
100
AcDbLine
 10
52.444709
 20
187.922654
 30
0.0
 11
52.615141
 21
187.915858
 31
0.0
  0
LINE
  5
508
100
AcDbEntity
  8
1
  6
DOT
 62
           9
100
AcDbLine
 10
52.615141
 20
187.915858
 30
0.0
 11
52.622448
 21
187.915262
 31
0.0
  0
INSERT
  5
509
100
AcDbEntity
  8
0
  6
CONTINUOUS
 62
           7
100
AcDbBlockReference
  2
_POLYLINE_$18$
 10
0.0
 20
0.0
 30
0.0
  0
LINE
  5
50A
100
AcDbEntity
  8
1
  6
DOT
 62
           9
100
AcDbLine
 10
54.442455
 20
186.147166
 30
0.0
 11
54.44399
 21
186.108629
 31
0.0
  0
LINE
  5
50B
100
AcDbEntity
  8
1
  6
DOT
 62
           9
100
AcDbLine
 10
54.44399
 20
186.108629
 30
0.0
 11
54.444702
 21
186.059007
 31
0.0
  0
INSERT
  5
50C
100
AcDbEntity
  8
0
  6
CONTINUOUS
 62
           7
100
AcDbBlockReference
  2
_POLYLINE_$19$
 10
0.0
 20
0.0
 30
0.0
  0
LINE
  5
50D
100
AcDbEntity
  8
1
  6
DOT
 62
           9
100
AcDbLine
 10
52.617806
 20
202.65529
 30
0.0
 11
52.612268
 21
202.654847
 31
0.0
  0
POLYLINE
  5
50E
100
AcDbEntity
  8
1
  6
DOT
 62
           9
100
AcDb2dPolyline
 66
           1
 10
0.0
 20
0.0
 30
0.0
  0
VERTEX
  5
50F
100
AcDbEntity
  8
1
  6
DOT
 62
           9
100
AcDbVertex
100
AcDb2dVertex
 10
52.612268
 20
202.654847
 30
0.0
  0
VERTEX
  5
510
100
AcDbEntity
  8
1
  6
DOT
 62
           9
100
AcDbVertex
100
AcDb2dVertex
 10
52.578002
 20
202.652433
 30
0.0
  0
VERTEX
  5
511
100
AcDbEntity
  8
1
  6
DOT
 62
           9
100
AcDbVertex
100
AcDb2dVertex
 10
52.483463
 20
202.64863
 30
0.0
  0
VERTEX
  5
512
100
AcDbEntity
  8
1
  6
DOT
 62
           9
100
AcDbVertex
100
AcDb2dVertex
 10
52.444709
 20
202.64828
 30
0.0
  0
SEQEND
  5
513
100
AcDbEntity
  8
1
  6
DOT
 62
           9
  0
LINE
  5
514
100
AcDbEntity
  8
1
  6
DOT
 62
           9
100
AcDbLine
 10
52.444709
 20
202.64828
 30
0.0
 11
52.274278
 21
202.655075
 31
0.0
  0
LINE
  5
515
100
AcDbEntity
  8
1
  6
DOT
 62
           9
100
AcDbLine
 10
52.274278
 20
202.655075
 30
0.0
 11
52.266971
 21
202.655671
 31
0.0
  0
INSERT
  5
516
100
AcDbEntity
  8
0
  6
CONTINUOUS
 62
           7
100
AcDbBlockReference
  2
_POLYLINE_$20$
 10
0.0
 20
0.0
 30
0.0
  0
LINE
  5
517
100
AcDbEntity
  8
1
  6
DOT
 62
           9
100
AcDbLine
 10
50.446964
 20
204.423767
 30
0.0
 11
50.445429
 21
204.462304
 31
0.0
  0
LINE
  5
518
100
AcDbEntity
  8
1
  6
DOT
 62
           9
100
AcDbLine
 10
50.445429
 20
204.462304
 30
0.0
 11
50.444717
 21
204.511926
 31
0.0
  0
ARC
  5
519
100
AcDbEntity
  8
1
  6
CONTINUOUS
 62
           7
100
AcDbCircle
 10
52.493641
 20
185.075456
 30
0.0
 40
2.951071
100
AcDbArc
 50
0.078265
 51
48.514552
  0
LINE
  5
51A
100
AcDbEntity
  8
1
  6
DOT
 62
           9
100
AcDbLine
 10
54.448518
 20
187.286174
 30
0.0
 11
54.423095
 21
187.308475
 31
0.0
  0
ARC
  5
51B
100
AcDbEntity
  8
1
  6
DOT
 62
           9
100
AcDbCircle
 10
52.44471
 20
185.018316
 30
0.0
 40
3.026357
100
AcDbArc
 50
49.177456
 51
130.826045
  0
LINE
  5
51C
100
AcDbEntity
  8
1
  6
DOT
 62
           9
100
AcDbLine
 10
50.466184
 20
187.308354
 30
0.0
 11
50.44072
 21
187.286014
 31
0.0
  0
ARC
  5
51D
100
AcDbEntity
  8
1
  6
DOT
 62
           9
100
AcDbCircle
 10
52.409024
 20
185.065699
 30
0.0
 40
2.967157
100
AcDbArc
 50
131.55692
 51
155.721632
  0
ARC
  5
51E
100
AcDbEntity
  8
1
  6
CONTINUOUS
 62
           7
100
AcDbCircle
 10
52.382803
 20
185.078251
 30
0.0
 40
2.938094
100
AcDbArc
 50
155.734502
 51
179.981117
  0
ARC
  5
51F
100
AcDbEntity
  8
1
  6
CONTINUOUS
 62
           7
100
AcDbCircle
 10
52.382695
 20
205.492659
 30
0.0
 40
2.937986
100
AcDbArc
 50
180.023659
 51
204.261222
  0
ARC
  5
520
100
AcDbEntity
  8
1
  6
DOT
 62
           9
100
AcDbCircle
 10
52.408771
 20
205.505047
 30
0.0
 40
2.966849
100
AcDbArc
 50
204.272401
 51
228.448995
  0
LINE
  5
521
100
AcDbEntity
  8
1
  6
DOT
 62
           9
100
AcDbLine
 10
50.4409
 20
203.284759
 30
0.0
 11
50.466324
 21
203.262459
 31
0.0
  0
ARC
  5
522
100
AcDbEntity
  8
1
  6
DOT
 62
           9
100
AcDbCircle
 10
52.444709
 20
205.552618
 30
0.0
 40
3.026357
100
AcDbArc
 50
229.177456
 51
310.826045
  0
LINE
  5
523
100
AcDbEntity
  8
1
  6
DOT
 62
           9
100
AcDbLine
 10
54.423234
 20
203.262579
 30
0.0
 11
54.448699
 21
203.284919
 31
0.0
  0
ARC
  5
524
100
AcDbEntity
  8
1
  6
CONTINUOUS
 62
           7
100
AcDbCircle
 10
52.493447
 20
205.495565
 30
0.0
 40
2.951264
100
AcDbArc
 50
311.491819
 51
359.925242
  0
LINE
  5
525
100
AcDbEntity
  8
1
  6
CONTINUOUS
 62
           7
100
AcDbLine
 10
55.444709
 20
205.492187
 30
0.0
 11
55.444709
 21
206.626585
 31
0.0
  0
LINE
  5
526
100
AcDbEntity
  8
1
  6
CONTINUOUS
 62
           7
100
AcDbLine
 10
49.444709
 20
206.626585
 30
0.0
 11
49.444709
 21
205.492187
 31
0.0
  0
LINE
  5
527
100
AcDbEntity
  8
1
  6
CONTINUOUS
 62
           7
100
AcDbLine
 10
49.444709
 20
185.078747
 30
0.0
 11
49.444709
 21
183.944349
 31
0.0
  0
LINE
  5
528
100
AcDbEntity
  8
1
  6
CONTINUOUS
 62
           7
100
AcDbLine
 10
55.444709
 20
183.944349
 30
0.0
 11
55.444709
 21
185.078747
 31
0.0
  0
LINE
  5
529
100
AcDbEntity
  8
1
  6
DOT
 62
           9
100
AcDbLine
 10
52.744709
 20
184.331724
 30
0.0
 11
52.144709
 21
184.331724
 31
0.0
  0
LINE
  5
52A
100
AcDbEntity
  8
1
  6
DOT
 62
           9
100
AcDbLine
 10
52.144709
 20
206.239209
 30
0.0
 11
52.744709
 21
206.239209
 31
0.0
  0
LINE
  5
52B
100
AcDbEntity
  8
1
  6
CONTINUOUS
 62
           7
100
AcDbLine
 10
52.744709
 20
210.987443
 30
0.0
 11
52.144709
 21
210.987443
 31
0.0
  0
LINE
  5
52C
100
AcDbEntity
  8
1
  6
CONTINUOUS
 62
           7
100
AcDbLine
 10
52.144709
 20
179.58349
 30
0.0
 11
52.744709
 21
179.58349
 31
0.0
  0
LINE
  5
52D
100
AcDbEntity
  8
1
  6
DOT
 62
           9
100
AcDbLine
 10
52.144709
 20
183.785268
 30
0.0
 11
52.744709
 21
183.785268
 31
0.0
  0
LINE
  5
52E
100
AcDbEntity
  8
1
  6
DOT
 62
           9
100
AcDbLine
 10
52.744709
 20
206.785665
 30
0.0
 11
52.144709
 21
206.785665
 31
0.0
  0
LINE
  5
52F
100
AcDbEntity
  8
1
  6
DASHDOT
 62
           1
100
AcDbLine
 10
47.444709
 20
195.285467
 30
0.0
 11
56.944709
 21
195.285467
 31
0.0
  0
ENDSEC
  0
SECTION
  2
OBJECTS
  0
DICTIONARY
  5
19
100
AcDbDictionary
  3
ACAD_GROUP
350
1A
  3
ACAD_MLINESTYLE
350
1B
  3
DWGPROPS
350
530
  0
DICTIONARY
  5
1A
102
{ACAD_REACTORS
330
19
102
}
100
AcDbDictionary
  0
DICTIONARY
  5
1B
102
{ACAD_REACTORS
330
19
102
}
100
AcDbDictionary
  3
STANDARD
350
1C
  0
MLINESTYLE
  5
1C
102
{ACAD_REACTORS
330
1B
102
}
100
AcDbMlineStyle
  2
STANDARD
 70
           0
  3

 62
           0
 51
90.0
 52
90.0
 71
           2
 49
0.5
 62
         256
  6
BYLAYER
 49
-0.5
 62
         256
  6
BYLAYER
  0
XRECORD
  5
530
100
AcDbXrecord
  1
DWGPROPS COOKIE
  2

  3

  4

  0
ENDSEC
  0
EOF
