  0
SECTION
  2
HEADER
  9
$ACADVER
  1
AC1015
  9
$ACADMAINTVER
 70
     6
  9
$DWGCODEPAGE
  3
DOS932
  9
$INSBASE
 10
0.0
 20
0.0
 30
0.0
  9
$EXTMIN
 10
0.0
 20
0.0
 30
0.0
  9
$EXTMAX
 10
200.003042
 20
287.0
 30
10.0
  9
$LIMMIN
 10
0.0
 20
0.0
  9
$LIMMAX
 10
200.003042
 20
287.0
  9
$ORTHOMODE
 70
     0
  9
$REGENMODE
 70
     1
  9
$FILLMODE
 70
     1
  9
$QTEXTMODE
 70
     0
  9
$MIRRTEXT
 70
     1
  9
$LTSCALE
 40
10.0
  9
$ATTMODE
 70
     1
  9
$TEXTSIZE
 40
0.2
  9
$TRACEWID
 40
0.05
  9
$TEXTSTYLE
  7
Standard
  9
$CLAYER
  8
0
  9
$CELTYPE
  6
Continuous
  9
$CECOLOR
 62
   256
  9
$CELTSCALE
 40
1.0
  9
$DISPSILH
 70
     0
  9
$DIMSCALE
 40
1.0
  9
$DIMASZ
 40
3.2
  9
$DIMEXO
 40
3.2
  9
$DIMDLI
 40
0.38
  9
$DIMRND
 40
0.0
  9
$DIMDLE
 40
0.0
  9
$DIMEXE
 40
2.4
  9
$DIMTP
 40
0.0
  9
$DIMTM
 40
0.0
  9
$DIMTXT
 40
8.0
  9
$DIMCEN
 40
0.09
  9
$DIMTSZ
 40
0.0
  9
$DIMTOL
 70
     0
  9
$DIMLIM
 70
     0
  9
$DIMTIH
 70
     0
  9
$DIMTOH
 70
     0
  9
$DIMSE1
 70
     0
  9
$DIMSE2
 70
     0
  9
$DIMTAD
 70
     1
  9
$DIMZIN
 70
     0
  9
$DIMBLK
  1

  9
$DIMASO
 70
     1
  9
$DIMSHO
 70
     1
  9
$DIMPOST
  1

  9
$DIMAPOST
  1

  9
$DIMALT
 70
     0
  9
$DIMALTD
 70
     2
  9
$DIMALTF
 40
25.4
  9
$DIMLFAC
 40
1.0
  9
$DIMTOFL
 70
     0
  9
$DIMTVP
 40
0.0
  9
$DIMTIX
 70
     0
  9
$DIMSOXD
 70
     0
  9
$DIMSAH
 70
     0
  9
$DIMBLK1
  1

  9
$DIMBLK2
  1

  9
$DIMSTYLE
  2
Standard
  9
$DIMCLRD
 70
     7
  9
$DIMCLRE
 70
     7
  9
$DIMCLRT
 70
     7
  9
$DIMTFAC
 40
0.6
  9
$DIMGAP
 40
4.0
  9
$DIMJUST
 70
     0
  9
$DIMSD1
 70
     0
  9
$DIMSD2
 70
     0
  9
$DIMTOLJ
 70
     1
  9
$DIMTZIN
 70
     0
  9
$DIMALTZ
 70
     0
  9
$DIMALTTZ
 70
     0
  9
$DIMUPT
 70
     0
  9
$DIMDEC
 70
     6
  9
$DIMTDEC
 70
     4
  9
$DIMALTU
 70
     2
  9
$DIMALTTD
 70
     2
  9
$DIMTXSTY
  7
Standard
  9
$DIMAUNIT
 70
     0
  9
$DIMADEC
 70
     0
  9
$DIMALTRND
 40
0.0
  9
$DIMAZIN
 70
     0
  9
$DIMDSEP
 70
     0
  9
$DIMATFIT
 70
     3
  9
$DIMFRAC
 70
     0
  9
$DIMLDRBLK
  1

  9
$DIMLUNIT
 70
     2
  9
$DIMLWD
 70
     0
  9
$DIMLWE
 70
     0
  9
$DIMTMOVE
 70
     0
  9
$LUNITS
 70
     2
  9
$LUPREC
 70
     4
  9
$SKETCHINC
 40
0.1
  9
$FILLETRAD
 40
0.0
  9
$AUNITS
 70
     0
  9
$AUPREC
 70
     0
  9
$MENU
  1
acad
  9
$ELEVATION
 40
0.0
  9
$PELEVATION
 40
0.0
  9
$THICKNESS
 40
0.0
  9
$LIMCHECK
 70
     0
  9
$CHAMFERA
 40
0.0
  9
$CHAMFERB
 40
0.0
  9
$CHAMFERC
 40
0.0
  9
$CHAMFERD
 40
0.0
  9
$SKPOLY
 70
     0
  9
$TDCREATE
 40
2458421.487754630
  9
$TDUCREATE
 40
0.000000000
  9
$TDUPDATE
 40
2458421.112685185
  9
$TDUUPDATE
 40
0.000000000
  9
$TDINDWG
 40
0.0000000000
  9
$TDUSRTIMER
 40
0.0000000000
  9
$USRTIMER
 70
     1
  9
$ANGBASE
 50
0.0
  9
$ANGDIR
 70
     0
  9
$PDMODE
 70
     0
  9
$PDSIZE
 40
0.0
  9
$PLINEWID
 40
0.0
  9
$SPLFRAME
 70
     0
  9
$SPLINETYPE
 70
     6
  9
$SPLINESEGS
 70
     8
  9
$HANDSEED
  5
1EE
  9
$SURFTAB1
 70
     6
  9
$SURFTAB2
 70
     6
  9
$SURFTYPE
 70
     6
  9
$SURFU
 70
     6
  9
$SURFV
 70
     6
  9
$UCSBASE
  2

  9
$UCSNAME
  2

  9
$UCSORG
 10
0.0
 20
0.0
 30
0.0
  9
$UCSXDIR
 10
1.0
 20
0.0
 30
0.0
  9
$UCSYDIR
 10
0.0
 20
1.0
 30
0.0
  9
$UCSORTHOREF
  2

  9
$UCSORTHOVIEW
 70
     0
  9
$UCSORGTOP
 10
0.0
 20
0.0
 30
0.0
  9
$UCSORGBOTTOM
 10
0.0
 20
0.0
 30
0.0
  9
$UCSORGLEFT
 10
0.0
 20
0.0
 30
0.0
  9
$UCSORGRIGHT
 10
0.0
 20
0.0
 30
0.0
  9
$UCSORGFRONT
 10
0.0
 20
0.0
 30
0.0
  9
$UCSORGBACK
 10
0.0
 20
0.0
 30
0.0
  9
$PUCSBASE
  2

  9
$PUCSNAME
  2

  9
$PUCSORG
 10
0.0
 20
0.0
 30
0.0
  9
$PUCSXDIR
 10
1.0
 20
0.0
 30
0.0
  9
$PUCSYDIR
 10
0.0
 20
1.0
 30
0.0
  9
$PUCSORTHOREF
  2

  9
$PUCSORTHOVIEW
 70
     0
  9
$PUCSORGTOP
 10
0.0
 20
0.0
 30
0.0
  9
$PUCSORGBOTTOM
 10
0.0
 20
0.0
 30
0.0
  9
$PUCSORGLEFT
 10
0.0
 20
0.0
 30
0.0
  9
$PUCSORGRIGHT
 10
0.0
 20
0.0
 30
0.0
  9
$PUCSORGFRONT
 10
0.0
 20
0.0
 30
0.0
  9
$PUCSORGBACK
 10
0.0
 20
0.0
 30
0.0
  9
$USERI1
 70
     0
  9
$USERI2
 70
     0
  9
$USERI3
 70
     0
  9
$USERI4
 70
     0
  9
$USERI5
 70
     0
  9
$USERR1
 40
0.0
  9
$USERR2
 40
0.0
  9
$USERR3
 40
0.0
  9
$USERR4
 40
0.0
  9
$USERR5
 40
0.0
  9
$WORLDVIEW
 70
     1
  9
$SHADEDGE
 70
     3
  9
$SHADEDIF
 70
    70
  9
$TILEMODE
 70
     1
  9
$MAXACTVP
 70
    16
  9
$PINSBASE
 10
0.0
 20
0.0
 30
0.0
  9
$PLIMCHECK
 70
     0
  9
$PEXTMIN
 10
1.000000E+20
 20
1.000000E+20
 30
1.000000E+20
  9
$PEXTMAX
 10
-1.000000E+20
 20
-1.000000E+20
 30
-1.000000E+20
  9
$PLIMMIN
 10
0.0
 20
0.0
  9
$PLIMMAX
 10
12.0
 20
9.0
  9
$UNITMODE
 70
     0
  9
$VISRETAIN
 70
     0
  9
$PLINEGEN
 70
     1
  9
$PSLTSCALE
 70
     0
  9
$TREEDEPTH
 70
  3020
  9
$CMLSTYLE
  2
Standard
  9
$CMLJUST
 70
     0
  9
$CMLSCALE
 40
1.0
  9
$PROXYGRAPHICS
 70
     0
  9
$MEASUREMENT
 70
     0
  9
$CELWEIGHT
370
     0
  9
$ENDCAPS
280
     0
  9
$JOINSTYLE
280
     0
  9
$LWDISPLAY
290
     0
  9
$INSUNITS
 70
     0
  9
$HYPERLINKBASE
  1

  9
$STYLESHEET
  1

  9
$XEDIT
290
     1
  9
$CEPSNTYPE
380
     0
  9
$PSTYLEMODE
290
     1
  9
$FINGERPRINTGUID
  2

  9
$VERSIONGUID
  2

  9
$EXTNAMES
290
     1
  9
$PSVPSCALE
 40
0.0
  0
ENDSEC
  0
SECTION
  2
CLASSES
  0
CLASS
  1
LWPOLYLINE
  2
AcDbPolyline
  3
AutoCAD 2000
 90
        0
280
     0
281
     1
  0
CLASS
  1
IMAGE
  2
AcDbRasterImage
  3
ISM
 90
      127
280
     0
281
     1
  0
CLASS
  1
OLE2FRAME
  2
AcDbOle2Frame
  3
AutoCAD 2000
 90
        0
280
     0
281
     1
  0
CLASS
  1
HATCH
  2
AcDbHatch
  3
AutoCAD 2000
 90
        0
280
     0
281
     1
  0
CLASS
  1
DICTIONARYVAR
  2
AcDbDictionaryVar
  3
AutoCAD 2000
 90
        0
280
     0
281
     0
  0
CLASS
  1
RASTERVARIABLES
  2
AcDbRasterVariables
  3
ISM
 90
        0
280
     0
281
     0
  0
CLASS
  1
IMAGEDEF
  2
AcDbRasterImageDef
  3
ISM
 90
        0
280
     0
281
     0
  0
CLASS
  1
IMAGEDEF_REACTOR
  2
AcDbRasterImageDefReactor
  3
ISM
 90
        1
280
     0
281
     0
  0
CLASS
  1
IDBUFFER
  2
AcDbIdBuffer
  3
AutoCAD 2000
 90
        0
280
     0
281
     0
  0
CLASS
  1
SPATIAL_FILTER
  2
AcDbSpatialFilter
  3
AutoCAD 2000
 90
        0
280
     0
281
     0
  0
CLASS
  1
XRECORD
  2
AcDbXrecord
  3
AutoCAD 2000
 90
        0
280
     0
281
     0
  0
CLASS
  1
SORTENTSTABLE
  2
AcDbSortentsTable
  3
AutoCAD 2000
 90
        0
280
     0
281
     0
  0
CLASS
  1
LAYER_INDEX
  2
AcDbLayerIndex
  3
AutoCAD 2000
 90
        0
280
     0
281
     0
  0
CLASS
  1
SPATIAL_INDEX
  2
AcDbSpatialIndex
  3
AutoCAD 2000
 90
        0
280
     0
281
     0
  0
CLASS
  1
OBJECT_PTR
  2
CAseDLPNTableRecord
  3
"ASE-LPNTableRecord"
 90
        1
280
     0
281
     0
  0
CLASS
  1
LAYOUT
  2
AcDbLayout
  3
AutoCAD 2000
 90
        0
280
     0
281
     0
  0
CLASS
  1
PLOTSETTINGS
  2
AcDbPlotSettings
  3
AutoCAD 2000
 90
        0
280
     0
281
     0
  0
CLASS
  1
ACDBDICTIONARYWDFLT
  2
AcDbDictionaryWithDefault
  3
AutoCAD 2000
 90
        0
280
     0
281
     0
  0
CLASS
  1
ACDBPLACEHOLDER
  2
AcDbPlaceHolder
  3
AutoCAD 2000
 90
        0
280
     0
281
     0
  0
CLASS
  1
VBA_PROJECT
  2
AcDbVbaProject
  3
acadvba
 90
        0
280
     0
281
     0
  0
CLASS
  1
WIPEOUT
  2
AcDbWipeout
  3
WipeOut|AutoCAD Express Tool|expresstools@autodesk.com
 90
      127
280
     0
281
     1
  0
CLASS
  1
WIPEOUTVARIABLES
  2
AcDbWipeoutVariables
  3
WipeOut|AutoCAD Express Tool|expresstools@autodesk.com
 90
        0
280
     0
281
     0
  0
CLASS
  1
RTEXT
  2
RText
  3
RText|AutoCAD Express Tool|expresstools@autodesk.com
 90
        0
280
     0
281
     1
  0
CLASS
  1
ARCALIGNEDTEXT
  2
AcDbArcAlignedText
  3
ATEXT|AutoCAD Express Tool|expresstools@autodesk.com
 90
        0
280
     0
281
     1
  0
ENDSEC
  0
SECTION
  2
TABLES
  0
TABLE
  2
VPORT
  5
7
100
AcDbSymbolTable
 70
     1
  0
VPORT
  5
15
100
AcDbSymbolTableRecord
100
AcDbViewportTableRecord
  2
*ACTIVE
 70
     0
 10
0.0
 20
0.0
 11
1.0
 21
1.0
 12
6.591288
 22
4.579184
 13
0.0
 23
0.0
 14
1.0
 24
1.0
 15
0.0
 25
0.0
 16
0.0
 26
0.0
 36
1.0
 17
0.0
 27
0.0
 37
0.0
 40
9.158369
 41
0.688564
 42
50.0
 43
0.0
 44
0.0
 50
0.0
 51
0.0
 71
     0
 72
   100
 73
     1
 74
     1
 75
     0
 76
     0
 77
     0
 78
     0
281
     0
 65
     0
110
0.0
120
0.0
130
0.0
111
1.0
121
0.0
131
0.0
112
0.0
122
1.0
132
0.0
345
0
346
0
 79
     0
146
0.0
  0
ENDTAB
  0
TABLE
  2
LTYPE
  5
4
100
AcDbSymbolTable
 70
     5
  0
LTYPE
  5
11
100
AcDbSymbolTableRecord
100
AcDbLinetypeTableRecord
  2
ByBlock
 70
    64
  3

 72
    65
 73
     0
 40
0.0
  0
LTYPE
  5
12
100
AcDbSymbolTableRecord
100
AcDbLinetypeTableRecord
  2
ByLayer
 70
    64
  3

 72
    65
 73
     0
 40
0.0
  0
LTYPE
  5
13
100
AcDbSymbolTableRecord
100
AcDbLinetypeTableRecord
  2
Continuous
 70
    64
  3
Solid line
 72
    65
 73
     0
 40
0.0
  0
LTYPE
  5
BE
100
AcDbSymbolTableRecord
100
AcDbLinetypeTableRecord
  2
DOT
 70
    64
  3
..............................................
 72
    65
 73
     2
 40
0.5
 49
0.25
 74
     0
 49
-0.25
 74
     0
  0
LTYPE
  5
101
100
AcDbSymbolTableRecord
100
AcDbLinetypeTableRecord
  2
CENTER
 70
    64
  3
____ _ ____ _ ____ _ ____ _ ____ _ ____ _ ____
 72
    65
 73
     4
 40
2.0
 49
1.25
 74
     0
 49
-0.25
 74
     0
 49
0.25
 74
     0
 49
-0.25
 74
     0
  0
ENDTAB
  0
TABLE
  2
LAYER
  5
2
100
AcDbSymbolTable
 70
     4
  0
LAYER
  5
14
100
AcDbSymbolTableRecord
100
AcDbLayerTableRecord
  2
0
 70
     0
 62
     7
  6
Continuous
290
     1
370
    -3
390
1D
  0
LAYER
  5
27
100
AcDbSymbolTableRecord
100
AcDbLayerTableRecord
  2
256
 70
     0
 62
     7
  6
Continuous
290
     1
370
    -3
390
1D
  0
LAYER
  5
B6
100
AcDbSymbolTableRecord
100
AcDbLayerTableRecord
  2
1
 70
     0
 62
     7
  6
Continuous
290
     1
370
    -3
390
1D
  0
LAYER
  5
106
100
AcDbSymbolTableRecord
100
AcDbLayerTableRecord
  2
5
 70
     0
 62
     7
  6
Continuous
290
     1
370
    -3
390
1D
  0
ENDTAB
  0
TABLE
  2
STYLE
  5
3
100
AcDbSymbolTable
 70
     1
  0
STYLE
  5
17
100
AcDbSymbolTableRecord
100
AcDbTextStyleTableRecord
  2
Standard
 70
     0
 40
0.0
 41
1.0
 50
0.0
 71
     0
 42
0.0
  3
ＭＳ Ｐゴシック
  4

1001
ACAD
1000
ＭＳ Ｐゴシック
1071
        0
  0
ENDTAB
  0
TABLE
  2
VIEW
  5
5
100
AcDbSymbolTable
 70
     0
  0
ENDTAB
  0
TABLE
  2
UCS
  5
6
100
AcDbSymbolTable
 70
     0
  0
ENDTAB
  0
TABLE
  2
APPID
  5
8
100
AcDbSymbolTable
 70
     2
  0
APPID
  5
16
100
AcDbSymbolTableRecord
100
AcDbRegAppTableRecord
  2
ACAD
 70
     0
  0
APPID
  5
26
100
AcDbSymbolTableRecord
100
AcDbRegAppTableRecord
  2
TOPsolid_Design
 70
     0
  0
ENDTAB
  0
TABLE
  2
DIMSTYLE
  5
9
100
AcDbSymbolTable
 70
     1
100
AcDbDimStyleTable
 71
     0
  0
DIMSTYLE
105
18
100
AcDbSymbolTableRecord
100
AcDbDimStyleTableRecord
  2
Standard
 70
     0
  3

  4

 40
1.0
 41
3.2
 42
3.2
 43
0.38
 44
2.4
 45
0.0
 46
0.0
 47
0.0
 48
0.0
 71
     0
 72
     0
 73
     0
 74
     0
 75
     0
 76
     0
 77
     1
 78
     0
 79
     0
140
8.0
141
0.09
142
0.0
143
25.4
144
1.0
145
0.0
146
0.6
147
4.0
148
0.0
170
     0
171
     2
172
     0
173
     0
174
     0
175
     0
176
     7
177
     7
178
     7
179
     0
271
     6
272
     4
273
     2
274
     2
275
     0
276
     0
277
     2
278
    46
279
     0
280
     0
281
     0
282
     0
283
     1
284
     0
285
     0
286
     0
288
     0
289
     3
340
17
341
0
342
0
343
0
344
0
371
    -2
372
    -2
  0
ENDTAB
  0
TABLE
  2
BLOCK_RECORD
  5
1
100
AcDbSymbolTable
 70
    15
  0
BLOCK_RECORD
  5
A
100
AcDbSymbolTableRecord
100
AcDbBlockTableRecord
  2
*MODEL_SPACE
340
20
  0
BLOCK_RECORD
  5
B
100
AcDbSymbolTableRecord
100
AcDbBlockTableRecord
  2
*PAPER_SPACE
340
21
  0
BLOCK_RECORD
  5
B1
100
AcDbSymbolTableRecord
100
AcDbBlockTableRecord
  2
AID274
340
0
102
{BLKREFS
331
B5
102
}
  0
BLOCK_RECORD
  5
11D
100
AcDbSymbolTableRecord
100
AcDbBlockTableRecord
  2
AID475
340
0
102
{BLKREFS
331
12E
102
}
  0
BLOCK_RECORD
  5
12F
100
AcDbSymbolTableRecord
100
AcDbBlockTableRecord
  2
AID488
340
0
102
{BLKREFS
331
140
102
}
  0
BLOCK_RECORD
  5
141
100
AcDbSymbolTableRecord
100
AcDbBlockTableRecord
  2
AID501
340
0
102
{BLKREFS
331
153
102
}
  0
BLOCK_RECORD
  5
154
100
AcDbSymbolTableRecord
100
AcDbBlockTableRecord
  2
AID516
340
0
102
{BLKREFS
331
166
102
}
  0
BLOCK_RECORD
  5
167
100
AcDbSymbolTableRecord
100
AcDbBlockTableRecord
  2
AID531
340
0
102
{BLKREFS
331
17B
102
}
  0
BLOCK_RECORD
  5
17C
100
AcDbSymbolTableRecord
100
AcDbBlockTableRecord
  2
AID550
340
0
102
{BLKREFS
331
18B
102
}
  0
BLOCK_RECORD
  5
18C
100
AcDbSymbolTableRecord
100
AcDbBlockTableRecord
  2
AID567
340
0
102
{BLKREFS
331
19A
102
}
  0
BLOCK_RECORD
  5
19B
100
AcDbSymbolTableRecord
100
AcDbBlockTableRecord
  2
AID582
340
0
102
{BLKREFS
331
1AC
102
}
  0
BLOCK_RECORD
  5
1AD
100
AcDbSymbolTableRecord
100
AcDbBlockTableRecord
  2
AID595
340
0
102
{BLKREFS
331
1BE
102
}
  0
BLOCK_RECORD
  5
1BF
100
AcDbSymbolTableRecord
100
AcDbBlockTableRecord
  2
AID608
340
0
102
{BLKREFS
331
1D2
102
}
  0
BLOCK_RECORD
  5
1D3
100
AcDbSymbolTableRecord
100
AcDbBlockTableRecord
  2
AID625
340
0
102
{BLKREFS
331
1DE
102
}
  0
BLOCK_RECORD
  5
1DF
100
AcDbSymbolTableRecord
100
AcDbBlockTableRecord
  2
AID634
340
0
102
{BLKREFS
331
1E3
102
}
  0
BLOCK_RECORD
  5
1E4
100
AcDbSymbolTableRecord
100
AcDbBlockTableRecord
  2
AID637
340
0
102
{BLKREFS
331
1E8
102
}
  0
BLOCK_RECORD
  5
1E9
100
AcDbSymbolTableRecord
100
AcDbBlockTableRecord
  2
AID640
340
0
102
{BLKREFS
331
1ED
102
}
  0
ENDTAB
  0
ENDSEC
  0
SECTION
  2
BLOCKS
  0
BLOCK
  5
D
100
AcDbEntity
  8
0
390
0
100
AcDbBlockBegin
  2
*MODEL_SPACE
 70
     0
 10
0.0
 20
0.0
 30
0.0
  3
*MODEL_SPACE
  1

  0
ENDBLK
  5
E
100
AcDbEntity
  8
0
390
0
100
AcDbBlockEnd
  0
BLOCK
  5
F
100
AcDbEntity
 67
     1
  8
0
390
0
100
AcDbBlockBegin
  2
*PAPER_SPACE
 70
     0
 10
0.0
 20
0.0
 30
0.0
  3
*PAPER_SPACE
  1

  0
ENDBLK
  5
10
100
AcDbEntity
 67
     1
  8
0
390
0
100
AcDbBlockEnd
  0
BLOCK
  5
B2
100
AcDbEntity
  8
0
390
0
100
AcDbBlockBegin
  2
AID274
 70
     0
 10
0.0
 20
0.0
 30
0.0
  3
D_GROUP
  1

  0
MTEXT
  5
B3
100
AcDbEntity
  8
256
390
0
 62
     7
100
AcDbMText
 10
196.157587
 20
7.124258
 30
0.0
 40
3.0
 41
7.609091
 71
     7
 72
     1
  1
A4
210
0.0
220
0.0
230
1.0
 73
     1
 44
1.0
  0
ENDBLK
  5
B4
100
AcDbEntity
  8
0
390
0
100
AcDbBlockEnd
  0
BLOCK
  5
11E
100
AcDbEntity
  8
0
390
0
100
AcDbBlockBegin
  2
AID475
 70
     0
 10
0.0
 20
0.0
 30
0.0
  3
D_GROUP
  1

  0
MTEXT
  5
11F
100
AcDbEntity
  8
1
390
0
 62
     2
100
AcDbMText
 10
100.428145
 20
161.298179
 30
0.0
 40
6.0
 41
5.181818
 71
     7
 72
     1
  1
7
210
0.0
220
0.0
230
1.0
 11
0.0
 21
1.0
 31
0.0
 73
     1
 44
1.0
  0
LINE
  5
120
100
AcDbEntity
  8
1
390
0
  6
Continuous
 62
    11
100
AcDbLine
 10
101.546327
 20
164.952724
 30
0.0
 11
101.546327
 21
139.461815
 31
0.0
  0
LINE
  5
121
100
AcDbEntity
  8
1
390
0
  6
Continuous
 62
    11
100
AcDbLine
 10
81.535704
 20
155.461815
 30
0.0
 11
103.346327
 21
155.461815
 31
0.0
  0
LINE
  5
122
100
AcDbEntity
  8
1
390
0
  6
Continuous
 62
    11
100
AcDbLine
 10
80.585704
 20
148.461815
 30
0.0
 11
103.346327
 21
148.461815
 31
0.0
  0
POLYLINE
  5
123
100
AcDbEntity
  8
1
390
0
  6
Continuous
 62
    11
100
AcDb2dPolyline
 66
     1
 10
0.0
 20
0.0
 30
0.0
 40
3.0
 41
3.0
  0
VERTEX
  5
124
100
AcDbEntity
  8
1
390
0
 62
    11
100
AcDbVertex
100
AcDb2dVertex
 10
100.646327
 20
159.961815
 30
0.0
  0
VERTEX
  5
125
100
AcDbEntity
  8
1
390
0
 62
    11
100
AcDbVertex
100
AcDb2dVertex
 10
101.546327
 20
155.461815
 30
0.0
  0
VERTEX
  5
126
100
AcDbEntity
  8
1
390
0
 62
    11
100
AcDbVertex
100
AcDb2dVertex
 10
102.446327
 20
159.961815
 30
0.0
  0
SEQEND
  5
127
100
AcDbEntity
  8
0
390
0
  0
POLYLINE
  5
128
100
AcDbEntity
  8
1
390
0
  6
Continuous
 62
    11
100
AcDb2dPolyline
 66
     1
 10
0.0
 20
0.0
 30
0.0
 40
3.0
 41
3.0
  0
VERTEX
  5
129
100
AcDbEntity
  8
1
390
0
 62
    11
100
AcDbVertex
100
AcDb2dVertex
 10
102.446327
 20
143.961815
 30
0.0
  0
VERTEX
  5
12A
100
AcDbEntity
  8
1
390
0
 62
    11
100
AcDbVertex
100
AcDb2dVertex
 10
101.546327
 20
148.461815
 30
0.0
  0
VERTEX
  5
12B
100
AcDbEntity
  8
1
390
0
 62
    11
100
AcDbVertex
100
AcDb2dVertex
 10
100.646327
 20
143.961815
 30
0.0
  0
SEQEND
  5
12C
100
AcDbEntity
  8
0
390
0
  0
ENDBLK
  5
12D
100
AcDbEntity
  8
0
390
0
100
AcDbBlockEnd
  0
BLOCK
  5
130
100
AcDbEntity
  8
0
390
0
100
AcDbBlockBegin
  2
AID488
 70
     0
 10
0.0
 20
0.0
 30
0.0
  3
D_GROUP
  1

  0
MTEXT
  5
131
100
AcDbEntity
  8
1
390
0
 62
     2
100
AcDbMText
 10
60.846658
 20
133.479997
 30
0.0
 40
6.0
 41
2.890909
 71
     7
 72
     1
  1
1
210
0.0
220
0.0
230
1.0
 11
0.0
 21
1.0
 31
0.0
 73
     1
 44
1.0
  0
LINE
  5
132
100
AcDbEntity
  8
1
390
0
  6
Continuous
 62
    11
100
AcDbLine
 10
61.937567
 20
151.961815
 30
0.0
 11
61.937567
 21
132.961815
 31
0.0
  0
LINE
  5
133
100
AcDbEntity
  8
1
390
0
  6
Continuous
 62
    11
100
AcDbLine
 10
68.985704
 20
142.961815
 30
0.0
 11
60.137567
 21
142.961815
 31
0.0
  0
LINE
  5
134
100
AcDbEntity
  8
1
390
0
  6
Continuous
 62
    11
100
AcDbLine
 10
69.485704
 20
141.961815
 30
0.0
 11
60.137567
 21
141.961815
 31
0.0
  0
POLYLINE
  5
135
100
AcDbEntity
  8
1
390
0
  6
Continuous
 62
    11
100
AcDb2dPolyline
 66
     1
 10
0.0
 20
0.0
 30
0.0
 40
3.0
 41
3.0
  0
VERTEX
  5
136
100
AcDbEntity
  8
1
390
0
 62
    11
100
AcDbVertex
100
AcDb2dVertex
 10
61.037567
 20
147.461815
 30
0.0
  0
VERTEX
  5
137
100
AcDbEntity
  8
1
390
0
 62
    11
100
AcDbVertex
100
AcDb2dVertex
 10
61.937567
 20
142.961815
 30
0.0
  0
VERTEX
  5
138
100
AcDbEntity
  8
1
390
0
 62
    11
100
AcDbVertex
100
AcDb2dVertex
 10
62.837567
 20
147.461815
 30
0.0
  0
SEQEND
  5
139
100
AcDbEntity
  8
0
390
0
  0
POLYLINE
  5
13A
100
AcDbEntity
  8
1
390
0
  6
Continuous
 62
    11
100
AcDb2dPolyline
 66
     1
 10
0.0
 20
0.0
 30
0.0
 40
3.0
 41
3.0
  0
VERTEX
  5
13B
100
AcDbEntity
  8
1
390
0
 62
    11
100
AcDbVertex
100
AcDb2dVertex
 10
62.837567
 20
137.461815
 30
0.0
  0
VERTEX
  5
13C
100
AcDbEntity
  8
1
390
0
 62
    11
100
AcDbVertex
100
AcDb2dVertex
 10
61.937567
 20
141.961815
 30
0.0
  0
VERTEX
  5
13D
100
AcDbEntity
  8
1
390
0
 62
    11
100
AcDbVertex
100
AcDb2dVertex
 10
61.037567
 20
137.461815
 30
0.0
  0
SEQEND
  5
13E
100
AcDbEntity
  8
0
390
0
  0
ENDBLK
  5
13F
100
AcDbEntity
  8
0
390
0
100
AcDbBlockEnd
  0
BLOCK
  5
142
100
AcDbEntity
  8
0
390
0
100
AcDbBlockBegin
  2
AID501
 70
     0
 10
0.0
 20
0.0
 30
0.0
  3
D_GROUP
  1

  0
MTEXT
  5
143
100
AcDbEntity
  8
1
390
0
 62
     2
100
AcDbMText
 10
54.916564
 20
161.40727
 30
0.0
 40
6.0
 41
15.381818
 71
     7
 72
     1
  1
2.5
210
0.0
220
0.0
230
1.0
 11
0.0
 21
1.0
 31
0.0
 73
     1
 44
1.0
  0
MTEXT
  5
144
100
AcDbEntity
  8
1
390
0
 62
     2
100
AcDbMText
 10
51.229292
 20
172.452724
 30
0.0
 40
4.2
 41
18.403636
 71
     7
 72
     1
  1
%%p0.1
210
0.0
220
0.0
230
1.0
 11
0.0
 21
1.0
 31
0.0
 73
     1
 44
1.0
  0
LINE
  5
145
100
AcDbEntity
  8
1
390
0
  6
Continuous
 62
    11
100
AcDbLine
 10
56.089292
 20
182.903633
 30
0.0
 11
56.089292
 21
143.961815
 31
0.0
  0
LINE
  5
146
100
AcDbEntity
  8
1
390
0
  6
Continuous
 62
    11
100
AcDbLine
 10
68.035704
 20
155.461815
 30
0.0
 11
54.289292
 21
155.461815
 31
0.0
  0
LINE
  5
147
100
AcDbEntity
  8
1
390
0
  6
Continuous
 62
    11
100
AcDbLine
 10
68.336779
 20
152.961815
 30
0.0
 11
54.289292
 21
152.961815
 31
0.0
  0
POLYLINE
  5
148
100
AcDbEntity
  8
1
390
0
  6
Continuous
 62
    11
100
AcDb2dPolyline
 66
     1
 10
0.0
 20
0.0
 30
0.0
 40
3.0
 41
3.0
  0
VERTEX
  5
149
100
AcDbEntity
  8
1
390
0
 62
    11
100
AcDbVertex
100
AcDb2dVertex
 10
55.189292
 20
159.961815
 30
0.0
  0
VERTEX
  5
14A
100
AcDbEntity
  8
1
390
0
 62
    11
100
AcDbVertex
100
AcDb2dVertex
 10
56.089292
 20
155.461815
 30
0.0
  0
VERTEX
  5
14B
100
AcDbEntity
  8
1
390
0
 62
    11
100
AcDbVertex
100
AcDb2dVertex
 10
56.989292
 20
159.961815
 30
0.0
  0
SEQEND
  5
14C
100
AcDbEntity
  8
0
390
0
  0
POLYLINE
  5
14D
100
AcDbEntity
  8
1
390
0
  6
Continuous
 62
    11
100
AcDb2dPolyline
 66
     1
 10
0.0
 20
0.0
 30
0.0
 40
3.0
 41
3.0
  0
VERTEX
  5
14E
100
AcDbEntity
  8
1
390
0
 62
    11
100
AcDbVertex
100
AcDb2dVertex
 10
56.989292
 20
148.461815
 30
0.0
  0
VERTEX
  5
14F
100
AcDbEntity
  8
1
390
0
 62
    11
100
AcDbVertex
100
AcDb2dVertex
 10
56.089292
 20
152.961815
 30
0.0
  0
VERTEX
  5
150
100
AcDbEntity
  8
1
390
0
 62
    11
100
AcDbVertex
100
AcDb2dVertex
 10
55.189292
 20
148.461815
 30
0.0
  0
SEQEND
  5
151
100
AcDbEntity
  8
0
390
0
  0
ENDBLK
  5
152
100
AcDbEntity
  8
0
390
0
100
AcDbBlockEnd
  0
BLOCK
  5
155
100
AcDbEntity
  8
0
390
0
100
AcDbBlockBegin
  2
AID516
 70
     0
 10
0.0
 20
0.0
 30
0.0
  3
D_GROUP
  1

  0
MTEXT
  5
156
100
AcDbEntity
  8
1
390
0
 62
     2
100
AcDbMText
 10
109.784984
 20
161.025452
 30
0.0
 40
6.0
 41
21.6
 71
     7
 72
     1
  1
13.5
210
0.0
220
0.0
230
1.0
 11
0.0
 21
1.0
 31
0.0
 73
     1
 44
1.0
  0
MTEXT
  5
157
100
AcDbEntity
  8
1
390
0
 62
     2
100
AcDbMText
 10
106.097711
 20
175.561815
 30
0.0
 40
4.2
 41
18.403636
 71
     7
 72
     1
  1
%%p0.1
210
0.0
220
0.0
230
1.0
 11
0.0
 21
1.0
 31
0.0
 73
     1
 44
1.0
  0
LINE
  5
158
100
AcDbEntity
  8
1
390
0
  6
Continuous
 62
    11
100
AcDbLine
 10
110.957711
 20
132.961815
 30
0.0
 11
110.957711
 21
186.012724
 31
0.0
  0
LINE
  5
159
100
AcDbEntity
  8
1
390
0
  6
Continuous
 62
    11
100
AcDbLine
 10
80.085704
 20
141.961815
 30
0.0
 11
112.757711
 21
141.961815
 31
0.0
  0
LINE
  5
15A
100
AcDbEntity
  8
1
390
0
  6
Continuous
 62
    11
100
AcDbLine
 10
81.535704
 20
155.461815
 30
0.0
 11
112.757711
 21
155.461815
 31
0.0
  0
POLYLINE
  5
15B
100
AcDbEntity
  8
1
390
0
  6
Continuous
 62
    11
100
AcDb2dPolyline
 66
     1
 10
0.0
 20
0.0
 30
0.0
 40
3.0
 41
3.0
  0
VERTEX
  5
15C
100
AcDbEntity
  8
1
390
0
 62
    11
100
AcDbVertex
100
AcDb2dVertex
 10
111.857711
 20
137.461815
 30
0.0
  0
VERTEX
  5
15D
100
AcDbEntity
  8
1
390
0
 62
    11
100
AcDbVertex
100
AcDb2dVertex
 10
110.957711
 20
141.961815
 30
0.0
  0
VERTEX
  5
15E
100
AcDbEntity
  8
1
390
0
 62
    11
100
AcDbVertex
100
AcDb2dVertex
 10
110.057711
 20
137.461815
 30
0.0
  0
SEQEND
  5
15F
100
AcDbEntity
  8
0
390
0
  0
POLYLINE
  5
160
100
AcDbEntity
  8
1
390
0
  6
Continuous
 62
    11
100
AcDb2dPolyline
 66
     1
 10
0.0
 20
0.0
 30
0.0
 40
3.0
 41
3.0
  0
VERTEX
  5
161
100
AcDbEntity
  8
1
390
0
 62
    11
100
AcDbVertex
100
AcDb2dVertex
 10
110.057711
 20
159.961815
 30
0.0
  0
VERTEX
  5
162
100
AcDbEntity
  8
1
390
0
 62
    11
100
AcDbVertex
100
AcDb2dVertex
 10
110.957711
 20
155.461815
 30
0.0
  0
VERTEX
  5
163
100
AcDbEntity
  8
1
390
0
 62
    11
100
AcDbVertex
100
AcDb2dVertex
 10
111.857711
 20
159.961815
 30
0.0
  0
SEQEND
  5
164
100
AcDbEntity
  8
0
390
0
  0
ENDBLK
  5
165
100
AcDbEntity
  8
0
390
0
100
AcDbBlockEnd
  0
BLOCK
  5
168
100
AcDbEntity
  8
0
390
0
100
AcDbBlockBegin
  2
AID531
 70
     0
 10
0.0
 20
0.0
 30
0.0
  3
D_GROUP
  1

  0
MTEXT
  5
169
100
AcDbEntity
  8
1
390
0
 62
     2
100
AcDbMText
 10
83.494795
 20
130.138109
 30
0.0
 40
6.0
 41
9.490909
 71
     7
 72
     1
  1
Φ
210
0.0
220
0.0
230
1.0
 73
     1
 44
1.0
  0
MTEXT
  5
16A
100
AcDbEntity
  8
1
390
0
 62
     2
100
AcDbMText
 10
89.44025
 20
130.138109
 30
0.0
 40
6.0
 41
5.181818
 71
     7
 72
     1
  1
7
210
0.0
220
0.0
230
1.0
 73
     1
 44
1.0
  0
MTEXT
  5
16B
100
AcDbEntity
  8
1
390
0
 62
     2
100
AcDbMText
 10
95.494795
 20
128.938109
 30
0.0
 40
4.2
 41
14.547273
 71
     7
 72
     1
  1
-0.1
210
0.0
220
0.0
230
1.0
 73
     1
 44
1.0
  0
MTEXT
  5
16C
100
AcDbEntity
  8
1
390
0
 62
     2
100
AcDbMText
 10
95.494795
 20
133.825382
 30
0.0
 40
4.2
 41
4.2
 71
     7
 72
     1
  1
 0
210
0.0
220
0.0
230
1.0
 73
     1
 44
1.0
  0
LINE
  5
16D
100
AcDbEntity
  8
1
390
0
  6
Continuous
 62
    11
100
AcDbLine
 10
103.502068
 20
127.776291
 30
0.0
 11
62.285704
 21
127.776291
 31
0.0
  0
LINE
  5
16E
100
AcDbEntity
  8
1
390
0
  6
Continuous
 62
    11
100
AcDbLine
 10
78.285704
 20
140.161815
 30
0.0
 11
78.285704
 21
125.976291
 31
0.0
  0
LINE
  5
16F
100
AcDbEntity
  8
1
390
0
  6
Continuous
 62
    11
100
AcDbLine
 10
71.285704
 20
140.161815
 30
0.0
 11
71.285704
 21
125.976291
 31
0.0
  0
POLYLINE
  5
170
100
AcDbEntity
  8
1
390
0
  6
Continuous
 62
    11
100
AcDb2dPolyline
 66
     1
 10
0.0
 20
0.0
 30
0.0
 40
3.0
 41
3.0
  0
VERTEX
  5
171
100
AcDbEntity
  8
1
390
0
 62
    11
100
AcDbVertex
100
AcDb2dVertex
 10
82.785704
 20
128.676291
 30
0.0
  0
VERTEX
  5
172
100
AcDbEntity
  8
1
390
0
 62
    11
100
AcDbVertex
100
AcDb2dVertex
 10
78.285704
 20
127.776291
 30
0.0
  0
VERTEX
  5
173
100
AcDbEntity
  8
1
390
0
 62
    11
100
AcDbVertex
100
AcDb2dVertex
 10
82.785704
 20
126.876291
 30
0.0
  0
SEQEND
  5
174
100
AcDbEntity
  8
0
390
0
  0
POLYLINE
  5
175
100
AcDbEntity
  8
1
390
0
  6
Continuous
 62
    11
100
AcDb2dPolyline
 66
     1
 10
0.0
 20
0.0
 30
0.0
 40
3.0
 41
3.0
  0
VERTEX
  5
176
100
AcDbEntity
  8
1
390
0
 62
    11
100
AcDbVertex
100
AcDb2dVertex
 10
66.785704
 20
126.876291
 30
0.0
  0
VERTEX
  5
177
100
AcDbEntity
  8
1
390
0
 62
    11
100
AcDbVertex
100
AcDb2dVertex
 10
71.285704
 20
127.776291
 30
0.0
  0
VERTEX
  5
178
100
AcDbEntity
  8
1
390
0
 62
    11
100
AcDbVertex
100
AcDb2dVertex
 10
66.785704
 20
128.676291
 30
0.0
  0
SEQEND
  5
179
100
AcDbEntity
  8
0
390
0
  0
ENDBLK
  5
17A
100
AcDbEntity
  8
0
390
0
100
AcDbBlockEnd
  0
BLOCK
  5
17D
100
AcDbEntity
  8
0
390
0
100
AcDbBlockBegin
  2
AID550
 70
     0
 10
0.0
 20
0.0
 30
0.0
  3
D_GROUP
  1

  0
MTEXT
  5
17E
100
AcDbEntity
  8
1
390
0
 62
     2
100
AcDbMText
 10
28.260641
 20
226.857793
 30
0.0
 40
6.0
 41
9.490909
 71
     7
 72
     1
  1
Φ
210
0.0
220
0.0
230
1.0
 73
     1
 44
1.0
  0
MTEXT
  5
17F
100
AcDbEntity
  8
1
390
0
 62
     2
100
AcDbMText
 10
34.206095
 20
226.857793
 30
0.0
 40
6.0
 41
15.381818
 71
     7
 72
     1
  1
5.2
210
0.0
220
0.0
230
1.0
 73
     1
 44
1.0
  0
MTEXT
  5
180
100
AcDbEntity
  8
1
390
0
 62
     2
100
AcDbMText
 10
45.25155
 20
225.657793
 30
0.0
 40
4.2
 41
4.2
 71
     7
 72
     1
  1
 0
210
0.0
220
0.0
230
1.0
 73
     1
 44
1.0
  0
MTEXT
  5
181
100
AcDbEntity
  8
1
390
0
 62
     2
100
AcDbMText
 10
45.25155
 20
230.545066
 30
0.0
 40
4.2
 41
14.547273
 71
     7
 72
     1
  1
+0.1
210
0.0
220
0.0
230
1.0
 73
     1
 44
1.0
  0
ARC
  5
182
100
AcDbEntity
  8
1
390
0
  6
Continuous
 62
    11
100
AcDbCircle
 10
74.785704
 20
215.032205
 30
0.0
 40
2.6
210
0.0
220
0.0
230
0.9999999999999999
100
AcDbArc
 50
155.034299
 51
181.165908
  0
POLYLINE
  5
183
100
AcDbEntity
  8
1
390
0
  6
Continuous
 62
    11
100
AcDb2dPolyline
 66
     1
 10
0.0
 20
0.0
 30
0.0
 40
3.0
 41
3.0
  0
VERTEX
  5
184
100
AcDbEntity
  8
1
390
0
 62
    11
100
AcDbVertex
100
AcDb2dVertex
 10
67.969256
 20
217.213038
 30
0.0
  0
VERTEX
  5
185
100
AcDbEntity
  8
1
390
0
 62
    11
100
AcDbVertex
100
AcDb2dVertex
 10
72.428646
 20
216.129602
 30
0.0
  0
VERTEX
  5
186
100
AcDbEntity
  8
1
390
0
 62
    11
100
AcDbVertex
100
AcDb2dVertex
 10
68.728992
 20
218.844847
 30
0.0
  0
SEQEND
  5
187
100
AcDbEntity
  8
0
390
0
  0
LINE
  5
188
100
AcDbEntity
  8
1
390
0
  6
Continuous
 62
    11
100
AcDbLine
 10
72.428646
 20
216.129602
 30
0.0
 11
54.458823
 21
224.495975
 31
0.0
  0
LINE
  5
189
100
AcDbEntity
  8
1
390
0
  6
Continuous
 62
    11
100
AcDbLine
 10
28.75155
 20
224.495975
 30
0.0
 11
54.458823
 21
224.495975
 31
0.0
  0
ENDBLK
  5
18A
100
AcDbEntity
  8
0
390
0
100
AcDbBlockEnd
  0
BLOCK
  5
18D
100
AcDbEntity
  8
0
390
0
100
AcDbBlockBegin
  2
AID567
 70
     0
 10
0.0
 20
0.0
 30
0.0
  3
D_GROUP
  1

  0
MTEXT
  5
18E
100
AcDbEntity
  8
1
390
0
 62
     2
100
AcDbMText
 10
96.849051
 20
203.60791
 30
0.0
 40
6.0
 41
9.490909
 71
     7
 72
     1
  1
Φ
210
0.0
220
0.0
230
1.0
 73
     1
 44
1.0
  0
MTEXT
  5
18F
100
AcDbEntity
  8
1
390
0
 62
     2
100
AcDbMText
 10
102.794506
 20
203.60791
 30
0.0
 40
6.0
 41
15.272727
 71
     7
 72
     1
  1
9.9
210
0.0
220
0.0
230
1.0
 73
     1
 44
1.0
  0
MTEXT
  5
190
100
AcDbEntity
  8
1
390
0
 62
     2
100
AcDbMText
 10
113.812687
 20
202.40791
 30
0.0
 40
4.2
 41
14.547273
 71
     7
 72
     1
  1
-0.1
210
0.0
220
0.0
230
1.0
 73
     1
 44
1.0
  0
MTEXT
  5
191
100
AcDbEntity
  8
1
390
0
 62
     2
100
AcDbMText
 10
113.812687
 20
207.295183
 30
0.0
 40
4.2
 41
4.2
 71
     7
 72
     1
  1
 0
210
0.0
220
0.0
230
1.0
 73
     1
 44
1.0
  0
POLYLINE
  5
192
100
AcDbEntity
  8
1
390
0
  6
Continuous
 62
    11
100
AcDb2dPolyline
 66
     1
 10
0.0
 20
0.0
 30
0.0
 40
3.0
 41
3.0
  0
VERTEX
  5
193
100
AcDbEntity
  8
1
390
0
 62
    11
100
AcDbVertex
100
AcDb2dVertex
 10
83.213097
 20
210.662817
 30
0.0
  0
VERTEX
  5
194
100
AcDbEntity
  8
1
390
0
 62
    11
100
AcDbVertex
100
AcDb2dVertex
 10
78.944358
 20
212.347416
 30
0.0
  0
VERTEX
  5
195
100
AcDbEntity
  8
1
390
0
 62
    11
100
AcDbVertex
100
AcDb2dVertex
 10
82.23681
 20
209.150579
 30
0.0
  0
SEQEND
  5
196
100
AcDbEntity
  8
0
390
0
  0
LINE
  5
197
100
AcDbEntity
  8
1
390
0
  6
Continuous
 62
    11
100
AcDbLine
 10
78.944358
 20
212.347416
 30
0.0
 11
96.13996
 21
201.246092
 31
0.0
  0
LINE
  5
198
100
AcDbEntity
  8
1
390
0
  6
Continuous
 62
    11
100
AcDbLine
 10
96.13996
 20
201.246092
 30
0.0
 11
121.81996
 21
201.246092
 31
0.0
  0
ENDBLK
  5
199
100
AcDbEntity
  8
0
390
0
100
AcDbBlockEnd
  0
BLOCK
  5
19C
100
AcDbEntity
  8
0
390
0
100
AcDbBlockBegin
  2
AID582
 70
     0
 10
0.0
 20
0.0
 30
0.0
  3
D_GROUP
  1

  0
MTEXT
  5
19D
100
AcDbEntity
  8
1
390
0
 62
     2
100
AcDbMText
 10
70.053886
 20
240.061772
 30
0.0
 40
6.0
 41
17.4
 71
     7
 72
     1
  1
90%%d
210
0.0
220
0.0
230
1.0
 73
     1
 44
1.0
  0
ARC
  5
19E
100
AcDbEntity
  8
1
390
0
  6
Continuous
 62
    11
100
AcDbCircle
 10
74.785704
 20
215.032205
 30
0.0
 40
23.856839
210
0.0
220
0.0
230
1.0
100
AcDbArc
 50
45.0
 51
135.0
  0
LINE
  5
19F
100
AcDbEntity
  8
1
390
0
  6
Continuous
 62
    11
100
AcDbLine
 10
70.012733
 20
219.805176
 30
0.0
 11
56.643579
 21
233.17433
 31
0.0
  0
LINE
  5
1A0
100
AcDbEntity
  8
1
390
0
  6
Continuous
 62
    11
100
AcDbLine
 10
79.558675
 20
219.805176
 30
0.0
 11
92.927829
 21
233.17433
 31
0.0
  0
POLYLINE
  5
1A1
100
AcDbEntity
  8
1
390
0
  6
Continuous
 62
    11
100
AcDb2dPolyline
 66
     1
 10
0.0
 20
0.0
 30
0.0
 40
3.0
 41
3.0
  0
VERTEX
  5
1A2
100
AcDbEntity
  8
1
390
0
 62
    11
100
AcDbVertex
100
AcDb2dVertex
 10
61.734748
 20
234.447122
 30
0.0
  0
VERTEX
  5
1A3
100
AcDbEntity
  8
1
390
0
 62
    11
100
AcDbVertex
100
AcDb2dVertex
 10
57.916371
 20
231.901538
 30
0.0
  0
VERTEX
  5
1A4
100
AcDbEntity
  8
1
390
0
 62
    11
100
AcDbVertex
100
AcDb2dVertex
 10
60.461956
 20
235.719914
 30
0.0
  0
SEQEND
  5
1A5
100
AcDbEntity
  8
0
390
0
  0
POLYLINE
  5
1A6
100
AcDbEntity
  8
1
390
0
  6
Continuous
 62
    11
100
AcDb2dPolyline
 66
     1
 10
0.0
 20
0.0
 30
0.0
 40
3.0
 41
3.0
  0
VERTEX
  5
1A7
100
AcDbEntity
  8
1
390
0
 62
    11
100
AcDbVertex
100
AcDb2dVertex
 10
89.109452
 20
235.719914
 30
0.0
  0
VERTEX
  5
1A8
100
AcDbEntity
  8
1
390
0
 62
    11
100
AcDbVertex
100
AcDb2dVertex
 10
91.655037
 20
231.901538
 30
0.0
  0
VERTEX
  5
1A9
100
AcDbEntity
  8
1
390
0
 62
    11
100
AcDbVertex
100
AcDb2dVertex
 10
87.83666
 20
234.447122
 30
0.0
  0
SEQEND
  5
1AA
100
AcDbEntity
  8
0
390
0
  0
ENDBLK
  5
1AB
100
AcDbEntity
  8
0
390
0
100
AcDbBlockEnd
  0
BLOCK
  5
1AE
100
AcDbEntity
  8
0
390
0
100
AcDbBlockBegin
  2
AID595
 70
     0
 10
0.0
 20
0.0
 30
0.0
  3
D_GROUP
  1

  0
MTEXT
  5
1AF
100
AcDbEntity
  8
1
390
0
 62
     2
100
AcDbMText
 10
87.670273
 20
180.754228
 30
0.0
 40
6.0
 41
22.008063
 71
     7
 72
     1
  1
45%%d
210
0.0
220
0.0
230
1.0
 11
0.92388
 21
-0.382683
 31
0.0
 73
     1
 44
1.0
  0
ARC
  5
1B0
100
AcDbEntity
  8
1
390
0
  6
Continuous
 62
    11
100
AcDbCircle
 10
79.735704
 20
149.411815
 30
0.0
 40
30.820315
210
0.0
220
0.0
230
1.0
100
AcDbArc
 50
45.0
 51
90.0
  0
LINE
  5
1B1
100
AcDbEntity
  8
1
390
0
  6
Continuous
 62
    11
100
AcDbLine
 10
79.735704
 20
157.261815
 30
0.0
 11
79.735704
 21
182.03213
 31
0.0
  0
LINE
  5
1B2
100
AcDbEntity
  8
1
390
0
  6
Continuous
 62
    11
100
AcDbLine
 10
81.008496
 20
150.684607
 30
0.0
 11
102.80175
 21
172.477861
 31
0.0
  0
POLYLINE
  5
1B3
100
AcDbEntity
  8
1
390
0
  6
Continuous
 62
    11
100
AcDb2dPolyline
 66
     1
 10
0.0
 20
0.0
 30
0.0
 40
3.0
 41
3.0
  0
VERTEX
  5
1B4
100
AcDbEntity
  8
1
390
0
 62
    11
100
AcDbVertex
100
AcDb2dVertex
 10
84.235704
 20
179.33213
 30
0.0
  0
VERTEX
  5
1B5
100
AcDbEntity
  8
1
390
0
 62
    11
100
AcDbVertex
100
AcDb2dVertex
 10
79.735704
 20
180.23213
 30
0.0
  0
VERTEX
  5
1B6
100
AcDbEntity
  8
1
390
0
 62
    11
100
AcDbVertex
100
AcDb2dVertex
 10
84.235704
 20
181.13213
 30
0.0
  0
SEQEND
  5
1B7
100
AcDbEntity
  8
0
390
0
  0
POLYLINE
  5
1B8
100
AcDbEntity
  8
1
390
0
  6
Continuous
 62
    11
100
AcDb2dPolyline
 66
     1
 10
0.0
 20
0.0
 30
0.0
 40
3.0
 41
3.0
  0
VERTEX
  5
1B9
100
AcDbEntity
  8
1
390
0
 62
    11
100
AcDbVertex
100
AcDb2dVertex
 10
98.983373
 20
175.023445
 30
0.0
  0
VERTEX
  5
1BA
100
AcDbEntity
  8
1
390
0
 62
    11
100
AcDbVertex
100
AcDb2dVertex
 10
101.528957
 20
171.205069
 30
0.0
  0
VERTEX
  5
1BB
100
AcDbEntity
  8
1
390
0
 62
    11
100
AcDbVertex
100
AcDb2dVertex
 10
97.710581
 20
173.750653
 30
0.0
  0
SEQEND
  5
1BC
100
AcDbEntity
  8
0
390
0
  0
ENDBLK
  5
1BD
100
AcDbEntity
  8
0
390
0
100
AcDbBlockEnd
  0
BLOCK
  5
1C0
100
AcDbEntity
  8
0
390
0
100
AcDbBlockBegin
  2
AID608
 70
     0
 10
0.0
 20
0.0
 30
0.0
  3
D_GROUP
  1

  0
MTEXT
  5
1C1
100
AcDbEntity
  8
1
390
0
 62
     2
100
AcDbMText
 10
154.063817
 20
169.69949
 30
0.0
 40
6.0
 41
15.654545
 71
     7
 72
     1
  1
3.4
210
0.0
220
0.0
230
1.0
 73
     1
 44
1.0
  0
MTEXT
  5
1C2
100
AcDbEntity
  8
1
390
0
 62
     2
100
AcDbMText
 10
165.245635
 20
168.49949
 30
0.0
 40
4.2
 41
14.547273
 71
     7
 72
     1
  1
-0.1
210
0.0
220
0.0
230
1.0
 73
     1
 44
1.0
  0
MTEXT
  5
1C3
100
AcDbEntity
  8
1
390
0
 62
     2
100
AcDbMText
 10
165.245635
 20
173.386763
 30
0.0
 40
4.2
 41
4.2
 71
     7
 72
     1
  1
 0
210
0.0
220
0.0
230
1.0
 73
     1
 44
1.0
  0
LINE
  5
1C4
100
AcDbEntity
  8
1
390
0
  6
Continuous
 62
    11
100
AcDbLine
 10
173.252908
 20
167.337672
 30
0.0
 11
135.718362
 21
167.337672
 31
0.0
  0
LINE
  5
1C5
100
AcDbEntity
  8
1
390
0
  6
Continuous
 62
    11
100
AcDbLine
 10
148.118362
 20
157.261815
 30
0.0
 11
148.118362
 21
169.137672
 31
0.0
  0
LINE
  5
1C6
100
AcDbEntity
  8
1
390
0
  6
Continuous
 62
    11
100
AcDbLine
 10
144.718362
 20
157.261815
 30
0.0
 11
144.718362
 21
169.137672
 31
0.0
  0
POLYLINE
  5
1C7
100
AcDbEntity
  8
1
390
0
  6
Continuous
 62
    11
100
AcDb2dPolyline
 66
     1
 10
0.0
 20
0.0
 30
0.0
 40
3.0
 41
3.0
  0
VERTEX
  5
1C8
100
AcDbEntity
  8
1
390
0
 62
    11
100
AcDbVertex
100
AcDb2dVertex
 10
152.618362
 20
168.237672
 30
0.0
  0
VERTEX
  5
1C9
100
AcDbEntity
  8
1
390
0
 62
    11
100
AcDbVertex
100
AcDb2dVertex
 10
148.118362
 20
167.337672
 30
0.0
  0
VERTEX
  5
1CA
100
AcDbEntity
  8
1
390
0
 62
    11
100
AcDbVertex
100
AcDb2dVertex
 10
152.618362
 20
166.437672
 30
0.0
  0
SEQEND
  5
1CB
100
AcDbEntity
  8
0
390
0
  0
POLYLINE
  5
1CC
100
AcDbEntity
  8
1
390
0
  6
Continuous
 62
    11
100
AcDb2dPolyline
 66
     1
 10
0.0
 20
0.0
 30
0.0
 40
3.0
 41
3.0
  0
VERTEX
  5
1CD
100
AcDbEntity
  8
1
390
0
 62
    11
100
AcDbVertex
100
AcDb2dVertex
 10
140.218362
 20
166.437672
 30
0.0
  0
VERTEX
  5
1CE
100
AcDbEntity
  8
1
390
0
 62
    11
100
AcDbVertex
100
AcDb2dVertex
 10
144.718362
 20
167.337672
 30
0.0
  0
VERTEX
  5
1CF
100
AcDbEntity
  8
1
390
0
 62
    11
100
AcDbVertex
100
AcDb2dVertex
 10
140.218362
 20
168.237672
 30
0.0
  0
SEQEND
  5
1D0
100
AcDbEntity
  8
0
390
0
  0
ENDBLK
  5
1D1
100
AcDbEntity
  8
0
390
0
100
AcDbBlockEnd
  0
BLOCK
  5
1D4
100
AcDbEntity
  8
0
390
0
100
AcDbBlockBegin
  2
AID625
 70
     0
 10
0.0
 20
0.0
 30
0.0
  3
D_GROUP
  1

  0
MTEXT
  5
1D5
100
AcDbEntity
  8
1
390
0
 62
     7
100
AcDbMText
 10
86.703468
 20
119.238247
 30
0.0
 40
6.0
 41
84.436364
 71
     7
 72
     1
  1
M8X0.75(細目)
210
0.0
220
0.0
230
1.0
 73
     1
 44
1.0
  0
LINE
  5
1D6
100
AcDbEntity
  8
1
390
0
  6
Continuous
 62
     2
100
AcDbLine
 10
87.194377
 20
117.638247
 30
0.0
 11
129.412559
 21
117.638247
 31
0.0
  0
POLYLINE
  5
1D7
100
AcDbEntity
  8
1
390
0
  6
Continuous
 62
     2
100
AcDb2dPolyline
 66
     1
 10
0.0
 20
0.0
 30
0.0
 40
3.0
 41
3.0
  0
VERTEX
  5
1D8
100
AcDbEntity
  8
1
390
0
 62
     2
100
AcDbVertex
100
AcDb2dVertex
 10
139.512609
 20
140.506154
 30
0.0
  0
VERTEX
  5
1D9
100
AcDbEntity
  8
1
390
0
 62
     2
100
AcDbVertex
100
AcDb2dVertex
 10
142.418362
 20
144.431277
 30
0.0
  0
VERTEX
  5
1DA
100
AcDbEntity
  8
1
390
0
 62
     2
100
AcDbVertex
100
AcDb2dVertex
 10
141.131913
 20
139.720115
 30
0.0
  0
SEQEND
  5
1DB
100
AcDbEntity
  8
0
390
0
  0
LINE
  5
1DC
100
AcDbEntity
  8
1
390
0
  6
Continuous
 62
    11
100
AcDbLine
 10
142.418362
 20
144.431277
 30
0.0
 11
129.412559
 21
117.638247
 31
0.0
  0
ENDBLK
  5
1DD
100
AcDbEntity
  8
0
390
0
100
AcDbBlockEnd
  0
BLOCK
  5
1E0
100
AcDbEntity
  8
0
390
0
100
AcDbBlockBegin
  2
AID634
 70
     0
 10
0.0
 20
0.0
 30
0.0
  3
D_GROUP
  1

  0
MTEXT
  5
1E1
100
AcDbEntity
  8
1
390
0
 62
     7
100
AcDbMText
 10
156.603508
 20
39.809126
 30
0.0
 40
4.0
 41
34.181818
 71
     7
 72
     1
  1
固定ネジ
210
0.0
220
0.0
230
1.0
 73
     1
 44
1.0
  0
ENDBLK
  5
1E2
100
AcDbEntity
  8
0
390
0
100
AcDbBlockEnd
  0
BLOCK
  5
1E5
100
AcDbEntity
  8
0
390
0
100
AcDbBlockBegin
  2
AID637
 70
     0
 10
0.0
 20
0.0
 30
0.0
  3
D_GROUP
  1

  0
MTEXT
  5
1E6
100
AcDbEntity
  8
1
390
0
 62
     7
100
AcDbMText
 10
152.071578
 20
29.226773
 30
0.0
 40
4.0
 41
48.145455
 71
     7
 72
     1
  1
EPSSZT-M8
210
0.0
220
0.0
230
1.0
 73
     1
 44
1.0
  0
ENDBLK
  5
1E7
100
AcDbEntity
  8
0
390
0
100
AcDbBlockEnd
  0
BLOCK
  5
1EA
100
AcDbEntity
  8
0
390
0
100
AcDbBlockBegin
  2
AID640
 70
     0
 10
0.0
 20
0.0
 30
0.0
  3
D_GROUP
  1

  0
MTEXT
  5
1EB
100
AcDbEntity
  8
1
390
0
 62
     7
100
AcDbMText
 10
106.636313
 20
31.894097
 30
0.0
 40
5.0
 41
14.045455
 71
     7
 72
     1
  1
1：1
210
0.0
220
0.0
230
1.0
 73
     1
 44
1.0
  0
ENDBLK
  5
1EC
100
AcDbEntity
  8
0
390
0
100
AcDbBlockEnd
  0
ENDSEC
  0
SECTION
  2
ENTITIES
  0
LINE
  5
28
100
AcDbEntity
  8
256
390
0
  6
Continuous
 62
     8
100
AcDbLine
 10
12.511017
 20
277.368011
 30
0.0
 11
17.511017
 21
277.368011
 31
0.0
  0
LINE
  5
29
100
AcDbEntity
  8
256
390
0
  6
Continuous
 62
     8
100
AcDbLine
 10
110.0
 20
287.0
 30
0.0
 11
110.0
 21
257.0
 31
0.0
  0
LINE
  5
2A
100
AcDbEntity
  8
256
390
0
  6
Continuous
 62
     8
100
AcDbLine
 10
10.0
 20
38.0
 30
0.0
 11
53.999969
 21
38.0
 31
0.0
  0
LINE
  5
2B
100
AcDbEntity
  8
256
390
0
  6
Continuous
 62
     8
100
AcDbLine
 10
10.0
 20
34.5
 30
0.0
 11
53.999969
 21
34.5
 31
0.0
  0
LINE
  5
2C
100
AcDbEntity
  8
256
390
0
  6
Continuous
 62
     8
100
AcDbLine
 10
53.999969
 20
41.0
 30
0.0
 11
118.249969
 21
41.0
 31
0.0
  0
LINE
  5
2D
100
AcDbEntity
  8
256
390
0
  6
Continuous
 62
     8
100
AcDbLine
 10
86.799969
 20
48.0
 30
0.0
 11
86.799969
 21
10.0
 31
0.0
  0
LINE
  5
2E
100
AcDbEntity
  8
256
390
0
  6
Continuous
 62
     8
100
AcDbLine
 10
12.511017
 20
267.368011
 30
0.0
 11
17.511017
 21
267.368011
 31
0.0
  0
LINE
  5
2F
100
AcDbEntity
  8
256
390
0
  6
Continuous
 62
     8
100
AcDbLine
 10
168.25
 20
282.0
 30
0.0
 11
145.0
 21
282.0
 31
0.0
  0
LINE
  5
30
100
AcDbEntity
  8
256
390
0
  6
Continuous
 62
     8
100
AcDbLine
 10
70.399969
 20
31.0
 30
0.0
 11
70.399969
 21
10.0
 31
0.0
  0
LINE
  5
31
100
AcDbEntity
  8
256
390
0
  6
Continuous
 62
     8
100
AcDbLine
 10
140.0
 20
282.0
 30
0.0
 11
10.0
 21
282.0
 31
0.0
  0
LINE
  5
32
100
AcDbEntity
  8
256
390
0
  6
Continuous
 62
     8
100
AcDbLine
 10
10.0
 20
10.0
 30
0.0
 11
200.0
 21
10.0
 31
0.0
  0
LINE
  5
33
100
AcDbEntity
  8
256
390
0
  6
Continuous
 62
     8
100
AcDbLine
 10
10.0
 20
31.0
 30
0.0
 11
103.249969
 21
31.0
 31
0.0
  0
LINE
  5
34
100
AcDbEntity
  8
256
390
0
  6
Continuous
 62
     8
100
AcDbLine
 10
173.25
 20
277.0
 30
0.0
 11
173.25
 21
287.0
 31
0.0
  0
LINE
  5
35
100
AcDbEntity
  8
256
390
0
  6
Continuous
 62
     8
100
AcDbLine
 10
17.511017
 20
262.368011
 30
0.0
 11
15.011017
 21
266.664886
 31
0.0
  0
LINE
  5
36
100
AcDbEntity
  8
256
390
0
  6
Continuous
 62
     8
100
AcDbLine
 10
168.25
 20
277.0
 30
0.0
 11
168.25
 21
287.0
 31
0.0
  0
LINE
  5
37
100
AcDbEntity
  8
256
390
0
  6
Continuous
 62
     8
100
AcDbLine
 10
145.0
 20
287.0
 30
0.0
 11
145.0
 21
257.0
 31
0.0
  0
LINE
  5
38
100
AcDbEntity
  8
256
390
0
  6
Continuous
 62
     8
100
AcDbLine
 10
20.0
 20
287.0
 30
0.0
 11
20.0
 21
257.0
 31
0.0
  0
LINE
  5
39
100
AcDbEntity
  8
256
390
0
  6
Continuous
 62
     8
100
AcDbLine
 10
31.0
 20
38.0
 30
0.0
 11
10.0
 21
44.0
 31
0.0
  0
LINE
  5
3A
100
AcDbEntity
  8
256
390
0
  6
Continuous
 62
     8
100
AcDbLine
 10
48.25
 20
44.0
 30
0.0
 11
48.25
 21
10.0
 31
0.0
  0
LINE
  5
3B
100
AcDbEntity
  8
256
390
0
  6
Continuous
 62
     8
100
AcDbLine
 10
118.249969
 20
15.666667
 30
0.0
 11
118.249969
 21
48.0
 31
0.0
  0
LINE
  5
3C
100
AcDbEntity
  8
256
390
0
  6
Continuous
 62
     8
100
AcDbLine
 10
15.011017
 20
271.664886
 30
0.0
 11
12.511017
 21
267.368011
 31
0.0
  0
LINE
  5
3D
100
AcDbEntity
  8
256
390
0
  6
Continuous
 62
     8
100
AcDbLine
 10
10.0
 20
10.0
 30
0.0
 11
192.999969
 21
10.0
 31
0.0
  0
LINE
  5
3E
100
AcDbEntity
  8
256
390
0
  6
Continuous
 62
     8
100
AcDbLine
 10
10.0
 20
44.0
 30
0.0
 11
53.999969
 21
44.0
 31
0.0
  0
LINE
  5
3F
100
AcDbEntity
  8
256
390
0
  6
Continuous
 62
     8
100
AcDbLine
 10
140.0
 20
262.0
 30
0.0
 11
10.0
 21
262.0
 31
0.0
  0
LINE
  5
40
100
AcDbEntity
  8
256
390
0
  6
Continuous
 62
     8
100
AcDbLine
 10
10.0
 20
13.5
 30
0.0
 11
54.0
 21
13.5
 31
0.0
  0
LINE
  5
41
100
AcDbEntity
  8
256
390
0
  6
Continuous
 62
     8
100
AcDbLine
 10
10.0
 20
48.0
 30
0.0
 11
200.0
 21
48.0
 31
0.0
  0
LINE
  5
42
100
AcDbEntity
  8
256
390
0
  6
Continuous
 62
     8
100
AcDbLine
 10
17.511017
 20
257.368011
 30
0.0
 11
15.011017
 21
261.664886
 31
0.0
  0
LINE
  5
43
100
AcDbEntity
  8
256
390
0
  6
Continuous
 62
     8
100
AcDbLine
 10
200.0
 20
10.0
 30
0.0
 11
200.0
 21
287.0
 31
0.0
  0
LINE
  5
44
100
AcDbEntity
  8
256
390
0
  6
Continuous
 62
     8
100
AcDbLine
 10
140.0
 20
287.0
 30
0.0
 11
140.0
 21
257.0
 31
0.0
  0
LINE
  5
45
100
AcDbEntity
  8
256
390
0
  6
Continuous
 62
     8
100
AcDbLine
 10
10.0
 20
27.5
 30
0.0
 11
53.999969
 21
27.5
 31
0.0
  0
LINE
  5
46
100
AcDbEntity
  8
256
390
0
  6
Continuous
 62
     8
100
AcDbLine
 10
10.0
 20
20.5
 30
0.0
 11
53.999969
 21
20.5
 31
0.0
  0
LINE
  5
47
100
AcDbEntity
  8
256
390
0
  6
Continuous
 62
     8
100
AcDbLine
 10
103.249969
 20
15.666667
 30
0.0
 11
200.0
 21
15.666667
 31
0.0
  0
LINE
  5
48
100
AcDbEntity
  8
256
390
0
  6
Continuous
 62
     8
100
AcDbLine
 10
15.011017
 20
281.664886
 30
0.0
 11
12.511017
 21
277.368011
 31
0.0
  0
LINE
  5
49
100
AcDbEntity
  8
256
390
0
  6
Continuous
 62
     8
100
AcDbLine
 10
200.0
 20
287.0
 30
0.0
 11
10.0
 21
287.0
 31
0.0
  0
LINE
  5
4A
100
AcDbEntity
  8
256
390
0
  6
Continuous
 62
     8
100
AcDbLine
 10
200.0
 20
257.0
 30
0.0
 11
10.0
 21
257.0
 31
0.0
  0
LINE
  5
4B
100
AcDbEntity
  8
256
390
0
  6
Continuous
 62
     8
100
AcDbLine
 10
53.999969
 20
26.5
 30
0.0
 11
200.0
 21
26.5
 31
0.0
  0
LINE
  5
4C
100
AcDbEntity
  8
256
390
0
  6
Continuous
 62
     8
100
AcDbLine
 10
125.0
 20
287.0
 30
0.0
 11
125.0
 21
257.0
 31
0.0
  0
LINE
  5
4D
100
AcDbEntity
  8
256
390
0
  6
Continuous
 62
     8
100
AcDbLine
 10
36.75
 20
44.0
 30
0.0
 11
36.75
 21
10.0
 31
0.0
  0
LINE
  5
4E
100
AcDbEntity
  8
256
390
0
  6
Continuous
 62
     8
100
AcDbLine
 10
12.511017
 20
262.368011
 30
0.0
 11
17.511017
 21
262.368011
 31
0.0
  0
LINE
  5
4F
100
AcDbEntity
  8
256
390
0
  6
Continuous
 62
     8
100
AcDbLine
 10
42.5
 20
44.0
 30
0.0
 11
42.5
 21
10.0
 31
0.0
  0
LINE
  5
50
100
AcDbEntity
  8
256
390
0
  6
Continuous
 62
     8
100
AcDbLine
 10
31.0
 20
44.0
 30
0.0
 11
31.0
 21
10.0
 31
0.0
  0
LINE
  5
51
100
AcDbEntity
  8
256
390
0
  6
Continuous
 62
     8
100
AcDbLine
 10
140.0
 20
272.0
 30
0.0
 11
10.0
 21
272.0
 31
0.0
  0
LINE
  5
52
100
AcDbEntity
  8
256
390
0
  6
Continuous
 62
     8
100
AcDbLine
 10
118.249969
 20
35.0
 30
0.0
 11
200.0
 21
35.0
 31
0.0
  0
LINE
  5
53
100
AcDbEntity
  8
256
390
0
  6
Continuous
 62
     8
100
AcDbLine
 10
17.511017
 20
277.368011
 30
0.0
 11
15.011017
 21
281.664886
 31
0.0
  0
LINE
  5
54
100
AcDbEntity
  8
256
390
0
  6
Continuous
 62
     8
100
AcDbLine
 10
15.011017
 20
266.664886
 30
0.0
 11
12.511017
 21
262.368011
 31
0.0
  0
LINE
  5
55
100
AcDbEntity
  8
256
390
0
  6
Continuous
 62
     8
100
AcDbLine
 10
10.0
 20
17.0
 30
0.0
 11
53.999969
 21
17.0
 31
0.0
  0
LINE
  5
56
100
AcDbEntity
  8
256
390
0
  6
Continuous
 62
     8
100
AcDbLine
 10
17.511017
 20
272.368011
 30
0.0
 11
15.011017
 21
276.664886
 31
0.0
  0
LINE
  5
57
100
AcDbEntity
  8
256
390
0
  6
Continuous
 62
     8
100
AcDbLine
 10
53.999969
 20
48.0
 30
0.0
 11
53.999969
 21
10.0
 31
0.0
  0
LINE
  5
58
100
AcDbEntity
  8
256
390
0
  6
Continuous
 62
     8
100
AcDbLine
 10
103.249969
 20
10.0
 30
0.0
 11
103.249969
 21
48.0
 31
0.0
  0
LINE
  5
59
100
AcDbEntity
  8
256
390
0
  6
Continuous
 62
     8
100
AcDbLine
 10
10.0
 20
287.0
 30
0.0
 11
10.0
 21
10.0
 31
0.0
  0
LINE
  5
5A
100
AcDbEntity
  8
256
390
0
  6
Continuous
 62
     8
100
AcDbLine
 10
200.0
 20
267.0
 30
0.0
 11
10.0
 21
267.0
 31
0.0
  0
LINE
  5
5B
100
AcDbEntity
  8
256
390
0
  6
Continuous
 62
     8
100
AcDbLine
 10
17.511017
 20
267.368011
 30
0.0
 11
15.011017
 21
271.664886
 31
0.0
  0
LINE
  5
5C
100
AcDbEntity
  8
256
390
0
  6
Continuous
 62
     8
100
AcDbLine
 10
200.0
 20
277.0
 30
0.0
 11
10.0
 21
277.0
 31
0.0
  0
LINE
  5
5D
100
AcDbEntity
  8
256
390
0
  6
Continuous
 62
     8
100
AcDbLine
 10
133.249969
 20
15.666667
 30
0.0
 11
133.249969
 21
48.0
 31
0.0
  0
LINE
  5
5E
100
AcDbEntity
  8
256
390
0
  6
Continuous
 62
     8
100
AcDbLine
 10
10.0
 20
24.0
 30
0.0
 11
53.999969
 21
24.0
 31
0.0
  0
LINE
  5
5F
100
AcDbEntity
  8
256
390
0
  6
Continuous
 62
     8
100
AcDbLine
 10
90.164665
 20
32.573373
 30
0.0
 11
97.235771
 21
39.644442
 31
0.0
  0
LINE
  5
60
100
AcDbEntity
  8
256
390
0
  6
Continuous
 62
     8
100
AcDbLine
 10
15.011017
 20
276.664886
 30
0.0
 11
12.511017
 21
272.368011
 31
0.0
  0
LINE
  5
61
100
AcDbEntity
  8
256
390
0
  6
Continuous
 62
     8
100
AcDbLine
 10
12.511017
 20
272.368011
 30
0.0
 11
17.511017
 21
272.368011
 31
0.0
  0
LINE
  5
62
100
AcDbEntity
  8
256
390
0
  6
Continuous
 62
     8
100
AcDbLine
 10
15.011017
 20
261.664886
 30
0.0
 11
12.511017
 21
257.368011
 31
0.0
  0
LINE
  5
63
100
AcDbEntity
  8
256
390
0
  6
Continuous
 62
     8
100
AcDbLine
 10
12.511017
 20
257.368011
 30
0.0
 11
17.511017
 21
257.368011
 31
0.0
  0
MTEXT
  5
64
100
AcDbEntity
  8
256
390
0
 62
     8
100
AcDbMText
 10
51.124985
 20
34.339584
 30
0.0
 40
2.54
 41
2.632364
 71
     8
 72
     1
  1
-  
210
0.0
220
0.0
230
1.0
 73
     1
 44
1.0
  0
MTEXT
  5
65
100
AcDbEntity
  8
256
390
0
 62
     8
100
AcDbMText
 10
126.384349
 20
29.55399
 30
0.0
 40
2.822222
 41
25.553937
 71
     8
 72
     1
  1
部品番号  
210
0.0
220
0.0
230
1.0
 73
     1
 44
1.0
  0
MTEXT
  5
66
100
AcDbEntity
  8
256
390
0
 62
     8
100
AcDbMText
 10
40.345938
 20
38.869034
 30
0.0
 40
2.0
 41
8.563636
 71
     8
 72
     1
  1
m %%p  
210
0.0
220
0.0
230
1.0
 73
     1
 44
1.0
  0
MTEXT
  5
67
100
AcDbEntity
  8
256
390
0
 62
     8
100
AcDbMText
 10
34.660234
 20
38.869034
 30
0.0
 40
2.0
 41
6.836364
 71
     8
 72
     1
  1
f %%p  
210
0.0
220
0.0
230
1.0
 73
     1
 44
1.0
  0
MTEXT
  5
68
100
AcDbEntity
  8
256
390
0
 62
     8
100
AcDbMText
 10
45.375
 20
24.744792
 30
0.0
 40
1.75
 41
4.565909
 71
     8
 72
     1
  1
0.8  
210
0.0
220
0.0
230
1.0
 73
     1
 44
1.0
  0
MTEXT
  5
69
100
AcDbEntity
  8
256
390
0
 62
     8
100
AcDbMText
 10
62.968297
 20
27.310187
 30
0.0
 40
3.386667
 41
17.241214
 71
     8
 72
     1
  1
設 計  
210
0.0
220
0.0
230
0.9999999999999999
 73
     1
 44
1.0
  0
MTEXT
  5
6A
100
AcDbEntity
  8
256
390
0
 62
     8
100
AcDbMText
 10
111.161454
 20
43.119633
 30
0.0
 40
3.386667
 41
17.30279
 71
     8
 72
     1
  1
尺 度  
210
0.0
220
0.0
230
0.9999999999999999
 73
     1
 44
1.0
  0
MTEXT
  5
6B
100
AcDbEntity
  8
256
390
0
 62
     8
100
AcDbMText
 10
39.625
 20
24.744792
 30
0.0
 40
1.75
 41
4.55
 71
     8
 72
     1
  1
0.3  
210
0.0
220
0.0
230
1.0
 73
     1
 44
1.0
  0
MTEXT
  5
6C
100
AcDbEntity
  8
256
390
0
 62
     8
100
AcDbMText
 10
51.124985
 20
31.744792
 30
0.0
 40
1.75
 41
4.55
 71
     8
 72
     1
  1
0.5  
210
0.0
220
0.0
230
1.0
 73
     1
 44
1.0
  0
MTEXT
  5
6D
100
AcDbEntity
  8
256
390
0
 62
     8
100
AcDbMText
 10
45.375
 20
21.244792
 30
0.0
 40
1.75
 41
4.263636
 71
     8
 72
     1
  1
1.2  
210
0.0
220
0.0
230
1.0
 73
     1
 44
1.0
  0
MTEXT
  5
6E
100
AcDbEntity
  8
256
390
0
 62
     8
100
AcDbMText
 10
33.875
 20
21.244792
 30
0.0
 40
1.75
 41
4.55
 71
     8
 72
     1
  1
0.2  
210
0.0
220
0.0
230
1.0
 73
     1
 44
1.0
  0
MTEXT
  5
6F
100
AcDbEntity
  8
256
390
0
 62
     8
100
AcDbMText
 10
45.375
 20
17.744792
 30
0.0
 40
1.75
 41
1.622727
 71
     8
 72
     1
  1
2  
210
0.0
220
0.0
230
1.0
 73
     1
 44
1.0
  0
MTEXT
  5
70
100
AcDbEntity
  8
256
390
0
 62
     8
100
AcDbMText
 10
39.625
 20
31.744792
 30
0.0
 40
1.75
 41
3.993182
 71
     8
 72
     1
  1
0.1  
210
0.0
220
0.0
230
1.0
 73
     1
 44
1.0
  0
MTEXT
  5
71
100
AcDbEntity
  8
256
390
0
 62
     8
100
AcDbMText
 10
31.078618
 20
31.994935
 30
0.0
 40
1.75
 41
26.615909
 71
     9
 72
     1
  1
   3を超え   6以下  
210
0.0
220
0.0
230
1.0
 73
     1
 44
1.0
  0
MTEXT
  5
72
100
AcDbEntity
  8
256
390
0
 62
     8
100
AcDbMText
 10
143.224046
 20
268.319226
 30
0.0
 40
3.386667
 41
7.112001
 71
     8
 72
     1
  1
理  
210
0.0
220
0.0
230
0.9999999999999999
 73
     1
 44
1.0
  0
MTEXT
  5
73
100
AcDbEntity
  8
256
390
0
 62
     8
100
AcDbMText
 10
17.664975
 20
38.535839
 30
0.0
 40
1.5
 41
24.272727
 71
     8
 72
     1
  1
寸法の区分(mm)  
210
0.0
220
0.0
230
1.0
 73
     1
 44
1.0
  0
MTEXT
  5
74
100
AcDbEntity
  8
256
390
0
 62
     8
100
AcDbMText
 10
39.929511
 20
40.876758
 30
0.0
 40
1.7
 41
7.263636
 71
     8
 72
     1
  1
中級  
210
0.0
220
0.0
230
1.0
 73
     1
 44
1.0
  0
MTEXT
  5
75
100
AcDbEntity
  8
256
390
0
 62
     8
100
AcDbMText
 10
12.421589
 20
40.83464
 30
0.0
 40
1.5
 41
6.640909
 71
     8
 72
     1
  1
基準  
210
0.0
220
0.0
230
1.0
 73
     1
 44
1.0
  0
MTEXT
  5
76
100
AcDbEntity
  8
256
390
0
 62
     8
100
AcDbMText
 10
30.99383
 20
10.994935
 30
0.0
 40
1.75
 41
35.111364
 71
     9
 72
     1
  1
2000を超え4000以下  
210
0.0
220
0.0
230
1.0
 73
     1
 44
1.0
  0
MTEXT
  5
77
100
AcDbEntity
  8
256
390
0
 62
     8
100
AcDbMText
 10
95.61955
 20
27.310187
 30
0.0
 40
3.386667
 41
17.518305
 71
     8
 72
     1
  1
承 認  
210
0.0
220
0.0
230
0.9999999999999999
 73
     1
 44
1.0
  0
MTEXT
  5
78
100
AcDbEntity
  8
256
390
0
 62
     8
100
AcDbMText
 10
33.875
 20
17.744792
 30
0.0
 40
1.75
 41
4.55
 71
     8
 72
     1
  1
0.3  
210
0.0
220
0.0
230
1.0
 73
     1
 44
1.0
  0
MTEXT
  5
79
100
AcDbEntity
  8
256
390
0
 62
     8
100
AcDbMText
 10
39.625
 20
35.244792
 30
0.0
 40
1.75
 41
3.993182
 71
     8
 72
     1
  1
0.1  
210
0.0
220
0.0
230
1.0
 73
     1
 44
1.0
  0
MTEXT
  5
7A
100
AcDbEntity
  8
256
390
0
 62
     8
100
AcDbMText
 10
51.845923
 20
38.869034
 30
0.0
 40
2.0
 41
7.581818
 71
     8
 72
     1
  1
v %%p  
210
0.0
220
0.0
230
1.0
 73
     1
 44
1.0
  0
MTEXT
  5
7B
100
AcDbEntity
  8
256
390
0
 62
     8
100
AcDbMText
 10
135.086322
 20
283.055848
 30
0.0
 40
3.386667
 41
21.551517
 71
     8
 72
     1
  1
年月日     
210
0.0
220
0.0
230
0.9999999999999999
 73
     1
 44
1.0
  0
MTEXT
  5
7C
100
AcDbEntity
  8
256
390
0
 62
     8
100
AcDbMText
 10
51.124985
 20
14.244792
 30
0.0
 40
1.75
 41
1.590909
 71
     8
 72
     1
  1
6  
210
0.0
220
0.0
230
1.0
 73
     1
 44
1.0
  0
MTEXT
  5
7D
100
AcDbEntity
  8
256
390
0
 62
     8
100
AcDbMText
 10
51.429496
 20
40.980925
 30
0.0
 40
1.5
 41
10.227273
 71
     8
 72
     1
  1
極粗級  
210
0.0
220
0.0
230
1.0
 73
     1
 44
1.0
  0
MTEXT
  5
7E
100
AcDbEntity
  8
256
390
0
 62
     8
100
AcDbMText
 10
39.625
 20
14.244792
 30
0.0
 40
1.75
 41
4.263636
 71
     8
 72
     1
  1
1.2  
210
0.0
220
0.0
230
1.0
 73
     1
 44
1.0
  0
MTEXT
  5
7F
100
AcDbEntity
  8
256
390
0
 62
     8
100
AcDbMText
 10
33.875
 20
9.839584
 30
0.0
 40
2.54
 41
2.632364
 71
     8
 72
     1
  1
-  
210
0.0
220
0.0
230
1.0
 73
     1
 44
1.0
  0
MTEXT
  5
80
100
AcDbEntity
  8
256
390
0
 62
     8
100
AcDbMText
 10
143.224046
 20
282.605
 30
0.0
 40
3.386667
 41
7.050425
 71
     8
 72
     1
  1
仕  
210
0.0
220
0.0
230
0.9999999999999999
 73
     1
 44
1.0
  0
MTEXT
  5
81
100
AcDbEntity
  8
256
390
0
 62
     8
100
AcDbMText
 10
33.875
 20
35.244792
 30
0.0
 40
1.75
 41
6.586364
 71
     8
 72
     1
  1
0.05  
210
0.0
220
0.0
230
1.0
 73
     1
 44
1.0
  0
MTEXT
  5
82
100
AcDbEntity
  8
256
390
0
 62
     8
100
AcDbMText
 10
45.375
 20
28.244792
 30
0.0
 40
1.75
 41
4.55
 71
     8
 72
     1
  1
0.5  
210
0.0
220
0.0
230
1.0
 73
     1
 44
1.0
  0
MTEXT
  5
83
100
AcDbEntity
  8
256
390
0
 62
     8
100
AcDbMText
 10
31.016384
 20
21.494935
 30
0.0
 40
1.75
 41
32.056818
 71
     9
 72
     1
  1
 120を超え 400以下  
210
0.0
220
0.0
230
1.0
 73
     1
 44
1.0
  0
MTEXT
  5
84
100
AcDbEntity
  8
256
390
0
 62
     8
100
AcDbMText
 10
39.625
 20
10.744792
 30
0.0
 40
1.75
 41
1.622727
 71
     8
 72
     1
  1
2  
210
0.0
220
0.0
230
1.0
 73
     1
 44
1.0
  0
MTEXT
  5
85
100
AcDbEntity
  8
256
390
0
 62
     8
100
AcDbMText
 10
31.031937
 20
24.994935
 30
0.0
 40
1.75
 41
30.243182
 71
     9
 72
     1
  1
  30を超え 120以下  
210
0.0
220
0.0
230
1.0
 73
     1
 44
1.0
  0
MTEXT
  5
86
100
AcDbEntity
  8
256
390
0
 62
     8
100
AcDbMText
 10
126.449267
 20
19.706152
 30
0.0
 40
3.386667
 41
16.902547
 71
     8
 72
     1
  1
図 番  
210
0.0
220
0.0
230
0.9999999999999999
 73
     1
 44
1.0
  0
MTEXT
  5
87
100
AcDbEntity
  8
256
390
0
 62
     8
100
AcDbMText
 10
31.077176
 20
35.494935
 30
0.0
 40
1.75
 41
29.543182
 71
     9
 72
     1
  1
 0.5を超え   3以下  
210
0.0
220
0.0
230
1.0
 73
     1
 44
1.0
  0
MTEXT
  5
88
100
AcDbEntity
  8
256
390
0
 62
     8
100
AcDbMText
 10
45.375
 20
35.244792
 30
0.0
 40
1.75
 41
4.55
 71
     8
 72
     1
  1
0.2  
210
0.0
220
0.0
230
1.0
 73
     1
 44
1.0
  0
MTEXT
  5
89
100
AcDbEntity
  8
256
390
0
 62
     8
100
AcDbMText
 10
71.101033
 20
43.177549
 30
0.0
 40
3.386667
 41
24.56873
 71
     8
 72
     1
  1
材    質  
210
0.0
220
0.0
230
0.9999999999999999
 73
     1
 44
1.0
  0
MTEXT
  5
8A
100
AcDbEntity
  8
256
390
0
 62
     8
100
AcDbMText
 10
126.066534
 20
40.148957
 30
0.0
 40
3.386667
 41
17.210426
 71
     8
 72
     1
  1
名 称  
210
0.0
220
0.0
230
0.9999999999999999
 73
     1
 44
1.0
  0
MTEXT
  5
8B
100
AcDbEntity
  8
256
390
0
 62
     8
100
AcDbMText
 10
143.224046
 20
278.177385
 30
0.0
 40
3.386667
 41
6.68097
 71
     8
 72
     1
  1
上  
210
0.0
220
0.0
230
0.9999999999999999
 73
     1
 44
1.0
  0
MTEXT
  5
8C
100
AcDbEntity
  8
256
390
0
 62
     8
100
AcDbMText
 10
120.136361
 20
282.972449
 30
0.0
 40
3.386667
 41
22.81382
 71
     8
 72
     1
  1
担当者     
210
0.0
220
0.0
230
0.9999999999999999
 73
     1
 44
1.0
  0
MTEXT
  5
8D
100
AcDbEntity
  8
256
390
0
 62
     8
100
AcDbMText
 10
95.49437
 20
43.119633
 30
0.0
 40
3.386667
 41
17.518305
 71
     8
 72
     1
  1
個 数  
210
0.0
220
0.0
230
0.9999999999999999
 73
     1
 44
1.0
  0
MTEXT
  5
8E
100
AcDbEntity
  8
256
390
0
 62
     8
100
AcDbMText
 10
51.124985
 20
17.744792
 30
0.0
 40
1.75
 41
1.765909
 71
     8
 72
     1
  1
4  
210
0.0
220
0.0
230
1.0
 73
     1
 44
1.0
  0
MTEXT
  5
8F
100
AcDbEntity
  8
256
390
0
 62
     8
100
AcDbMText
 10
31.062875
 20
28.494935
 30
0.0
 40
1.75
 41
27.395455
 71
     9
 72
     1
  1
   6を超え  30以下  
210
0.0
220
0.0
230
1.0
 73
     1
 44
1.0
  0
MTEXT
  5
90
100
AcDbEntity
  8
256
390
0
 62
     8
100
AcDbMText
 10
45.375
 20
10.744792
 30
0.0
 40
1.75
 41
1.765909
 71
     8
 72
     1
  1
4  
210
0.0
220
0.0
230
1.0
 73
     1
 44
1.0
  0
MTEXT
  5
91
100
AcDbEntity
  8
256
390
0
 62
     8
100
AcDbMText
 10
45.375
 20
14.244792
 30
0.0
 40
1.75
 41
1.622727
 71
     8
 72
     1
  1
3  
210
0.0
220
0.0
230
1.0
 73
     1
 44
1.0
  0
MTEXT
  5
92
100
AcDbEntity
  8
256
390
0
 62
     8
100
AcDbMText
 10
143.224046
 20
257.572165
 30
0.0
 40
2.822222
 41
5.926666
 71
     8
 72
     1
  1
理  
210
0.0
220
0.0
230
1.0
 73
     1
 44
1.0
  0
MTEXT
  5
93
100
AcDbEntity
  8
256
390
0
 62
     8
100
AcDbMText
 10
39.625
 20
21.244792
 30
0.0
 40
1.75
 41
4.55
 71
     8
 72
     1
  1
0.5  
210
0.0
220
0.0
230
1.0
 73
     1
 44
1.0
  0
MTEXT
  5
94
100
AcDbEntity
  8
256
390
0
 62
     8
100
AcDbMText
 10
34.179511
 20
40.876758
 30
0.0
 40
1.7
 41
7.619091
 71
     8
 72
     1
  1
精級  
210
0.0
220
0.0
230
1.0
 73
     1
 44
1.0
  0
MTEXT
  5
95
100
AcDbEntity
  8
256
390
0
 62
     8
100
AcDbMText
 10
171.474046
 20
278.277385
 30
0.0
 40
3.386667
 41
6.958061
 71
     8
 72
     1
  1
取  
210
0.0
220
0.0
230
0.9999999999999999
 73
     1
 44
1.0
  0
MTEXT
  5
96
100
AcDbEntity
  8
256
390
0
 62
     8
100
AcDbMText
 10
45.375
 20
31.744792
 30
0.0
 40
1.75
 41
4.55
 71
     8
 72
     1
  1
0.3  
210
0.0
220
0.0
230
1.0
 73
     1
 44
1.0
  0
MTEXT
  5
97
100
AcDbEntity
  8
256
390
0
 62
     8
100
AcDbMText
 10
111.447132
 20
19.688572
 30
0.0
 40
3.386667
 41
22.536729
 71
     8
 72
     1
  1
三角法  
210
0.0
220
0.0
230
0.9999999999999999
 73
     1
 44
1.0
  0
MTEXT
  5
98
100
AcDbEntity
  8
256
390
0
 62
     8
100
AcDbMText
 10
51.124985
 20
21.244792
 30
0.0
 40
1.75
 41
4.486364
 71
     8
 72
     1
  1
2.5  
210
0.0
220
0.0
230
1.0
 73
     1
 44
1.0
  0
MTEXT
  5
99
100
AcDbEntity
  8
256
390
0
 62
     8
100
AcDbMText
 10
39.625
 20
17.744792
 30
0.0
 40
1.75
 41
4.565909
 71
     8
 72
     1
  1
0.8  
210
0.0
220
0.0
230
1.0
 73
     1
 44
1.0
  0
MTEXT
  5
9A
100
AcDbEntity
  8
256
390
0
 62
     8
100
AcDbMText
 10
31.999985
 20
44.052084
 30
0.0
 40
1.7
 41
74.846364
 71
     8
 72
     1
  1
削り加工寸法の普通許容差 JIS B 0405-1991  
210
0.0
220
0.0
230
1.0
 73
     1
 44
1.0
  0
MTEXT
  5
9B
100
AcDbEntity
  8
256
390
0
 62
     8
100
AcDbMText
 10
51.124985
 20
28.244792
 30
0.0
 40
1.75
 41
0.843182
 71
     8
 72
     1
  1
1  
210
0.0
220
0.0
230
1.0
 73
     1
 44
1.0
  0
MTEXT
  5
9C
100
AcDbEntity
  8
256
390
0
 62
     8
100
AcDbMText
 10
33.875
 20
28.244792
 30
0.0
 40
1.75
 41
3.993182
 71
     8
 72
     1
  1
0.1  
210
0.0
220
0.0
230
1.0
 73
     1
 44
1.0
  0
MTEXT
  5
9D
100
AcDbEntity
  8
256
390
0
 62
     8
100
AcDbMText
 10
79.078718
 20
27.307846
 30
0.0
 40
3.386667
 41
17.025699
 71
     8
 72
     1
  1
検 図  
210
0.0
220
0.0
230
0.9999999999999999
 73
     1
 44
1.0
  0
MTEXT
  5
9E
100
AcDbEntity
  8
256
390
0
 62
     8
100
AcDbMText
 10
143.224046
 20
260.687951
 30
0.0
 40
2.822222
 41
5.875353
 71
     8
 72
     1
  1
処  
210
0.0
220
0.0
230
1.0
 73
     1
 44
1.0
  0
MTEXT
  5
9F
100
AcDbEntity
  8
256
390
0
 62
     8
100
AcDbMText
 10
152.612519
 20
11.38421
 30
0.0
 40
3.386667
 41
99.506434
 71
     8
 72
     1
  1
双 葉 電 子 工 業 株 式 会 社  
210
0.0
220
0.0
230
0.9999999999999999
 73
     1
 44
1.0
  0
MTEXT
  5
A0
100
AcDbEntity
  8
256
390
0
 62
     8
100
AcDbMText
 10
33.875
 20
31.744792
 30
0.0
 40
1.75
 41
6.586364
 71
     8
 72
     1
  1
0.05  
210
0.0
220
0.0
230
1.0
 73
     1
 44
1.0
  0
MTEXT
  5
A1
100
AcDbEntity
  8
256
390
0
 62
     8
100
AcDbMText
 10
97.981103
 20
32.596244
 30
0.0
 40
3.386667
 41
10.375516
 71
     8
 72
     1
  1
1台  
210
0.0
220
0.0
230
0.9999999999999999
 73
     1
 44
1.0
  0
MTEXT
  5
A2
100
AcDbEntity
  8
256
390
0
 62
     8
100
AcDbMText
 10
31.002274
 20
14.494935
 30
0.0
 40
1.75
 41
34.888636
 71
     9
 72
     1
  1
1000を超え2000以下  
210
0.0
220
0.0
230
1.0
 73
     1
 44
1.0
  0
MTEXT
  5
A3
100
AcDbEntity
  8
256
390
0
 62
     8
100
AcDbMText
 10
143.224046
 20
272.563159
 30
0.0
 40
3.386667
 41
7.050425
 71
     8
 72
     1
  1
処  
210
0.0
220
0.0
230
0.9999999999999999
 73
     1
 44
1.0
  0
MTEXT
  5
A4
100
AcDbEntity
  8
256
390
0
 62
     8
100
AcDbMText
 10
143.224046
 20
263.803737
 30
0.0
 40
2.822222
 41
5.952323
 71
     8
 72
     1
  1
熱  
210
0.0
220
0.0
230
1.0
 73
     1
 44
1.0
  0
MTEXT
  5
A5
100
AcDbEntity
  8
256
390
0
 62
     8
100
AcDbMText
 10
171.474046
 20
282.505
 30
0.0
 40
3.386667
 41
6.68097
 71
     8
 72
     1
  1
面  
210
0.0
220
0.0
230
0.9999999999999999
 73
     1
 44
1.0
  0
MTEXT
  5
A6
100
AcDbEntity
  8
256
390
0
 62
     8
100
AcDbMText
 10
51.124985
 20
24.744792
 30
0.0
 40
1.75
 41
4.263636
 71
     8
 72
     1
  1
1.5  
210
0.0
220
0.0
230
1.0
 73
     1
 44
1.0
  0
MTEXT
  5
A7
100
AcDbEntity
  8
256
390
0
 62
     8
100
AcDbMText
 10
39.625
 20
28.244792
 30
0.0
 40
1.75
 41
4.55
 71
     8
 72
     1
  1
0.2  
210
0.0
220
0.0
230
1.0
 73
     1
 44
1.0
  0
MTEXT
  5
A8
100
AcDbEntity
  8
256
390
0
 62
     8
100
AcDbMText
 10
65.97385
 20
282.992173
 30
0.0
 40
3.386667
 41
59.482188
 71
     8
 72
     1
  1
訂    正    内    容  
210
0.0
220
0.0
230
0.9999999999999999
 73
     1
 44
1.0
  0
MTEXT
  5
A9
100
AcDbEntity
  8
256
390
0
 62
     8
100
AcDbMText
 10
45.679511
 20
40.876758
 30
0.0
 40
1.7
 41
7.572727
 71
     8
 72
     1
  1
粗級  
210
0.0
220
0.0
230
1.0
 73
     1
 44
1.0
  0
MTEXT
  5
AA
100
AcDbEntity
  8
256
390
0
 62
     8
100
AcDbMText
 10
33.875
 20
24.744792
 30
0.0
 40
1.75
 41
6.586364
 71
     8
 72
     1
  1
0.15  
210
0.0
220
0.0
230
1.0
 73
     1
 44
1.0
  0
MTEXT
  5
AB
100
AcDbEntity
  8
256
390
0
 62
     8
100
AcDbMText
 10
51.124985
 20
10.744792
 30
0.0
 40
1.75
 41
1.654545
 71
     8
 72
     1
  1
8  
210
0.0
220
0.0
230
1.0
 73
     1
 44
1.0
  0
MTEXT
  5
AC
100
AcDbEntity
  8
256
390
0
 62
     8
100
AcDbMText
 10
33.875
 20
14.244792
 30
0.0
 40
1.75
 41
4.55
 71
     8
 72
     1
  1
0.5  
210
0.0
220
0.0
230
1.0
 73
     1
 44
1.0
  0
MTEXT
  5
AD
100
AcDbEntity
  8
256
390
0
 62
     8
100
AcDbMText
 10
46.095938
 20
38.869034
 30
0.0
 40
2.0
 41
7.527273
 71
     8
 72
     1
  1
c %%p  
210
0.0
220
0.0
230
1.0
 73
     1
 44
1.0
  0
MTEXT
  5
AE
100
AcDbEntity
  8
256
390
0
 62
     8
100
AcDbMText
 10
15.556857
 20
282.992173
 30
0.0
 40
3.386667
 41
14.870547
 71
     8
 72
     1
  1
記号  
210
0.0
220
0.0
230
0.9999999999999999
 73
     1
 44
1.0
  0
MTEXT
  5
AF
100
AcDbEntity
  8
256
390
0
 62
     8
100
AcDbMText
 10
26.302795
 20
40.827488
 30
0.0
 40
1.5
 41
13.636364
 71
     8
 72
     1
  1
公差等級  
210
0.0
220
0.0
230
1.0
 73
     1
 44
1.0
  0
MTEXT
  5
B0
100
AcDbEntity
  8
256
390
0
 62
     8
100
AcDbMText
 10
31.000897
 20
17.994935
 30
0.0
 40
1.75
 41
33.138636
 71
     9
 72
     1
  1
 400を超え1000以下  
210
0.0
220
0.0
230
1.0
 73
     1
 44
1.0
  0
INSERT
  5
B5
100
AcDbEntity
  8
256
390
0
100
AcDbBlockReference
  2
AID274
 10
0.0
 20
0.0
 30
0.0
  0
LINE
  5
B7
100
AcDbEntity
  8
1
390
0
  6
Continuous
 62
     7
100
AcDbLine
 10
70.136779
 20
155.461815
 30
0.0
 11
72.818473
 21
155.461815
 31
0.0
  0
LINE
  5
B8
100
AcDbEntity
  8
1
390
0
  6
Continuous
 62
     7
100
AcDbLine
 10
70.136779
 20
155.461815
 30
0.0
 11
69.835704
 21
155.461815
 31
0.0
  0
LINE
  5
B9
100
AcDbEntity
  8
1
390
0
  6
Continuous
 62
     7
100
AcDbLine
 10
79.735704
 20
155.461815
 30
0.0
 11
79.434629
 21
155.461815
 31
0.0
  0
LINE
  5
BA
100
AcDbEntity
  8
1
390
0
  6
Continuous
 62
     7
100
AcDbLine
 10
76.752936
 20
155.461815
 30
0.0
 11
79.434629
 21
155.461815
 31
0.0
  0
LINE
  5
BB
100
AcDbEntity
  8
1
390
0
  6
Continuous
 62
     7
100
AcDbLine
 10
79.434629
 20
152.961815
 30
0.0
 11
70.136779
 21
152.961815
 31
0.0
  0
LINE
  5
BC
100
AcDbEntity
  8
1
390
0
  6
Continuous
 62
     7
100
AcDbLine
 10
70.785704
 20
148.461815
 30
0.0
 11
78.785704
 21
148.461815
 31
0.0
  0
LINE
  5
BD
100
AcDbEntity
  8
1
390
0
  6
Continuous
 62
     7
100
AcDbLine
 10
69.835704
 20
149.411815
 30
0.0
 11
79.735704
 21
149.411815
 31
0.0
  0
LINE
  5
BF
100
AcDbEntity
  8
1
390
0
  6
DOT
 62
     9
100
AcDbLine
 10
71.957277
 20
148.461815
 30
0.0
 11
71.285526
 21
149.411815
 31
0.0
  0
LINE
  5
C0
100
AcDbEntity
  8
1
390
0
  6
DOT
 62
     9
100
AcDbLine
 10
78.285883
 20
149.411815
 30
0.0
 11
77.614131
 21
148.461815
 31
0.0
  0
LINE
  5
C1
100
AcDbEntity
  8
1
390
0
  6
DOT
 62
     9
100
AcDbLine
 10
71.285526
 20
152.961815
 30
0.0
 11
71.285526
 21
149.411815
 31
0.0
  0
LINE
  5
C2
100
AcDbEntity
  8
1
390
0
  6
Continuous
 62
     7
100
AcDbLine
 10
70.136779
 20
155.461815
 30
0.0
 11
70.136779
 21
152.961815
 31
0.0
  0
LINE
  5
C3
100
AcDbEntity
  8
1
390
0
  6
Continuous
 62
     7
100
AcDbLine
 10
79.434629
 20
155.461815
 30
0.0
 11
79.434629
 21
152.961815
 31
0.0
  0
LINE
  5
C4
100
AcDbEntity
  8
1
390
0
  6
DOT
 62
     9
100
AcDbLine
 10
79.434629
 20
155.461815
 30
0.0
 11
79.434629
 21
152.961815
 31
0.0
  0
LINE
  5
C5
100
AcDbEntity
  8
1
390
0
  6
DOT
 62
     9
100
AcDbLine
 10
78.285883
 20
152.961815
 30
0.0
 11
78.285883
 21
149.411815
 31
0.0
  0
LINE
  5
C6
100
AcDbEntity
  8
1
390
0
  6
Continuous
 62
     7
100
AcDbLine
 10
70.785704
 20
142.961815
 30
0.0
 11
78.785704
 21
142.961815
 31
0.0
  0
LINE
  5
C7
100
AcDbEntity
  8
1
390
0
  6
DOT
 62
     9
100
AcDbLine
 10
71.957277
 20
142.961815
 30
0.0
 11
71.957277
 21
148.461815
 31
0.0
  0
LINE
  5
C8
100
AcDbEntity
  8
1
390
0
  6
DOT
 62
     9
100
AcDbLine
 10
77.614131
 20
148.461815
 30
0.0
 11
77.614131
 21
142.961815
 31
0.0
  0
LINE
  5
C9
100
AcDbEntity
  8
1
390
0
  6
Continuous
 62
     7
100
AcDbLine
 10
71.285704
 20
141.961815
 30
0.0
 11
78.285704
 21
141.961815
 31
0.0
  0
LINE
  5
CA
100
AcDbEntity
  8
1
390
0
  6
DOT
 62
     9
100
AcDbLine
 10
72.31083
 20
141.961815
 30
0.0
 11
72.31083
 21
142.961815
 31
0.0
  0
LINE
  5
CB
100
AcDbEntity
  8
1
390
0
  6
DOT
 62
     9
100
AcDbLine
 10
77.260578
 20
142.961815
 30
0.0
 11
77.260578
 21
141.961815
 31
0.0
  0
LINE
  5
CC
100
AcDbEntity
  8
1
390
0
  6
Continuous
 62
     7
100
AcDbLine
 10
76.752936
 20
155.461815
 30
0.0
 11
76.752936
 21
152.961815
 31
0.0
  0
LINE
  5
CD
100
AcDbEntity
  8
1
390
0
  6
Continuous
 62
     7
100
AcDbLine
 10
72.818473
 20
152.961815
 30
0.0
 11
72.818473
 21
155.461815
 31
0.0
  0
LINE
  5
CE
100
AcDbEntity
  8
1
390
0
  6
DOT
 62
     9
100
AcDbLine
 10
72.947226
 20
141.961815
 30
0.0
 11
72.947226
 21
142.961815
 31
0.0
  0
LINE
  5
CF
100
AcDbEntity
  8
1
390
0
  6
DOT
 62
     9
100
AcDbLine
 10
72.947226
 20
142.961815
 30
0.0
 11
72.947226
 21
152.961815
 31
0.0
  0
LINE
  5
D0
100
AcDbEntity
  8
1
390
0
  6
DOT
 62
     9
100
AcDbLine
 10
76.624182
 20
152.961815
 30
0.0
 11
76.624182
 21
142.961815
 31
0.0
  0
LINE
  5
D1
100
AcDbEntity
  8
1
390
0
  6
DOT
 62
     9
100
AcDbLine
 10
76.624182
 20
142.961815
 30
0.0
 11
76.624182
 21
141.961815
 31
0.0
  0
LINE
  5
D2
100
AcDbEntity
  8
1
390
0
  6
Continuous
 62
     7
100
AcDbLine
 10
69.835704
 20
149.411815
 30
0.0
 11
70.785704
 21
148.461815
 31
0.0
  0
LINE
  5
D3
100
AcDbEntity
  8
1
390
0
  6
Continuous
 62
     7
100
AcDbLine
 10
78.785704
 20
148.461815
 30
0.0
 11
79.735704
 21
149.411815
 31
0.0
  0
LINE
  5
D4
100
AcDbEntity
  8
1
390
0
  6
Continuous
 62
     7
100
AcDbLine
 10
79.735704
 20
149.411815
 30
0.0
 11
79.735704
 21
155.461815
 31
0.0
  0
LINE
  5
D5
100
AcDbEntity
  8
1
390
0
  6
Continuous
 62
     7
100
AcDbLine
 10
69.835704
 20
155.461815
 30
0.0
 11
69.835704
 21
149.411815
 31
0.0
  0
LINE
  5
D6
100
AcDbEntity
  8
1
390
0
  6
Continuous
 62
     7
100
AcDbLine
 10
70.785704
 20
148.461815
 30
0.0
 11
70.785704
 21
142.961815
 31
0.0
  0
LINE
  5
D7
100
AcDbEntity
  8
1
390
0
  6
Continuous
 62
     7
100
AcDbLine
 10
78.785704
 20
142.961815
 30
0.0
 11
78.785704
 21
148.461815
 31
0.0
  0
LINE
  5
D8
100
AcDbEntity
  8
1
390
0
  6
Continuous
 62
     7
100
AcDbLine
 10
71.285704
 20
142.961815
 30
0.0
 11
71.285704
 21
141.961815
 31
0.0
  0
LINE
  5
D9
100
AcDbEntity
  8
1
390
0
  6
Continuous
 62
     7
100
AcDbLine
 10
78.285704
 20
141.961815
 30
0.0
 11
78.285704
 21
142.961815
 31
0.0
  0
LINE
  5
DA
100
AcDbEntity
  8
1
390
0
  6
DOT
 62
     9
100
AcDbLine
 10
72.185704
 20
155.461815
 30
0.0
 11
72.185704
 21
141.961815
 31
0.0
  0
LINE
  5
DB
100
AcDbEntity
  8
1
390
0
  6
DOT
 62
     9
100
AcDbLine
 10
77.385704
 20
141.961815
 30
0.0
 11
77.385704
 21
155.461815
 31
0.0
  0
LINE
  5
DC
100
AcDbEntity
  8
1
390
0
  6
Continuous
 62
     7
100
AcDbLine
 10
142.418362
 20
148.461815
 30
0.0
 11
149.24679
 21
148.461815
 31
0.0
  0
LINE
  5
DD
100
AcDbEntity
  8
1
390
0
  6
Continuous
 62
     7
100
AcDbLine
 10
141.468362
 20
149.411815
 30
0.0
 11
149.918541
 21
149.411815
 31
0.0
  0
LINE
  5
DE
100
AcDbEntity
  8
1
390
0
  6
Continuous
 62
     7
100
AcDbLine
 10
149.918541
 20
149.411815
 30
0.0
 11
149.24679
 21
148.461815
 31
0.0
  0
LINE
  5
DF
100
AcDbEntity
  8
1
390
0
  6
Continuous
 62
     7
100
AcDbLine
 10
144.718362
 20
152.961815
 30
0.0
 11
141.468362
 21
152.961815
 31
0.0
  0
LINE
  5
E0
100
AcDbEntity
  8
1
390
0
  6
Continuous
 62
     7
100
AcDbLine
 10
144.718362
 20
155.461815
 30
0.0
 11
144.718362
 21
152.961815
 31
0.0
  0
LINE
  5
E1
100
AcDbEntity
  8
1
390
0
  6
Continuous
 62
     7
100
AcDbLine
 10
148.118362
 20
155.461815
 30
0.0
 11
144.718362
 21
155.461815
 31
0.0
  0
LINE
  5
E2
100
AcDbEntity
  8
1
390
0
  6
Continuous
 62
     7
100
AcDbLine
 10
148.118362
 20
155.461815
 30
0.0
 11
148.118362
 21
152.961815
 31
0.0
  0
LINE
  5
E3
100
AcDbEntity
  8
1
390
0
  6
Continuous
 62
     7
100
AcDbLine
 10
148.118362
 20
152.961815
 30
0.0
 11
149.918541
 21
152.961815
 31
0.0
  0
LINE
  5
E4
100
AcDbEntity
  8
1
390
0
  6
Continuous
 62
     7
100
AcDbLine
 10
149.918541
 20
152.961815
 30
0.0
 11
149.918541
 21
149.411815
 31
0.0
  0
LINE
  5
E5
100
AcDbEntity
  8
1
390
0
  6
Continuous
 62
     7
100
AcDbLine
 10
142.418362
 20
142.961815
 30
0.0
 11
149.24679
 21
142.961815
 31
0.0
  0
LINE
  5
E6
100
AcDbEntity
  8
1
390
0
  6
Continuous
 62
     7
100
AcDbLine
 10
149.24679
 20
148.461815
 30
0.0
 11
149.24679
 21
142.961815
 31
0.0
  0
LINE
  5
E7
100
AcDbEntity
  8
1
390
0
  6
Continuous
 62
     7
100
AcDbLine
 10
142.918362
 20
141.961815
 30
0.0
 11
148.893236
 21
141.961815
 31
0.0
  0
LINE
  5
E8
100
AcDbEntity
  8
1
390
0
  6
Continuous
 62
     7
100
AcDbLine
 10
148.893236
 20
142.961815
 30
0.0
 11
148.893236
 21
141.961815
 31
0.0
  0
LINE
  5
E9
100
AcDbEntity
  8
1
390
0
  6
DOT
 62
     9
100
AcDbLine
 10
148.25684
 20
152.961815
 30
0.0
 11
148.25684
 21
141.961815
 31
0.0
  0
LINE
  5
EA
100
AcDbEntity
  8
1
390
0
  6
Continuous
 62
     7
100
AcDbLine
 10
141.468362
 20
149.411815
 30
0.0
 11
142.418362
 21
148.461815
 31
0.0
  0
LINE
  5
EB
100
AcDbEntity
  8
1
390
0
  6
Continuous
 62
     7
100
AcDbLine
 10
141.468362
 20
152.961815
 30
0.0
 11
141.468362
 21
149.411815
 31
0.0
  0
LINE
  5
EC
100
AcDbEntity
  8
1
390
0
  6
Continuous
 62
     7
100
AcDbLine
 10
142.418362
 20
148.461815
 30
0.0
 11
142.418362
 21
142.961815
 31
0.0
  0
LINE
  5
ED
100
AcDbEntity
  8
1
390
0
  6
Continuous
 62
     7
100
AcDbLine
 10
142.918362
 20
142.961815
 30
0.0
 11
142.918362
 21
141.961815
 31
0.0
  0
LINE
  5
EE
100
AcDbEntity
  8
1
390
0
  6
DOT
 62
     9
100
AcDbLine
 10
143.818362
 20
152.961815
 30
0.0
 11
143.818362
 21
141.961815
 31
0.0
  0
LINE
  5
EF
100
AcDbEntity
  8
1
390
0
  6
Continuous
 62
     7
100
AcDbLine
 10
72.818473
 20
216.732205
 30
0.0
 11
70.136779
 21
216.732205
 31
0.0
  0
ARC
  5
F0
100
AcDbEntity
  8
1
390
0
  6
Continuous
 62
     7
100
AcDbCircle
 10
74.785704
 20
215.032205
 30
0.0
 40
2.6
210
0.0
220
0.0
230
1.0
100
AcDbArc
 50
139.167783
 51
220.832217
  0
LINE
  5
F1
100
AcDbEntity
  8
1
390
0
  6
Continuous
 62
     7
100
AcDbLine
 10
70.136779
 20
213.332205
 30
0.0
 11
72.818473
 21
213.332205
 31
0.0
  0
ARC
  5
F2
100
AcDbEntity
  8
1
390
0
  6
Continuous
 62
     7
100
AcDbCircle
 10
74.785704
 20
215.032205
 30
0.0
 40
4.95
210
0.0
220
0.0
230
1.0
100
AcDbArc
 50
159.913748
 51
200.086252
  0
LINE
  5
F3
100
AcDbEntity
  8
1
390
0
  6
Continuous
 62
     7
100
AcDbLine
 10
79.434629
 20
216.732205
 30
0.0
 11
76.752936
 21
216.732205
 31
0.0
  0
ARC
  5
F4
100
AcDbEntity
  8
1
390
0
  6
Continuous
 62
     7
100
AcDbCircle
 10
74.785704
 20
215.032205
 30
0.0
 40
2.6
210
0.0
220
0.0
230
1.0
100
AcDbArc
 50
319.167783
 51
40.832217
  0
ARC
  5
F5
100
AcDbEntity
  8
1
390
0
  6
Continuous
 62
     7
100
AcDbCircle
 10
74.785704
 20
215.032205
 30
0.0
 40
4.95
210
0.0
220
0.0
230
1.0
100
AcDbArc
 50
339.913748
 51
20.086252
  0
LINE
  5
F6
100
AcDbEntity
  8
1
390
0
  6
Continuous
 62
     7
100
AcDbLine
 10
76.752936
 20
213.332205
 30
0.0
 11
79.434629
 21
213.332205
 31
0.0
  0
LINE
  5
F7
100
AcDbEntity
  8
1
390
0
  6
Continuous
 62
     7
100
AcDbLine
 10
76.624182
 20
216.870683
 30
0.0
 11
78.285883
 21
218.532384
 31
0.0
  0
ARC
  5
F8
100
AcDbEntity
  8
1
390
0
  6
Continuous
 62
     7
100
AcDbCircle
 10
74.785704
 20
215.032205
 30
0.0
 40
2.6
210
0.0
220
0.0
230
1.0
100
AcDbArc
 50
40.832217
 51
45.0
  0
ARC
  5
F9
100
AcDbEntity
  8
1
390
0
  6
Continuous
 62
     7
100
AcDbCircle
 10
74.785704
 20
215.032205
 30
0.0
 40
4.95
210
0.0
220
0.0
230
1.0
100
AcDbArc
 50
20.086252
 51
45.0
  0
ARC
  5
FA
100
AcDbEntity
  8
1
390
0
  6
Continuous
 62
     7
100
AcDbCircle
 10
74.785704
 20
215.032205
 30
0.0
 40
2.6
210
0.0
220
0.0
230
1.0
100
AcDbArc
 50
220.832217
 51
319.167783
  0
ARC
  5
FB
100
AcDbEntity
  8
1
390
0
  6
Continuous
 62
     7
100
AcDbCircle
 10
74.785704
 20
215.032205
 30
0.0
 40
4.95
210
0.0
220
0.0
230
1.0
100
AcDbArc
 50
200.086252
 51
339.913748
  0
LINE
  5
FC
100
AcDbEntity
  8
1
390
0
  6
Continuous
 62
     7
100
AcDbLine
 10
71.285526
 20
218.532384
 30
0.0
 11
72.947226
 21
216.870683
 31
0.0
  0
ARC
  5
FD
100
AcDbEntity
  8
1
390
0
  6
Continuous
 62
     7
100
AcDbCircle
 10
74.785704
 20
215.032205
 30
0.0
 40
2.6
210
0.0
220
0.0
230
0.9999999999999999
100
AcDbArc
 50
135.0
 51
139.167783
  0
ARC
  5
FE
100
AcDbEntity
  8
1
390
0
  6
Continuous
 62
     7
100
AcDbCircle
 10
74.785704
 20
215.032205
 30
0.0
 40
4.95
210
0.0
220
0.0
230
0.9999999999999999
100
AcDbArc
 50
135.0
 51
159.913748
  0
ARC
  5
FF
100
AcDbEntity
  8
1
390
0
  6
DOT
 62
     9
100
AcDbCircle
 10
74.785704
 20
215.032205
 30
0.0
 40
4.0
210
0.0
220
0.0
230
1.0
100
AcDbArc
 50
135.0
 51
45.0
  0
ARC
  5
100
100
AcDbEntity
  8
1
390
0
  6
DOT
 62
     9
100
AcDbCircle
 10
74.785704
 20
215.032205
 30
0.0
 40
3.5
210
0.0
220
0.0
230
1.0
100
AcDbArc
 50
135.0
 51
45.0
  0
LINE
  5
102
100
AcDbEntity
  8
1
390
0
  6
CENTER
 62
     1
100
AcDbLine
 10
74.785704
 20
156.461815
 30
0.0
 11
74.785704
 21
140.62015
 31
0.0
  0
LINE
  5
103
100
AcDbEntity
  8
1
390
0
  6
CENTER
 62
     1
100
AcDbLine
 10
68.835704
 20
215.032205
 30
0.0
 11
80.735704
 21
215.032205
 31
0.0
  0
LINE
  5
104
100
AcDbEntity
  8
1
390
0
  6
CENTER
 62
     1
100
AcDbLine
 10
74.785704
 20
209.082205
 30
0.0
 11
74.785704
 21
220.982205
 31
0.0
  0
LINE
  5
105
100
AcDbEntity
  8
1
390
0
  6
CENTER
 62
     1
100
AcDbLine
 10
146.418362
 20
156.461815
 30
0.0
 11
146.418362
 21
140.62015
 31
0.0
  0
POINT
  5
107
100
AcDbEntity
  8
5
390
0
 62
     2
100
AcDbPoint
 10
146.418362
 20
156.461815
 30
0.0
  0
POINT
  5
108
100
AcDbEntity
  8
5
390
0
 62
     2
100
AcDbPoint
 10
76.538019
 20
140.62015
 30
0.0
  0
LINE
  5
109
100
AcDbEntity
  8
1
390
0
  6
Continuous
 62
     9
100
AcDbLine
 10
78.410704
 20
142.961815
 30
0.0
 11
78.410704
 21
148.461815
 31
0.0
  0
LINE
  5
10A
100
AcDbEntity
  8
1
390
0
  6
Continuous
 62
     9
100
AcDbLine
 10
71.160704
 20
148.461815
 30
0.0
 11
71.160704
 21
142.961815
 31
0.0
  0
LINE
  5
10B
100
AcDbEntity
  8
1
390
0
  6
Continuous
 62
     9
100
AcDbLine
 10
142.793362
 20
148.461815
 30
0.0
 11
142.793362
 21
142.961815
 31
0.0
  0
LINE
  5
10C
100
AcDbEntity
  8
1
390
0
  6
Continuous
 62
     9
100
AcDbLine
 10
148.87179
 20
148.461815
 30
0.0
 11
148.87179
 21
142.961815
 31
0.0
  0
POINT
  5
10D
100
AcDbEntity
  8
5
390
0
 62
     9
100
AcDbPoint
 10
79.434629
 20
155.461815
 30
0.0
  0
POINT
  5
10E
100
AcDbEntity
  8
5
390
0
 62
     9
100
AcDbPoint
 10
76.752936
 20
152.961815
 30
0.0
  0
LINE
  5
10F
100
AcDbEntity
  8
1
390
0
  6
Continuous
 62
     9
100
AcDbLine
 10
79.434629
 20
155.461815
 30
0.0
 11
76.752936
 21
152.961815
 31
0.0
  0
LINE
  5
110
100
AcDbEntity
  8
1
390
0
  6
Continuous
 62
     9
100
AcDbLine
 10
79.434629
 20
155.461815
 30
0.0
 11
76.752936
 21
152.961815
 31
0.0
  0
POINT
  5
111
100
AcDbEntity
  8
5
390
0
 62
     9
100
AcDbPoint
 10
76.752936
 20
155.461815
 30
0.0
  0
POINT
  5
112
100
AcDbEntity
  8
5
390
0
 62
     9
100
AcDbPoint
 10
79.434629
 20
152.961815
 30
0.0
  0
LINE
  5
113
100
AcDbEntity
  8
1
390
0
  6
Continuous
 62
     9
100
AcDbLine
 10
76.752936
 20
155.461815
 30
0.0
 11
79.434629
 21
152.961815
 31
0.0
  0
LINE
  5
114
100
AcDbEntity
  8
1
390
0
  6
Continuous
 62
     9
100
AcDbLine
 10
76.752936
 20
155.461815
 30
0.0
 11
79.434629
 21
152.961815
 31
0.0
  0
POINT
  5
115
100
AcDbEntity
  8
5
390
0
 62
     9
100
AcDbPoint
 10
72.818473
 20
155.461815
 30
0.0
  0
POINT
  5
116
100
AcDbEntity
  8
5
390
0
 62
     9
100
AcDbPoint
 10
70.136779
 20
152.961815
 30
0.0
  0
LINE
  5
117
100
AcDbEntity
  8
1
390
0
  6
Continuous
 62
     9
100
AcDbLine
 10
72.818473
 20
155.461815
 30
0.0
 11
70.136779
 21
152.961815
 31
0.0
  0
LINE
  5
118
100
AcDbEntity
  8
1
390
0
  6
Continuous
 62
     9
100
AcDbLine
 10
72.818473
 20
155.461815
 30
0.0
 11
70.136779
 21
152.961815
 31
0.0
  0
POINT
  5
119
100
AcDbEntity
  8
5
390
0
 62
     9
100
AcDbPoint
 10
70.136779
 20
155.461815
 30
0.0
  0
POINT
  5
11A
100
AcDbEntity
  8
5
390
0
 62
     9
100
AcDbPoint
 10
72.818473
 20
152.961815
 30
0.0
  0
LINE
  5
11B
100
AcDbEntity
  8
1
390
0
  6
Continuous
 62
     9
100
AcDbLine
 10
70.136779
 20
155.461815
 30
0.0
 11
72.818473
 21
152.961815
 31
0.0
  0
LINE
  5
11C
100
AcDbEntity
  8
1
390
0
  6
Continuous
 62
     9
100
AcDbLine
 10
70.136779
 20
155.461815
 30
0.0
 11
72.818473
 21
152.961815
 31
0.0
  0
INSERT
  5
12E
100
AcDbEntity
  8
1
390
0
100
AcDbBlockReference
  2
AID475
 10
0.0
 20
0.0
 30
0.0
  0
INSERT
  5
140
100
AcDbEntity
  8
1
390
0
100
AcDbBlockReference
  2
AID488
 10
0.0
 20
0.0
 30
0.0
  0
INSERT
  5
153
100
AcDbEntity
  8
1
390
0
100
AcDbBlockReference
  2
AID501
 10
0.0
 20
0.0
 30
0.0
  0
INSERT
  5
166
100
AcDbEntity
  8
1
390
0
100
AcDbBlockReference
  2
AID516
 10
0.0
 20
0.0
 30
0.0
  0
INSERT
  5
17B
100
AcDbEntity
  8
1
390
0
100
AcDbBlockReference
  2
AID531
 10
0.0
 20
0.0
 30
0.0
  0
INSERT
  5
18B
100
AcDbEntity
  8
1
390
0
100
AcDbBlockReference
  2
AID550
 10
0.0
 20
0.0
 30
0.0
  0
INSERT
  5
19A
100
AcDbEntity
  8
1
390
0
100
AcDbBlockReference
  2
AID567
 10
0.0
 20
0.0
 30
0.0
  0
INSERT
  5
1AC
100
AcDbEntity
  8
1
390
0
100
AcDbBlockReference
  2
AID582
 10
0.0
 20
0.0
 30
0.0
  0
INSERT
  5
1BE
100
AcDbEntity
  8
1
390
0
100
AcDbBlockReference
  2
AID595
 10
0.0
 20
0.0
 30
0.0
  0
INSERT
  5
1D2
100
AcDbEntity
  8
1
390
0
100
AcDbBlockReference
  2
AID608
 10
0.0
 20
0.0
 30
0.0
  0
INSERT
  5
1DE
100
AcDbEntity
  8
1
390
0
100
AcDbBlockReference
  2
AID625
 10
0.0
 20
0.0
 30
0.0
  0
INSERT
  5
1E3
100
AcDbEntity
  8
1
390
0
100
AcDbBlockReference
  2
AID634
 10
0.0
 20
0.0
 30
0.0
  0
INSERT
  5
1E8
100
AcDbEntity
  8
1
390
0
100
AcDbBlockReference
  2
AID637
 10
0.0
 20
0.0
 30
0.0
  0
INSERT
  5
1ED
100
AcDbEntity
  8
1
390
0
100
AcDbBlockReference
  2
AID640
 10
0.0
 20
0.0
 30
0.0
  0
ENDSEC
  0
SECTION
  2
OBJECTS
  0
DICTIONARY
  5
19
100
AcDbDictionary
280
     0
281
     1
  3
ACAD_GROUP
350
1A
  3
ACAD_MLINESTYLE
350
1B
  3
ACAD_LAYOUT
350
1E
  3
ACAD_PLOTSETTINGS
350
22
  3
ACAD_PLOTSTYLENAME
350
1F
  3
ACAD_WIPEOUT_VARS
350
23
  0
DICTIONARY
  5
1A
102
{ACAD_REACTORS
330
19
102
}
100
AcDbDictionary
280
     0
281
     1
  0
DICTIONARY
  5
1B
102
{ACAD_REACTORS
330
19
102
}
100
AcDbDictionary
280
     0
281
     1
  3
Standard
350
1C
  0
MLINESTYLE
  5
1C
102
{ACAD_REACTORS
330
1B
102
}
100
AcDbMlineStyle
  2
Standard
 70
     0
  3

 62
     0
 51
90.0
 52
90.0
 71
     2
 49
0.5
 62
   256
  6
ByLayer
 49
-0.5
 62
   256
  6
ByLayer
  0
ACDBDICTIONARYWDFLT
  5
1F
102
{ACAD_REACTORS
330
19
102
}
100
AcDbDictionary
281
     1
  3
Normal
350
1D
100
AcDbDictionaryWithDefault
340
1D
  0
ACDBPLACEHOLDER
  5
1D
102
{ACAD_REACTORS
330
1F
102
}
  0
LAYOUT
  5
20
102
{ACAD_REACTORS
330
1E
102
}
100
AcDbPlotSettings
  1

  2

  4

  6

 40
0.0
 41
0.0
 42
0.0
 43
0.0
 44
0.0
 45
0.0
 46
0.0
 47
0.0
 48
0.0
 49
0.0
140
0.0
141
0.0
142
1.0
143
1.0
 70
  1024
 72
     0
 73
     0
 74
     0
  7

 75
     0
147
1.0
148
0.0
149
0.0
100
AcDbLayout
  1
Model
 70
     0
 71
     0
 10
0.0
 20
0.0
 11
0.0
 21
0.0
 12
0.0
 22
0.0
 32
0.0
 14
0.0
 24
0.0
 34
0.0
 15
0.0
 25
0.0
 35
0.0
146
0.0
 13
0.0
 23
0.0
 33
0.0
 16
0.0
 26
0.0
 36
0.0
 17
0.0
 27
0.0
 37
0.0
 76
     0
330
A
331
0
345
0
346
0
  0
LAYOUT
  5
21
102
{ACAD_REACTORS
330
1E
102
}
100
AcDbPlotSettings
  1

  2

  4

  6

 40
0.0
 41
0.0
 42
0.0
 43
0.0
 44
0.0
 45
0.0
 46
0.0
 47
0.0
 48
0.0
 49
0.0
140
0.0
141
0.0
142
1.0
143
1.0
 70
     0
 72
     0
 73
     0
 74
     0
  7

 75
     0
147
1.0
148
0.0
149
0.0
100
AcDbLayout
  1
Layout1
 70
     0
 71
     0
 10
0.0
 20
0.0
 11
0.0
 21
0.0
 12
0.0
 22
0.0
 32
0.0
 14
0.0
 24
0.0
 34
0.0
 15
0.0
 25
0.0
 35
0.0
146
0.0
 13
0.0
 23
0.0
 33
0.0
 16
0.0
 26
0.0
 36
0.0
 17
0.0
 27
0.0
 37
0.0
 76
     0
330
B
331
0
345
0
346
0
  0
DICTIONARY
  5
1E
102
{ACAD_REACTORS
330
19
102
}
100
AcDbDictionary
280
     0
281
     1
  3
Layout1
350
21
  3
Model
350
20
  0
DICTIONARY
  5
22
102
{ACAD_REACTORS
330
19
102
}
100
AcDbDictionary
280
     0
281
     1
  0
WIPEOUTVARIABLES
  5
23
100
AcDbWipeoutVariables
 70
     1
  0
ENDSEC
  0
EOF
