  0
SECTION
  2
HEADER
  9
$ACADVER
  1
AC1015
  9
$ACADMAINTVER
 70
     6
  9
$DWGCODEPAGE
  3
DOS932
  9
$INSBASE
 10
0.0
 20
0.0
 30
0.0
  9
$EXTMIN
 10
-513.650867
 20
0.0
 30
0.0
  9
$EXTMAX
 10
992.249133
 20
297.0
 30
5.0
  9
$LIMMIN
 10
-513.650867
 20
0.0
  9
$LIMMAX
 10
992.249133
 20
297.0
  9
$ORTHOMODE
 70
     0
  9
$REGENMODE
 70
     1
  9
$FILLMODE
 70
     1
  9
$QTEXTMODE
 70
     0
  9
$MIRRTEXT
 70
     1
  9
$LTSCALE
 40
10.0
  9
$ATTMODE
 70
     1
  9
$TEXTSIZE
 40
0.2
  9
$TRACEWID
 40
0.05
  9
$TEXTSTYLE
  7
Standard
  9
$CLAYER
  8
0
  9
$CELTYPE
  6
Continuous
  9
$CECOLOR
 62
   256
  9
$CELTSCALE
 40
1.0
  9
$DISPSILH
 70
     0
  9
$DIMSCALE
 40
1.0
  9
$DIMASZ
 40
1.8
  9
$DIMEXO
 40
1.8
  9
$DIMDLI
 40
0.38
  9
$DIMRND
 40
0.0
  9
$DIMDLE
 40
0.0
  9
$DIMEXE
 40
1.8
  9
$DIMTP
 40
0.0
  9
$DIMTM
 40
0.0
  9
$DIMTXT
 40
6.0
  9
$DIMCEN
 40
0.09
  9
$DIMTSZ
 40
0.0
  9
$DIMTOL
 70
     0
  9
$DIMLIM
 70
     0
  9
$DIMTIH
 70
     0
  9
$DIMTOH
 70
     0
  9
$DIMSE1
 70
     0
  9
$DIMSE2
 70
     0
  9
$DIMTAD
 70
     1
  9
$DIMZIN
 70
     0
  9
$DIMBLK
  1

  9
$DIMASO
 70
     1
  9
$DIMSHO
 70
     1
  9
$DIMPOST
  1

  9
$DIMAPOST
  1

  9
$DIMALT
 70
     0
  9
$DIMALTD
 70
     2
  9
$DIMALTF
 40
25.4
  9
$DIMLFAC
 40
1.0
  9
$DIMTOFL
 70
     0
  9
$DIMTVP
 40
0.0
  9
$DIMTIX
 70
     0
  9
$DIMSOXD
 70
     0
  9
$DIMSAH
 70
     0
  9
$DIMBLK1
  1

  9
$DIMBLK2
  1

  9
$DIMSTYLE
  2
Standard
  9
$DIMCLRD
 70
     7
  9
$DIMCLRE
 70
     7
  9
$DIMCLRT
 70
     7
  9
$DIMTFAC
 40
0.7
  9
$DIMGAP
 40
1.2
  9
$DIMJUST
 70
     0
  9
$DIMSD1
 70
     0
  9
$DIMSD2
 70
     0
  9
$DIMTOLJ
 70
     1
  9
$DIMTZIN
 70
     0
  9
$DIMALTZ
 70
     0
  9
$DIMALTTZ
 70
     0
  9
$DIMUPT
 70
     0
  9
$DIMDEC
 70
     7
  9
$DIMTDEC
 70
     4
  9
$DIMALTU
 70
     2
  9
$DIMALTTD
 70
     2
  9
$DIMTXSTY
  7
Standard
  9
$DIMAUNIT
 70
     0
  9
$DIMADEC
 70
     0
  9
$DIMALTRND
 40
0.0
  9
$DIMAZIN
 70
     0
  9
$DIMDSEP
 70
     0
  9
$DIMATFIT
 70
     3
  9
$DIMFRAC
 70
     0
  9
$DIMLDRBLK
  1

  9
$DIMLUNIT
 70
     2
  9
$DIMLWD
 70
     0
  9
$DIMLWE
 70
     0
  9
$DIMTMOVE
 70
     0
  9
$LUNITS
 70
     2
  9
$LUPREC
 70
     4
  9
$SKETCHINC
 40
0.1
  9
$FILLETRAD
 40
0.0
  9
$AUNITS
 70
     0
  9
$AUPREC
 70
     0
  9
$MENU
  1
acad
  9
$ELEVATION
 40
0.0
  9
$PELEVATION
 40
0.0
  9
$THICKNESS
 40
0.0
  9
$LIMCHECK
 70
     0
  9
$CHAMFERA
 40
0.0
  9
$CHAMFERB
 40
0.0
  9
$CHAMFERC
 40
0.0
  9
$CHAMFERD
 40
0.0
  9
$SKPOLY
 70
     0
  9
$TDCREATE
 40
2459173.652129630
  9
$TDUCREATE
 40
0.000000000
  9
$TDUPDATE
 40
2459173.276655092
  9
$TDUUPDATE
 40
0.000000000
  9
$TDINDWG
 40
0.0000000000
  9
$TDUSRTIMER
 40
0.0000000000
  9
$USRTIMER
 70
     1
  9
$ANGBASE
 50
0.0
  9
$ANGDIR
 70
     0
  9
$PDMODE
 70
     0
  9
$PDSIZE
 40
0.0
  9
$PLINEWID
 40
0.0
  9
$SPLFRAME
 70
     0
  9
$SPLINETYPE
 70
     6
  9
$SPLINESEGS
 70
     8
  9
$HANDSEED
  5
29E
  9
$SURFTAB1
 70
     6
  9
$SURFTAB2
 70
     6
  9
$SURFTYPE
 70
     6
  9
$SURFU
 70
     6
  9
$SURFV
 70
     6
  9
$UCSBASE
  2

  9
$UCSNAME
  2

  9
$UCSORG
 10
0.0
 20
0.0
 30
0.0
  9
$UCSXDIR
 10
1.0
 20
0.0
 30
0.0
  9
$UCSYDIR
 10
0.0
 20
1.0
 30
0.0
  9
$UCSORTHOREF
  2

  9
$UCSORTHOVIEW
 70
     0
  9
$UCSORGTOP
 10
0.0
 20
0.0
 30
0.0
  9
$UCSORGBOTTOM
 10
0.0
 20
0.0
 30
0.0
  9
$UCSORGLEFT
 10
0.0
 20
0.0
 30
0.0
  9
$UCSORGRIGHT
 10
0.0
 20
0.0
 30
0.0
  9
$UCSORGFRONT
 10
0.0
 20
0.0
 30
0.0
  9
$UCSORGBACK
 10
0.0
 20
0.0
 30
0.0
  9
$PUCSBASE
  2

  9
$PUCSNAME
  2

  9
$PUCSORG
 10
0.0
 20
0.0
 30
0.0
  9
$PUCSXDIR
 10
1.0
 20
0.0
 30
0.0
  9
$PUCSYDIR
 10
0.0
 20
1.0
 30
0.0
  9
$PUCSORTHOREF
  2

  9
$PUCSORTHOVIEW
 70
     0
  9
$PUCSORGTOP
 10
0.0
 20
0.0
 30
0.0
  9
$PUCSORGBOTTOM
 10
0.0
 20
0.0
 30
0.0
  9
$PUCSORGLEFT
 10
0.0
 20
0.0
 30
0.0
  9
$PUCSORGRIGHT
 10
0.0
 20
0.0
 30
0.0
  9
$PUCSORGFRONT
 10
0.0
 20
0.0
 30
0.0
  9
$PUCSORGBACK
 10
0.0
 20
0.0
 30
0.0
  9
$USERI1
 70
     0
  9
$USERI2
 70
     0
  9
$USERI3
 70
     0
  9
$USERI4
 70
     0
  9
$USERI5
 70
     0
  9
$USERR1
 40
0.0
  9
$USERR2
 40
0.0
  9
$USERR3
 40
0.0
  9
$USERR4
 40
0.0
  9
$USERR5
 40
0.0
  9
$WORLDVIEW
 70
     1
  9
$SHADEDGE
 70
     3
  9
$SHADEDIF
 70
    70
  9
$TILEMODE
 70
     1
  9
$MAXACTVP
 70
    16
  9
$PINSBASE
 10
0.0
 20
0.0
 30
0.0
  9
$PLIMCHECK
 70
     0
  9
$PEXTMIN
 10
1.000000E+20
 20
1.000000E+20
 30
1.000000E+20
  9
$PEXTMAX
 10
-1.000000E+20
 20
-1.000000E+20
 30
-1.000000E+20
  9
$PLIMMIN
 10
0.0
 20
0.0
  9
$PLIMMAX
 10
12.0
 20
9.0
  9
$UNITMODE
 70
     0
  9
$VISRETAIN
 70
     0
  9
$PLINEGEN
 70
     1
  9
$PSLTSCALE
 70
     0
  9
$TREEDEPTH
 70
  3020
  9
$CMLSTYLE
  2
Standard
  9
$CMLJUST
 70
     0
  9
$CMLSCALE
 40
1.0
  9
$PROXYGRAPHICS
 70
     0
  9
$MEASUREMENT
 70
     0
  9
$CELWEIGHT
370
     0
  9
$ENDCAPS
280
     0
  9
$JOINSTYLE
280
     0
  9
$LWDISPLAY
290
     0
  9
$INSUNITS
 70
     0
  9
$HYPERLINKBASE
  1

  9
$STYLESHEET
  1

  9
$XEDIT
290
     1
  9
$CEPSNTYPE
380
     0
  9
$PSTYLEMODE
290
     1
  9
$FINGERPRINTGUID
  2

  9
$VERSIONGUID
  2

  9
$EXTNAMES
290
     1
  9
$PSVPSCALE
 40
0.0
  0
ENDSEC
  0
SECTION
  2
CLASSES
  0
CLASS
  1
LWPOLYLINE
  2
AcDbPolyline
  3
AutoCAD 2000
 90
        0
280
     0
281
     1
  0
CLASS
  1
IMAGE
  2
AcDbRasterImage
  3
ISM
 90
      127
280
     0
281
     1
  0
CLASS
  1
OLE2FRAME
  2
AcDbOle2Frame
  3
AutoCAD 2000
 90
        0
280
     0
281
     1
  0
CLASS
  1
HATCH
  2
AcDbHatch
  3
AutoCAD 2000
 90
        0
280
     0
281
     1
  0
CLASS
  1
DICTIONARYVAR
  2
AcDbDictionaryVar
  3
AutoCAD 2000
 90
        0
280
     0
281
     0
  0
CLASS
  1
RASTERVARIABLES
  2
AcDbRasterVariables
  3
ISM
 90
        0
280
     0
281
     0
  0
CLASS
  1
IMAGEDEF
  2
AcDbRasterImageDef
  3
ISM
 90
        0
280
     0
281
     0
  0
CLASS
  1
IMAGEDEF_REACTOR
  2
AcDbRasterImageDefReactor
  3
ISM
 90
        1
280
     0
281
     0
  0
CLASS
  1
IDBUFFER
  2
AcDbIdBuffer
  3
AutoCAD 2000
 90
        0
280
     0
281
     0
  0
CLASS
  1
SPATIAL_FILTER
  2
AcDbSpatialFilter
  3
AutoCAD 2000
 90
        0
280
     0
281
     0
  0
CLASS
  1
XRECORD
  2
AcDbXrecord
  3
AutoCAD 2000
 90
        0
280
     0
281
     0
  0
CLASS
  1
SORTENTSTABLE
  2
AcDbSortentsTable
  3
AutoCAD 2000
 90
        0
280
     0
281
     0
  0
CLASS
  1
LAYER_INDEX
  2
AcDbLayerIndex
  3
AutoCAD 2000
 90
        0
280
     0
281
     0
  0
CLASS
  1
SPATIAL_INDEX
  2
AcDbSpatialIndex
  3
AutoCAD 2000
 90
        0
280
     0
281
     0
  0
CLASS
  1
OBJECT_PTR
  2
CAseDLPNTableRecord
  3
"ASE-LPNTableRecord"
 90
        1
280
     0
281
     0
  0
CLASS
  1
LAYOUT
  2
AcDbLayout
  3
AutoCAD 2000
 90
        0
280
     0
281
     0
  0
CLASS
  1
PLOTSETTINGS
  2
AcDbPlotSettings
  3
AutoCAD 2000
 90
        0
280
     0
281
     0
  0
CLASS
  1
ACDBDICTIONARYWDFLT
  2
AcDbDictionaryWithDefault
  3
AutoCAD 2000
 90
        0
280
     0
281
     0
  0
CLASS
  1
ACDBPLACEHOLDER
  2
AcDbPlaceHolder
  3
AutoCAD 2000
 90
        0
280
     0
281
     0
  0
CLASS
  1
VBA_PROJECT
  2
AcDbVbaProject
  3
acadvba
 90
        0
280
     0
281
     0
  0
CLASS
  1
WIPEOUT
  2
AcDbWipeout
  3
WipeOut|AutoCAD Express Tool|expresstools@autodesk.com
 90
      127
280
     0
281
     1
  0
CLASS
  1
WIPEOUTVARIABLES
  2
AcDbWipeoutVariables
  3
WipeOut|AutoCAD Express Tool|expresstools@autodesk.com
 90
        0
280
     0
281
     0
  0
CLASS
  1
RTEXT
  2
RText
  3
RText|AutoCAD Express Tool|expresstools@autodesk.com
 90
        0
280
     0
281
     1
  0
CLASS
  1
ARCALIGNEDTEXT
  2
AcDbArcAlignedText
  3
ATEXT|AutoCAD Express Tool|expresstools@autodesk.com
 90
        0
280
     0
281
     1
  0
ENDSEC
  0
SECTION
  2
TABLES
  0
TABLE
  2
VPORT
  5
7
100
AcDbSymbolTable
 70
     1
  0
VPORT
  5
15
100
AcDbSymbolTableRecord
100
AcDbViewportTableRecord
  2
*ACTIVE
 70
     0
 10
0.0
 20
0.0
 11
1.0
 21
1.0
 12
6.591288
 22
4.579184
 13
0.0
 23
0.0
 14
1.0
 24
1.0
 15
0.0
 25
0.0
 16
0.0
 26
0.0
 36
1.0
 17
0.0
 27
0.0
 37
0.0
 40
9.158369
 41
0.688564
 42
50.0
 43
0.0
 44
0.0
 50
0.0
 51
0.0
 71
     0
 72
   100
 73
     1
 74
     1
 75
     0
 76
     0
 77
     0
 78
     0
281
     0
 65
     0
110
0.0
120
0.0
130
0.0
111
1.0
121
0.0
131
0.0
112
0.0
122
1.0
132
0.0
345
0
346
0
 79
     0
146
0.0
  0
ENDTAB
  0
TABLE
  2
LTYPE
  5
4
100
AcDbSymbolTable
 70
     5
  0
LTYPE
  5
11
100
AcDbSymbolTableRecord
100
AcDbLinetypeTableRecord
  2
ByBlock
 70
    64
  3

 72
    65
 73
     0
 40
0.0
  0
LTYPE
  5
12
100
AcDbSymbolTableRecord
100
AcDbLinetypeTableRecord
  2
ByLayer
 70
    64
  3

 72
    65
 73
     0
 40
0.0
  0
LTYPE
  5
13
100
AcDbSymbolTableRecord
100
AcDbLinetypeTableRecord
  2
Continuous
 70
    64
  3
Solid line
 72
    65
 73
     0
 40
0.0
  0
LTYPE
  5
D2
100
AcDbSymbolTableRecord
100
AcDbLinetypeTableRecord
  2
CENTER
 70
    64
  3
____ _ ____ _ ____ _ ____ _ ____ _ ____ _ ____
 72
    65
 73
     4
 40
2.0
 49
1.25
 74
     0
 49
-0.25
 74
     0
 49
0.25
 74
     0
 49
-0.25
 74
     0
  0
LTYPE
  5
DB
100
AcDbSymbolTableRecord
100
AcDbLinetypeTableRecord
  2
DOT
 70
    64
  3
..............................................
 72
    65
 73
     2
 40
0.5
 49
0.25
 74
     0
 49
-0.25
 74
     0
  0
ENDTAB
  0
TABLE
  2
LAYER
  5
2
100
AcDbSymbolTable
 70
     4
  0
LAYER
  5
14
100
AcDbSymbolTableRecord
100
AcDbLayerTableRecord
  2
0
 70
     0
 62
     7
  6
Continuous
290
     1
370
    -3
390
1D
  0
LAYER
  5
2B
100
AcDbSymbolTableRecord
100
AcDbLayerTableRecord
  2
256
 70
     0
 62
     7
  6
Continuous
290
     1
370
    -3
390
1D
  0
LAYER
  5
BC
100
AcDbSymbolTableRecord
100
AcDbLayerTableRecord
  2
1
 70
     0
 62
     7
  6
Continuous
290
     1
370
    -3
390
1D
  0
LAYER
  5
1D1
100
AcDbSymbolTableRecord
100
AcDbLayerTableRecord
  2
5
 70
     0
 62
    -7
  6
Continuous
290
     1
370
    -3
390
1D
  0
ENDTAB
  0
TABLE
  2
STYLE
  5
3
100
AcDbSymbolTable
 70
     1
  0
STYLE
  5
17
100
AcDbSymbolTableRecord
100
AcDbTextStyleTableRecord
  2
Standard
 70
     0
 40
0.0
 41
1.0
 50
0.0
 71
     0
 42
0.0
  3
ＭＳ Ｐゴシック
  4

1001
ACAD
1000
ＭＳ Ｐゴシック
1071
        0
  0
ENDTAB
  0
TABLE
  2
VIEW
  5
5
100
AcDbSymbolTable
 70
     0
  0
ENDTAB
  0
TABLE
  2
UCS
  5
6
100
AcDbSymbolTable
 70
     0
  0
ENDTAB
  0
TABLE
  2
APPID
  5
8
100
AcDbSymbolTable
 70
     2
  0
APPID
  5
16
100
AcDbSymbolTableRecord
100
AcDbRegAppTableRecord
  2
ACAD
 70
     0
  0
APPID
  5
26
100
AcDbSymbolTableRecord
100
AcDbRegAppTableRecord
  2
TOPsolid_Draft
 70
     0
  0
ENDTAB
  0
TABLE
  2
DIMSTYLE
  5
9
100
AcDbSymbolTable
 70
     1
100
AcDbDimStyleTable
 71
     0
  0
DIMSTYLE
105
18
100
AcDbSymbolTableRecord
100
AcDbDimStyleTableRecord
  2
Standard
 70
     0
  3

  4

 40
1.0
 41
1.8
 42
1.8
 43
0.38
 44
1.8
 45
0.0
 46
0.0
 47
0.0
 48
0.0
 71
     0
 72
     0
 73
     0
 74
     0
 75
     0
 76
     0
 77
     1
 78
     0
 79
     0
140
6.0
141
0.09
142
0.0
143
25.4
144
1.0
145
0.0
146
0.7
147
1.2
148
0.0
170
     0
171
     2
172
     0
173
     0
174
     0
175
     0
176
     7
177
     7
178
     7
179
     0
271
     7
272
     4
273
     2
274
     2
275
     0
276
     0
277
     2
278
    46
279
     0
280
     0
281
     0
282
     0
283
     1
284
     0
285
     0
286
     0
288
     0
289
     3
340
17
341
0
342
0
343
0
344
0
371
    -2
372
    -2
  0
ENDTAB
  0
TABLE
  2
BLOCK_RECORD
  5
1
100
AcDbSymbolTable
 70
    13
  0
BLOCK_RECORD
  5
A
100
AcDbSymbolTableRecord
100
AcDbBlockTableRecord
  2
*MODEL_SPACE
340
20
  0
BLOCK_RECORD
  5
B
100
AcDbSymbolTableRecord
100
AcDbBlockTableRecord
  2
*PAPER_SPACE
340
21
  0
BLOCK_RECORD
  5
B7
100
AcDbSymbolTableRecord
100
AcDbBlockTableRecord
  2
AID287
340
0
102
{BLKREFS
331
BB
102
}
  0
BLOCK_RECORD
  5
1E2
100
AcDbSymbolTableRecord
100
AcDbBlockTableRecord
  2
AID1341
340
0
102
{BLKREFS
331
1F2
102
}
  0
BLOCK_RECORD
  5
1F3
100
AcDbSymbolTableRecord
100
AcDbBlockTableRecord
  2
AID1348
340
0
102
{BLKREFS
331
205
102
}
  0
BLOCK_RECORD
  5
206
100
AcDbSymbolTableRecord
100
AcDbBlockTableRecord
  2
AID1357
340
0
102
{BLKREFS
331
217
102
}
  0
BLOCK_RECORD
  5
218
100
AcDbSymbolTableRecord
100
AcDbBlockTableRecord
  2
AID1365
340
0
102
{BLKREFS
331
22A
102
}
  0
BLOCK_RECORD
  5
22B
100
AcDbSymbolTableRecord
100
AcDbBlockTableRecord
  2
AID1374
340
0
102
{BLKREFS
331
23F
102
}
  0
BLOCK_RECORD
  5
240
100
AcDbSymbolTableRecord
100
AcDbBlockTableRecord
  2
AID1385
340
0
102
{BLKREFS
331
251
102
}
  0
BLOCK_RECORD
  5
252
100
AcDbSymbolTableRecord
100
AcDbBlockTableRecord
  2
AID1393
340
0
102
{BLKREFS
331
265
102
}
  0
BLOCK_RECORD
  5
266
100
AcDbSymbolTableRecord
100
AcDbBlockTableRecord
  2
AID1403
340
0
102
{BLKREFS
331
279
102
}
  0
BLOCK_RECORD
  5
27A
100
AcDbSymbolTableRecord
100
AcDbBlockTableRecord
  2
AID1413
340
0
102
{BLKREFS
331
28E
102
}
  0
BLOCK_RECORD
  5
28F
100
AcDbSymbolTableRecord
100
AcDbBlockTableRecord
  2
AID1424
340
0
102
{BLKREFS
331
293
102
}
  0
BLOCK_RECORD
  5
294
100
AcDbSymbolTableRecord
100
AcDbBlockTableRecord
  2
AID1428
340
0
102
{BLKREFS
331
298
102
}
  0
BLOCK_RECORD
  5
299
100
AcDbSymbolTableRecord
100
AcDbBlockTableRecord
  2
AID1432
340
0
102
{BLKREFS
331
29D
102
}
  0
ENDTAB
  0
ENDSEC
  0
SECTION
  2
BLOCKS
  0
BLOCK
  5
D
100
AcDbEntity
  8
0
390
0
100
AcDbBlockBegin
  2
*MODEL_SPACE
 70
     0
 10
0.0
 20
0.0
 30
0.0
  3
*MODEL_SPACE
  1

  0
ENDBLK
  5
E
100
AcDbEntity
  8
0
390
0
100
AcDbBlockEnd
  0
BLOCK
  5
F
100
AcDbEntity
 67
     1
  8
0
390
0
100
AcDbBlockBegin
  2
*PAPER_SPACE
 70
     0
 10
0.0
 20
0.0
 30
0.0
  3
*PAPER_SPACE
  1

  0
ENDBLK
  5
10
100
AcDbEntity
 67
     1
  8
0
390
0
100
AcDbBlockEnd
  0
BLOCK
  5
B8
100
AcDbEntity
  8
0
390
0
100
AcDbBlockBegin
  2
AID287
 70
     0
 10
0.0
 20
0.0
 30
0.0
  3
DNote#note referencing elements
  1

  0
MTEXT
  5
B9
100
AcDbEntity
  8
256
390
0
 62
     2
100
AcDbMText
 10
406.171318
 20
6.951938
 30
0.0
 40
3.0
 41
7.472727
 71
     7
 72
     1
  1
A3
210
0.0
220
0.0
230
1.0
 73
     1
 44
1.0
  0
ENDBLK
  5
BA
100
AcDbEntity
  8
0
390
0
100
AcDbBlockEnd
  0
BLOCK
  5
1E3
100
AcDbEntity
  8
0
390
0
100
AcDbBlockBegin
  2
AID1341
 70
     0
 10
0.0
 20
0.0
 30
0.0
  3
DIMENS
  1

  0
MTEXT
  5
1E4
100
AcDbEntity
  8
1
390
0
 62
     2
100
AcDbMText
 10
250.397871
 20
128.14739
 30
0.0
 40
6.0
 41
9.490909
 71
     7
 72
     1
  1
Φ
210
0.0
220
0.0
230
1.0
 11
0.0
 21
1.0
 31
0.0
 73
     1
 44
1.0
  0
MTEXT
  5
1E5
100
AcDbEntity
  8
1
390
0
 62
     2
100
AcDbMText
 10
250.397871
 20
134.092845
 30
0.0
 40
6.0
 41
15.654545
 71
     7
 72
     1
  1
3.4
210
0.0
220
0.0
230
1.0
 11
0.0
 21
1.0
 31
0.0
 73
     1
 44
1.0
  0
LINE
  5
1E6
100
AcDbEntity
  8
1
390
0
  6
Continuous
 62
    11
100
AcDbLine
 10
251.570598
 20
110.538299
 30
0.0
 11
251.570598
 21
142.874663
 31
0.0
  0
POLYLINE
  5
1E7
100
AcDbEntity
  8
1
390
0
  6
Continuous
 62
    11
100
AcDb2dPolyline
 66
     1
 10
0.0
 20
0.0
 30
0.0
 40
1.0
 41
1.0
  0
VERTEX
  5
1E8
100
AcDbEntity
  8
1
390
0
 62
    11
100
AcDbVertex
100
AcDb2dVertex
 10
252.470598
 20
115.038299
 30
0.0
  0
VERTEX
  5
1E9
100
AcDbEntity
  8
1
390
0
 62
    11
100
AcDbVertex
100
AcDb2dVertex
 10
251.570598
 20
119.538299
 30
0.0
  0
VERTEX
  5
1EA
100
AcDbEntity
  8
1
390
0
 62
    11
100
AcDbVertex
100
AcDb2dVertex
 10
250.670598
 20
115.038299
 30
0.0
  0
SEQEND
  5
1EB
100
AcDbEntity
  8
0
390
0
  0
POLYLINE
  5
1EC
100
AcDbEntity
  8
1
390
0
  6
Continuous
 62
    11
100
AcDb2dPolyline
 66
     1
 10
0.0
 20
0.0
 30
0.0
 40
1.0
 41
1.0
  0
VERTEX
  5
1ED
100
AcDbEntity
  8
1
390
0
 62
    11
100
AcDbVertex
100
AcDb2dVertex
 10
250.670598
 20
127.438299
 30
0.0
  0
VERTEX
  5
1EE
100
AcDbEntity
  8
1
390
0
 62
    11
100
AcDbVertex
100
AcDb2dVertex
 10
251.570598
 20
122.938299
 30
0.0
  0
VERTEX
  5
1EF
100
AcDbEntity
  8
1
390
0
 62
    11
100
AcDbVertex
100
AcDb2dVertex
 10
252.470598
 20
127.438299
 30
0.0
  0
SEQEND
  5
1F0
100
AcDbEntity
  8
0
390
0
  0
ENDBLK
  5
1F1
100
AcDbEntity
  8
0
390
0
100
AcDbBlockEnd
  0
BLOCK
  5
1F4
100
AcDbEntity
  8
0
390
0
100
AcDbBlockBegin
  2
AID1348
 70
     0
 10
0.0
 20
0.0
 30
0.0
  3
DIMENS
  1

  0
MTEXT
  5
1F5
100
AcDbEntity
  8
1
390
0
 62
     2
100
AcDbMText
 10
330.117287
 20
131.34739
 30
0.0
 40
6.0
 41
9.490909
 71
     7
 72
     1
  1
Φ
210
0.0
220
0.0
230
1.0
 11
0.0
 21
1.0
 31
0.0
 73
     1
 44
1.0
  0
MTEXT
  5
1F6
100
AcDbEntity
  8
1
390
0
 62
     2
100
AcDbMText
 10
330.117287
 20
137.292845
 30
0.0
 40
6.0
 41
15.381818
 71
     7
 72
     1
  1
9.8
210
0.0
220
0.0
230
1.0
 11
0.0
 21
1.0
 31
0.0
 73
     1
 44
1.0
  0
LINE
  5
1F7
100
AcDbEntity
  8
1
390
0
  6
Continuous
 62
    11
100
AcDbLine
 10
331.290014
 20
145.965572
 30
0.0
 11
331.290014
 21
107.338299
 31
0.0
  0
LINE
  5
1F8
100
AcDbEntity
  8
1
390
0
  6
Continuous
 62
    11
100
AcDbLine
 10
309.706894
 20
126.138299
 30
0.0
 11
333.090014
 21
126.138299
 31
0.0
  0
LINE
  5
1F9
100
AcDbEntity
  8
1
390
0
  6
Continuous
 62
    11
100
AcDbLine
 10
309.706894
 20
116.338299
 30
0.0
 11
333.090014
 21
116.338299
 31
0.0
  0
POLYLINE
  5
1FA
100
AcDbEntity
  8
1
390
0
  6
Continuous
 62
    11
100
AcDb2dPolyline
 66
     1
 10
0.0
 20
0.0
 30
0.0
 40
1.0
 41
1.0
  0
VERTEX
  5
1FB
100
AcDbEntity
  8
1
390
0
 62
    11
100
AcDbVertex
100
AcDb2dVertex
 10
330.390014
 20
130.638299
 30
0.0
  0
VERTEX
  5
1FC
100
AcDbEntity
  8
1
390
0
 62
    11
100
AcDbVertex
100
AcDb2dVertex
 10
331.290014
 20
126.138299
 30
0.0
  0
VERTEX
  5
1FD
100
AcDbEntity
  8
1
390
0
 62
    11
100
AcDbVertex
100
AcDb2dVertex
 10
332.190014
 20
130.638299
 30
0.0
  0
SEQEND
  5
1FE
100
AcDbEntity
  8
0
390
0
  0
POLYLINE
  5
1FF
100
AcDbEntity
  8
1
390
0
  6
Continuous
 62
    11
100
AcDb2dPolyline
 66
     1
 10
0.0
 20
0.0
 30
0.0
 40
1.0
 41
1.0
  0
VERTEX
  5
200
100
AcDbEntity
  8
1
390
0
 62
    11
100
AcDbVertex
100
AcDb2dVertex
 10
332.190014
 20
111.838299
 30
0.0
  0
VERTEX
  5
201
100
AcDbEntity
  8
1
390
0
 62
    11
100
AcDbVertex
100
AcDb2dVertex
 10
331.290014
 20
116.338299
 30
0.0
  0
VERTEX
  5
202
100
AcDbEntity
  8
1
390
0
 62
    11
100
AcDbVertex
100
AcDb2dVertex
 10
330.390014
 20
111.838299
 30
0.0
  0
SEQEND
  5
203
100
AcDbEntity
  8
0
390
0
  0
ENDBLK
  5
204
100
AcDbEntity
  8
0
390
0
100
AcDbBlockEnd
  0
BLOCK
  5
207
100
AcDbEntity
  8
0
390
0
100
AcDbBlockBegin
  2
AID1357
 70
     0
 10
0.0
 20
0.0
 30
0.0
  3
DIMENS
  1

  0
MTEXT
  5
208
100
AcDbEntity
  8
1
390
0
 62
     2
100
AcDbMText
 10
234.82186
 20
100.409714
 30
0.0
 40
6.0
 41
25.963636
 71
     7
 72
     1
  1
1500
210
0.0
220
0.0
230
1.0
 73
     1
 44
1.0
  0
LINE
  5
209
100
AcDbEntity
  8
1
390
0
  6
Continuous
 62
    11
100
AcDbLine
 10
316.956894
 20
99.236987
 30
0.0
 11
167.141373
 21
99.236987
 31
0.0
  0
LINE
  5
20A
100
AcDbEntity
  8
1
390
0
  6
Continuous
 62
    11
100
AcDbLine
 10
316.956894
 20
118.588299
 30
0.0
 11
316.956894
 21
97.436987
 31
0.0
  0
LINE
  5
20B
100
AcDbEntity
  8
1
390
0
  6
Continuous
 62
    11
100
AcDbLine
 10
167.141373
 20
117.488299
 30
0.0
 11
167.141373
 21
97.436987
 31
0.0
  0
POLYLINE
  5
20C
100
AcDbEntity
  8
1
390
0
  6
Continuous
 62
    11
100
AcDb2dPolyline
 66
     1
 10
0.0
 20
0.0
 30
0.0
 40
1.0
 41
1.0
  0
VERTEX
  5
20D
100
AcDbEntity
  8
1
390
0
 62
    11
100
AcDbVertex
100
AcDb2dVertex
 10
312.456894
 20
100.136987
 30
0.0
  0
VERTEX
  5
20E
100
AcDbEntity
  8
1
390
0
 62
    11
100
AcDbVertex
100
AcDb2dVertex
 10
316.956894
 20
99.236987
 30
0.0
  0
VERTEX
  5
20F
100
AcDbEntity
  8
1
390
0
 62
    11
100
AcDbVertex
100
AcDb2dVertex
 10
312.456894
 20
98.336987
 30
0.0
  0
SEQEND
  5
210
100
AcDbEntity
  8
0
390
0
  0
POLYLINE
  5
211
100
AcDbEntity
  8
1
390
0
  6
Continuous
 62
    11
100
AcDb2dPolyline
 66
     1
 10
0.0
 20
0.0
 30
0.0
 40
1.0
 41
1.0
  0
VERTEX
  5
212
100
AcDbEntity
  8
1
390
0
 62
    11
100
AcDbVertex
100
AcDb2dVertex
 10
171.641373
 20
98.336987
 30
0.0
  0
VERTEX
  5
213
100
AcDbEntity
  8
1
390
0
 62
    11
100
AcDbVertex
100
AcDb2dVertex
 10
167.141373
 20
99.236987
 30
0.0
  0
VERTEX
  5
214
100
AcDbEntity
  8
1
390
0
 62
    11
100
AcDbVertex
100
AcDb2dVertex
 10
171.641373
 20
100.136987
 30
0.0
  0
SEQEND
  5
215
100
AcDbEntity
  8
0
390
0
  0
ENDBLK
  5
216
100
AcDbEntity
  8
0
390
0
100
AcDbBlockEnd
  0
BLOCK
  5
219
100
AcDbEntity
  8
0
390
0
100
AcDbBlockBegin
  2
AID1365
 70
     0
 10
0.0
 20
0.0
 30
0.0
  3
DIMENS
  1

  0
MTEXT
  5
21A
100
AcDbEntity
  8
1
390
0
 62
     2
100
AcDbMText
 10
171.350464
 20
132.652751
 30
0.0
 40
6.0
 41
9.490909
 71
     7
 72
     1
  1
Φ
210
0.0
220
0.0
230
1.0
 11
1.0
 21
0.0
 31
0.0
 73
     1
 44
1.0
  0
MTEXT
  5
21B
100
AcDbEntity
  8
1
390
0
 62
     2
100
AcDbMText
 10
177.295918
 20
132.652751
 30
0.0
 40
6.0
 41
5.563636
 71
     7
 72
     1
  1
3
210
0.0
220
0.0
230
1.0
 11
1.0
 21
0.0
 31
0.0
 73
     1
 44
1.0
  0
MTEXT
  5
21C
100
AcDbEntity
  8
1
390
0
 62
     2
100
AcDbMText
 10
183.432282
 20
131.452751
 30
0.0
 40
4.2
 41
20.770909
 71
     7
 72
     1
  1
-0.02
210
0.0
220
0.0
230
1.0
 11
1.0
 21
0.0
 31
0.0
 73
     1
 44
1.0
  0
MTEXT
  5
21D
100
AcDbEntity
  8
1
390
0
 62
     2
100
AcDbMText
 10
183.432282
 20
136.340024
 30
0.0
 40
4.2
 41
19.434545
 71
     7
 72
     1
  1
-0.01
210
0.0
220
0.0
230
1.0
 11
1.0
 21
0.0
 31
0.0
 73
     1
 44
1.0
  0
LINE
  5
21E
100
AcDbEntity
  8
1
390
0
  6
Continuous
 62
    11
100
AcDbLine
 10
194.551373
 20
130.290933
 30
0.0
 11
154.141373
 21
130.290933
 31
0.0
  0
POLYLINE
  5
21F
100
AcDbEntity
  8
1
390
0
  6
Continuous
 62
    11
100
AcDb2dPolyline
 66
     1
 10
0.0
 20
0.0
 30
0.0
 40
1.0
 41
1.0
  0
VERTEX
  5
220
100
AcDbEntity
  8
1
390
0
 62
    11
100
AcDbVertex
100
AcDb2dVertex
 10
170.641373
 20
131.190933
 30
0.0
  0
VERTEX
  5
221
100
AcDbEntity
  8
1
390
0
 62
    11
100
AcDbVertex
100
AcDb2dVertex
 10
166.141373
 20
130.290933
 30
0.0
  0
VERTEX
  5
222
100
AcDbEntity
  8
1
390
0
 62
    11
100
AcDbVertex
100
AcDb2dVertex
 10
170.641373
 20
129.390933
 30
0.0
  0
SEQEND
  5
223
100
AcDbEntity
  8
0
390
0
  0
POLYLINE
  5
224
100
AcDbEntity
  8
1
390
0
  6
Continuous
 62
    11
100
AcDb2dPolyline
 66
     1
 10
0.0
 20
0.0
 30
0.0
 40
1.0
 41
1.0
  0
VERTEX
  5
225
100
AcDbEntity
  8
1
390
0
 62
    11
100
AcDbVertex
100
AcDb2dVertex
 10
158.641373
 20
129.390933
 30
0.0
  0
VERTEX
  5
226
100
AcDbEntity
  8
1
390
0
 62
    11
100
AcDbVertex
100
AcDb2dVertex
 10
163.141373
 20
130.290933
 30
0.0
  0
VERTEX
  5
227
100
AcDbEntity
  8
1
390
0
 62
    11
100
AcDbVertex
100
AcDb2dVertex
 10
158.641373
 20
131.190933
 30
0.0
  0
SEQEND
  5
228
100
AcDbEntity
  8
0
390
0
  0
ENDBLK
  5
229
100
AcDbEntity
  8
0
390
0
100
AcDbBlockEnd
  0
BLOCK
  5
22C
100
AcDbEntity
  8
0
390
0
100
AcDbBlockBegin
  2
AID1374
 70
     0
 10
0.0
 20
0.0
 30
0.0
  3
DIMENS
  1

  0
MTEXT
  5
22D
100
AcDbEntity
  8
1
390
0
 62
     2
100
AcDbMText
 10
170.700464
 20
165.628509
 30
0.0
 40
6.0
 41
9.490909
 71
     7
 72
     1
  1
Φ
210
0.0
220
0.0
230
1.0
 73
     1
 44
1.0
  0
MTEXT
  5
22E
100
AcDbEntity
  8
1
390
0
 62
     2
100
AcDbMText
 10
176.645918
 20
165.628509
 30
0.0
 40
6.0
 41
14.454545
 71
     7
 72
     1
  1
1.7
210
0.0
220
0.0
230
1.0
 73
     1
 44
1.0
  0
MTEXT
  5
22F
100
AcDbEntity
  8
1
390
0
 62
     2
100
AcDbMText
 10
187.609555
 20
164.428509
 30
0.0
 40
4.2
 41
25.62
 71
     7
 72
     1
  1
-0.006
210
0.0
220
0.0
230
1.0
 73
     1
 44
1.0
  0
MTEXT
  5
230
100
AcDbEntity
  8
1
390
0
 62
     2
100
AcDbMText
 10
187.609555
 20
169.315781
 30
0.0
 40
4.2
 41
4.2
 71
     7
 72
     1
  1
 0
210
0.0
220
0.0
230
1.0
 73
     1
 44
1.0
  0
LINE
  5
231
100
AcDbEntity
  8
1
390
0
  6
Continuous
 62
    11
100
AcDbLine
 10
201.153191
 20
163.2476
 30
0.0
 11
154.791373
 21
163.2476
 31
0.0
  0
LINE
  5
232
100
AcDbEntity
  8
1
390
0
  6
Continuous
 62
    11
100
AcDbLine
 10
165.491373
 20
150.988299
 30
0.0
 11
165.491373
 21
165.0476
 31
0.0
  0
LINE
  5
233
100
AcDbEntity
  8
1
390
0
  6
Continuous
 62
    11
100
AcDbLine
 10
163.791373
 20
150.988299
 30
0.0
 11
163.791373
 21
165.0476
 31
0.0
  0
POLYLINE
  5
234
100
AcDbEntity
  8
1
390
0
  6
Continuous
 62
    11
100
AcDb2dPolyline
 66
     1
 10
0.0
 20
0.0
 30
0.0
 40
1.0
 41
1.0
  0
VERTEX
  5
235
100
AcDbEntity
  8
1
390
0
 62
    11
100
AcDbVertex
100
AcDb2dVertex
 10
169.991373
 20
164.1476
 30
0.0
  0
VERTEX
  5
236
100
AcDbEntity
  8
1
390
0
 62
    11
100
AcDbVertex
100
AcDb2dVertex
 10
165.491373
 20
163.2476
 30
0.0
  0
VERTEX
  5
237
100
AcDbEntity
  8
1
390
0
 62
    11
100
AcDbVertex
100
AcDb2dVertex
 10
169.991373
 20
162.3476
 30
0.0
  0
SEQEND
  5
238
100
AcDbEntity
  8
0
390
0
  0
POLYLINE
  5
239
100
AcDbEntity
  8
1
390
0
  6
Continuous
 62
    11
100
AcDb2dPolyline
 66
     1
 10
0.0
 20
0.0
 30
0.0
 40
1.0
 41
1.0
  0
VERTEX
  5
23A
100
AcDbEntity
  8
1
390
0
 62
    11
100
AcDbVertex
100
AcDb2dVertex
 10
159.291373
 20
162.3476
 30
0.0
  0
VERTEX
  5
23B
100
AcDbEntity
  8
1
390
0
 62
    11
100
AcDbVertex
100
AcDb2dVertex
 10
163.791373
 20
163.2476
 30
0.0
  0
VERTEX
  5
23C
100
AcDbEntity
  8
1
390
0
 62
    11
100
AcDbVertex
100
AcDb2dVertex
 10
159.291373
 20
164.1476
 30
0.0
  0
SEQEND
  5
23D
100
AcDbEntity
  8
0
390
0
  0
ENDBLK
  5
23E
100
AcDbEntity
  8
0
390
0
100
AcDbBlockEnd
  0
BLOCK
  5
241
100
AcDbEntity
  8
0
390
0
100
AcDbBlockBegin
  2
AID1385
 70
     0
 10
0.0
 20
0.0
 30
0.0
  3
DIMENS
  1

  0
MTEXT
  5
242
100
AcDbEntity
  8
1
390
0
 62
     2
100
AcDbMText
 10
149.191456
 20
155.161027
 30
0.0
 40
6.0
 41
5.672727
 71
     7
 72
     1
  1
8
210
0.0
220
0.0
230
1.0
 11
0.0
 21
1.0
 31
0.0
 73
     1
 44
1.0
  0
LINE
  5
243
100
AcDbEntity
  8
1
390
0
  6
Continuous
 62
    11
100
AcDbLine
 10
150.364183
 20
158.924663
 30
0.0
 11
150.364183
 21
132.188299
 31
0.0
  0
LINE
  5
244
100
AcDbEntity
  8
1
390
0
  6
Continuous
 62
    11
100
AcDbLine
 10
161.991373
 20
149.188299
 30
0.0
 11
148.564183
 21
149.188299
 31
0.0
  0
LINE
  5
245
100
AcDbEntity
  8
1
390
0
  6
Continuous
 62
    11
100
AcDbLine
 10
161.991373
 20
141.188299
 30
0.0
 11
148.564183
 21
141.188299
 31
0.0
  0
POLYLINE
  5
246
100
AcDbEntity
  8
1
390
0
  6
Continuous
 62
    11
100
AcDb2dPolyline
 66
     1
 10
0.0
 20
0.0
 30
0.0
 40
1.0
 41
1.0
  0
VERTEX
  5
247
100
AcDbEntity
  8
1
390
0
 62
    11
100
AcDbVertex
100
AcDb2dVertex
 10
149.464183
 20
153.688299
 30
0.0
  0
VERTEX
  5
248
100
AcDbEntity
  8
1
390
0
 62
    11
100
AcDbVertex
100
AcDb2dVertex
 10
150.364183
 20
149.188299
 30
0.0
  0
VERTEX
  5
249
100
AcDbEntity
  8
1
390
0
 62
    11
100
AcDbVertex
100
AcDb2dVertex
 10
151.264183
 20
153.688299
 30
0.0
  0
SEQEND
  5
24A
100
AcDbEntity
  8
0
390
0
  0
POLYLINE
  5
24B
100
AcDbEntity
  8
1
390
0
  6
Continuous
 62
    11
100
AcDb2dPolyline
 66
     1
 10
0.0
 20
0.0
 30
0.0
 40
1.0
 41
1.0
  0
VERTEX
  5
24C
100
AcDbEntity
  8
1
390
0
 62
    11
100
AcDbVertex
100
AcDb2dVertex
 10
151.264183
 20
136.688299
 30
0.0
  0
VERTEX
  5
24D
100
AcDbEntity
  8
1
390
0
 62
    11
100
AcDbVertex
100
AcDb2dVertex
 10
150.364183
 20
141.188299
 30
0.0
  0
VERTEX
  5
24E
100
AcDbEntity
  8
1
390
0
 62
    11
100
AcDbVertex
100
AcDb2dVertex
 10
149.464183
 20
136.688299
 30
0.0
  0
SEQEND
  5
24F
100
AcDbEntity
  8
0
390
0
  0
ENDBLK
  5
250
100
AcDbEntity
  8
0
390
0
100
AcDbBlockEnd
  0
BLOCK
  5
253
100
AcDbEntity
  8
0
390
0
100
AcDbBlockBegin
  2
AID1393
 70
     0
 10
0.0
 20
0.0
 30
0.0
  3
DIMENS
  1

  0
MTEXT
  5
254
100
AcDbEntity
  8
1
390
0
 62
     2
100
AcDbMText
 10
135.824649
 20
123.883299
 30
0.0
 40
6.0
 41
12.763636
 71
     7
 72
     1
  1
30
210
0.0
220
0.0
230
1.0
 11
0.0
 21
1.0
 31
0.0
 73
     1
 44
1.0
  0
MTEXT
  5
255
100
AcDbEntity
  8
1
390
0
 62
     2
100
AcDbMText
 10
137.024649
 20
133.619663
 30
0.0
 40
4.2
 41
4.2
 71
     7
 72
     1
  1
 0
210
0.0
220
0.0
230
1.0
 11
0.0
 21
1.0
 31
0.0
 73
     1
 44
1.0
  0
MTEXT
  5
256
100
AcDbEntity
  8
1
390
0
 62
     2
100
AcDbMText
 10
132.137377
 20
133.619663
 30
0.0
 40
4.2
 41
20.770909
 71
     7
 72
     1
  1
+0.02
210
0.0
220
0.0
230
1.0
 11
0.0
 21
1.0
 31
0.0
 73
     1
 44
1.0
  0
LINE
  5
257
100
AcDbEntity
  8
1
390
0
  6
Continuous
 62
    11
100
AcDbLine
 10
138.186467
 20
149.188299
 30
0.0
 11
138.186467
 21
119.188299
 31
0.0
  0
LINE
  5
258
100
AcDbEntity
  8
1
390
0
  6
Continuous
 62
    11
100
AcDbLine
 10
161.991373
 20
149.188299
 30
0.0
 11
136.386467
 21
149.188299
 31
0.0
  0
LINE
  5
259
100
AcDbEntity
  8
1
390
0
  6
Continuous
 62
    11
100
AcDbLine
 10
160.341373
 20
119.188299
 30
0.0
 11
136.386467
 21
119.188299
 31
0.0
  0
POLYLINE
  5
25A
100
AcDbEntity
  8
1
390
0
  6
Continuous
 62
    11
100
AcDb2dPolyline
 66
     1
 10
0.0
 20
0.0
 30
0.0
 40
1.0
 41
1.0
  0
VERTEX
  5
25B
100
AcDbEntity
  8
1
390
0
 62
    11
100
AcDbVertex
100
AcDb2dVertex
 10
137.286467
 20
144.688299
 30
0.0
  0
VERTEX
  5
25C
100
AcDbEntity
  8
1
390
0
 62
    11
100
AcDbVertex
100
AcDb2dVertex
 10
138.186467
 20
149.188299
 30
0.0
  0
VERTEX
  5
25D
100
AcDbEntity
  8
1
390
0
 62
    11
100
AcDbVertex
100
AcDb2dVertex
 10
139.086467
 20
144.688299
 30
0.0
  0
SEQEND
  5
25E
100
AcDbEntity
  8
0
390
0
  0
POLYLINE
  5
25F
100
AcDbEntity
  8
1
390
0
  6
Continuous
 62
    11
100
AcDb2dPolyline
 66
     1
 10
0.0
 20
0.0
 30
0.0
 40
1.0
 41
1.0
  0
VERTEX
  5
260
100
AcDbEntity
  8
1
390
0
 62
    11
100
AcDbVertex
100
AcDb2dVertex
 10
139.086467
 20
123.688299
 30
0.0
  0
VERTEX
  5
261
100
AcDbEntity
  8
1
390
0
 62
    11
100
AcDbVertex
100
AcDb2dVertex
 10
138.186467
 20
119.188299
 30
0.0
  0
VERTEX
  5
262
100
AcDbEntity
  8
1
390
0
 62
    11
100
AcDbVertex
100
AcDb2dVertex
 10
137.286467
 20
123.688299
 30
0.0
  0
SEQEND
  5
263
100
AcDbEntity
  8
0
390
0
  0
ENDBLK
  5
264
100
AcDbEntity
  8
0
390
0
100
AcDbBlockEnd
  0
BLOCK
  5
267
100
AcDbEntity
  8
0
390
0
100
AcDbBlockBegin
  2
AID1403
 70
     0
 10
0.0
 20
0.0
 30
0.0
  3
DIMENS
  1

  0
MTEXT
  5
268
100
AcDbEntity
  8
1
390
0
 62
     2
100
AcDbMText
 10
67.966688
 20
129.242845
 30
0.0
 40
6.0
 41
6.054545
 71
     7
 72
     1
  1
4
210
0.0
220
0.0
230
1.0
 11
0.0
 21
1.0
 31
0.0
 73
     1
 44
1.0
  0
MTEXT
  5
269
100
AcDbEntity
  8
1
390
0
 62
     2
100
AcDbMText
 10
69.166688
 20
135.515572
 30
0.0
 40
4.2
 41
20.770909
 71
     7
 72
     1
  1
-0.05
210
0.0
220
0.0
230
1.0
 11
0.0
 21
1.0
 31
0.0
 73
     1
 44
1.0
  0
MTEXT
  5
26A
100
AcDbEntity
  8
1
390
0
 62
     2
100
AcDbMText
 10
64.279416
 20
135.515572
 30
0.0
 40
4.2
 41
4.2
 71
     7
 72
     1
  1
 0
210
0.0
220
0.0
230
1.0
 11
0.0
 21
1.0
 31
0.0
 73
     1
 44
1.0
  0
LINE
  5
26B
100
AcDbEntity
  8
1
390
0
  6
Continuous
 62
    11
100
AcDbLine
 10
70.347598
 20
146.634663
 30
0.0
 11
70.347598
 21
110.188299
 31
0.0
  0
LINE
  5
26C
100
AcDbEntity
  8
1
390
0
  6
Continuous
 62
    11
100
AcDbLine
 10
79.615135
 20
123.188299
 30
0.0
 11
68.547598
 21
123.188299
 31
0.0
  0
LINE
  5
26D
100
AcDbEntity
  8
1
390
0
  6
Continuous
 62
    11
100
AcDbLine
 10
79.915135
 20
119.188299
 30
0.0
 11
68.547598
 21
119.188299
 31
0.0
  0
POLYLINE
  5
26E
100
AcDbEntity
  8
1
390
0
  6
Continuous
 62
    11
100
AcDb2dPolyline
 66
     1
 10
0.0
 20
0.0
 30
0.0
 40
1.0
 41
1.0
  0
VERTEX
  5
26F
100
AcDbEntity
  8
1
390
0
 62
    11
100
AcDbVertex
100
AcDb2dVertex
 10
69.447598
 20
127.688299
 30
0.0
  0
VERTEX
  5
270
100
AcDbEntity
  8
1
390
0
 62
    11
100
AcDbVertex
100
AcDb2dVertex
 10
70.347598
 20
123.188299
 30
0.0
  0
VERTEX
  5
271
100
AcDbEntity
  8
1
390
0
 62
    11
100
AcDbVertex
100
AcDb2dVertex
 10
71.247598
 20
127.688299
 30
0.0
  0
SEQEND
  5
272
100
AcDbEntity
  8
0
390
0
  0
POLYLINE
  5
273
100
AcDbEntity
  8
1
390
0
  6
Continuous
 62
    11
100
AcDb2dPolyline
 66
     1
 10
0.0
 20
0.0
 30
0.0
 40
1.0
 41
1.0
  0
VERTEX
  5
274
100
AcDbEntity
  8
1
390
0
 62
    11
100
AcDbVertex
100
AcDb2dVertex
 10
71.247598
 20
114.688299
 30
0.0
  0
VERTEX
  5
275
100
AcDbEntity
  8
1
390
0
 62
    11
100
AcDbVertex
100
AcDb2dVertex
 10
70.347598
 20
119.188299
 30
0.0
  0
VERTEX
  5
276
100
AcDbEntity
  8
1
390
0
 62
    11
100
AcDbVertex
100
AcDb2dVertex
 10
69.447598
 20
114.688299
 30
0.0
  0
SEQEND
  5
277
100
AcDbEntity
  8
0
390
0
  0
ENDBLK
  5
278
100
AcDbEntity
  8
0
390
0
100
AcDbBlockEnd
  0
BLOCK
  5
27B
100
AcDbEntity
  8
0
390
0
100
AcDbBlockBegin
  2
AID1413
 70
     0
 10
0.0
 20
0.0
 30
0.0
  3
DIMENS
  1

  0
MTEXT
  5
27C
100
AcDbEntity
  8
1
390
0
 62
     2
100
AcDbMText
 10
92.424226
 20
108.340863
 30
0.0
 40
6.0
 41
9.490909
 71
     7
 72
     1
  1
Φ
210
0.0
220
0.0
230
1.0
 73
     1
 44
1.0
  0
MTEXT
  5
27D
100
AcDbEntity
  8
1
390
0
 62
     2
100
AcDbMText
 10
98.369681
 20
108.340863
 30
0.0
 40
6.0
 41
5.454545
 71
     7
 72
     1
  1
6
210
0.0
220
0.0
230
1.0
 73
     1
 44
1.0
  0
MTEXT
  5
27E
100
AcDbEntity
  8
1
390
0
 62
     2
100
AcDbMText
 10
104.478772
 20
107.140863
 30
0.0
 40
4.2
 41
20.770909
 71
     7
 72
     1
  1
-0.05
210
0.0
220
0.0
230
1.0
 73
     1
 44
1.0
  0
MTEXT
  5
27F
100
AcDbEntity
  8
1
390
0
 62
     2
100
AcDbMText
 10
104.478772
 20
112.028136
 30
0.0
 40
4.2
 41
4.2
 71
     7
 72
     1
  1
 0
210
0.0
220
0.0
230
1.0
 73
     1
 44
1.0
  0
LINE
  5
280
100
AcDbEntity
  8
1
390
0
  6
Continuous
 62
    11
100
AcDbLine
 10
72.215135
 20
105.959954
 30
0.0
 11
115.597863
 21
105.959954
 31
0.0
  0
LINE
  5
281
100
AcDbEntity
  8
1
390
0
  6
Continuous
 62
    11
100
AcDbLine
 10
81.215135
 20
117.488299
 30
0.0
 11
81.215135
 21
104.159954
 31
0.0
  0
LINE
  5
282
100
AcDbEntity
  8
1
390
0
  6
Continuous
 62
    11
100
AcDbLine
 10
87.215135
 20
117.488299
 30
0.0
 11
87.215135
 21
104.159954
 31
0.0
  0
POLYLINE
  5
283
100
AcDbEntity
  8
1
390
0
  6
Continuous
 62
    11
100
AcDb2dPolyline
 66
     1
 10
0.0
 20
0.0
 30
0.0
 40
1.0
 41
1.0
  0
VERTEX
  5
284
100
AcDbEntity
  8
1
390
0
 62
    11
100
AcDbVertex
100
AcDb2dVertex
 10
76.715135
 20
105.059954
 30
0.0
  0
VERTEX
  5
285
100
AcDbEntity
  8
1
390
0
 62
    11
100
AcDbVertex
100
AcDb2dVertex
 10
81.215135
 20
105.959954
 30
0.0
  0
VERTEX
  5
286
100
AcDbEntity
  8
1
390
0
 62
    11
100
AcDbVertex
100
AcDb2dVertex
 10
76.715135
 20
106.859954
 30
0.0
  0
SEQEND
  5
287
100
AcDbEntity
  8
0
390
0
  0
POLYLINE
  5
288
100
AcDbEntity
  8
1
390
0
  6
Continuous
 62
    11
100
AcDb2dPolyline
 66
     1
 10
0.0
 20
0.0
 30
0.0
 40
1.0
 41
1.0
  0
VERTEX
  5
289
100
AcDbEntity
  8
1
390
0
 62
    11
100
AcDbVertex
100
AcDb2dVertex
 10
91.715135
 20
106.859954
 30
0.0
  0
VERTEX
  5
28A
100
AcDbEntity
  8
1
390
0
 62
    11
100
AcDbVertex
100
AcDb2dVertex
 10
87.215135
 20
105.959954
 30
0.0
  0
VERTEX
  5
28B
100
AcDbEntity
  8
1
390
0
 62
    11
100
AcDbVertex
100
AcDb2dVertex
 10
91.715135
 20
105.059954
 30
0.0
  0
SEQEND
  5
28C
100
AcDbEntity
  8
0
390
0
  0
ENDBLK
  5
28D
100
AcDbEntity
  8
0
390
0
100
AcDbBlockEnd
  0
BLOCK
  5
290
100
AcDbEntity
  8
0
390
0
100
AcDbBlockBegin
  2
AID1424
 70
     0
 10
0.0
 20
0.0
 30
0.0
  3
DNote#note referencing elements
  1

  0
MTEXT
  5
291
100
AcDbEntity
  8
1
390
0
 62
     2
100
AcDbMText
 10
323.453627
 20
31.735815
 30
0.0
 40
5.0
 41
14.045455
 71
     7
 72
     1
  1
1：1
210
0.0
220
0.0
230
1.0
 73
     1
 44
1.0
  0
ENDBLK
  5
292
100
AcDbEntity
  8
0
390
0
100
AcDbBlockEnd
  0
BLOCK
  5
295
100
AcDbEntity
  8
0
390
0
100
AcDbBlockBegin
  2
AID1428
 70
     0
 10
0.0
 20
0.0
 30
0.0
  3
DNote#note referencing elements
  1

  0
MTEXT
  5
296
100
AcDbEntity
  8
1
390
0
 62
     2
100
AcDbMText
 10
358.83217
 20
39.838259
 30
0.0
 40
4.0
 41
80.545455
 71
     7
 72
     1
  1
小径樹脂温度センサ
210
0.0
220
0.0
230
1.0
 73
     1
 44
1.0
  0
ENDBLK
  5
297
100
AcDbEntity
  8
0
390
0
100
AcDbBlockEnd
  0
BLOCK
  5
29A
100
AcDbEntity
  8
0
390
0
100
AcDbBlockBegin
  2
AID1432
 70
     0
 10
0.0
 20
0.0
 30
0.0
  3
DNote#note referencing elements
  1

  0
MTEXT
  5
29B
100
AcDbEntity
  8
1
390
0
 62
     2
100
AcDbMText
 10
354.680274
 20
29.051415
 30
0.0
 40
4.0
 41
100.327273
 71
     7
 72
     1
  1
EPSSZLB-0.17X030 N150
210
0.0
220
0.0
230
1.0
 73
     1
 44
1.0
  0
ENDBLK
  5
29C
100
AcDbEntity
  8
0
390
0
100
AcDbBlockEnd
  0
ENDSEC
  0
SECTION
  2
ENTITIES
  0
LINE
  5
2C
100
AcDbEntity
  8
256
390
0
  6
Continuous
 62
     8
100
AcDbLine
 10
222.0
 20
34.5
 30
0.0
 11
271.0
 21
34.5
 31
0.0
  0
LINE
  5
2D
100
AcDbEntity
  8
256
390
0
  6
Continuous
 62
     8
100
AcDbLine
 10
390.25
 20
277.0
 30
0.0
 11
390.25
 21
287.0
 31
0.0
  0
LINE
  5
2E
100
AcDbEntity
  8
256
390
0
  6
Continuous
 62
     8
100
AcDbLine
 10
229.511017
 20
262.368011
 30
0.0
 11
234.511017
 21
262.368011
 31
0.0
  0
LINE
  5
2F
100
AcDbEntity
  8
256
390
0
  6
Continuous
 62
     8
100
AcDbLine
 10
222.0
 20
38.0
 30
0.0
 11
271.0
 21
38.0
 31
0.0
  0
LINE
  5
30
100
AcDbEntity
  8
256
390
0
  6
Continuous
 62
     8
100
AcDbLine
 10
237.0
 20
287.0
 30
0.0
 11
237.0
 21
257.0
 31
0.0
  0
LINE
  5
31
100
AcDbEntity
  8
256
390
0
  6
Continuous
 62
     8
100
AcDbLine
 10
303.8
 20
48.0
 30
0.0
 11
303.8
 21
10.0
 31
0.0
  0
LINE
  5
32
100
AcDbEntity
  8
256
390
0
  6
Continuous
 62
     8
100
AcDbLine
 10
385.25
 20
277.0
 30
0.0
 11
385.25
 21
287.0
 31
0.0
  0
LINE
  5
33
100
AcDbEntity
  8
256
390
0
  6
Continuous
 62
     8
100
AcDbLine
 10
287.4
 20
31.0
 30
0.0
 11
287.4
 21
10.0
 31
0.0
  0
LINE
  5
34
100
AcDbEntity
  8
256
390
0
  6
Continuous
 62
     8
100
AcDbLine
 10
253.750031
 20
44.0
 30
0.0
 11
253.750031
 21
10.0
 31
0.0
  0
LINE
  5
35
100
AcDbEntity
  8
256
390
0
  6
Continuous
 62
     8
100
AcDbLine
 10
410.0
 20
10.0
 30
0.0
 11
410.0
 21
287.0
 31
0.0
  0
LINE
  5
36
100
AcDbEntity
  8
256
390
0
  6
Continuous
 62
     8
100
AcDbLine
 10
335.25
 20
15.666667
 30
0.0
 11
335.25
 21
48.0
 31
0.0
  0
LINE
  5
37
100
AcDbEntity
  8
256
390
0
  6
Continuous
 62
     8
100
AcDbLine
 10
410.0
 20
287.0
 30
0.0
 11
10.0
 21
287.0
 31
0.0
  0
LINE
  5
38
100
AcDbEntity
  8
256
390
0
  6
Continuous
 62
     8
100
AcDbLine
 10
362.0
 20
287.0
 30
0.0
 11
362.0
 21
257.0
 31
0.0
  0
LINE
  5
39
100
AcDbEntity
  8
256
390
0
  6
Continuous
 62
     8
100
AcDbLine
 10
410.0
 20
267.0
 30
0.0
 11
227.0
 21
267.0
 31
0.0
  0
LINE
  5
3A
100
AcDbEntity
  8
256
390
0
  6
Continuous
 62
     8
100
AcDbLine
 10
410.0
 20
277.0
 30
0.0
 11
227.0
 21
277.0
 31
0.0
  0
LINE
  5
3B
100
AcDbEntity
  8
256
390
0
  6
Continuous
 62
     8
100
AcDbLine
 10
271.0
 20
41.0
 30
0.0
 11
335.25
 21
41.0
 31
0.0
  0
LINE
  5
3C
100
AcDbEntity
  8
256
390
0
  6
Continuous
 62
     8
100
AcDbLine
 10
222.0
 20
44.0
 30
0.0
 11
271.0
 21
44.0
 31
0.0
  0
LINE
  5
3D
100
AcDbEntity
  8
256
390
0
  6
Continuous
 62
     8
100
AcDbLine
 10
232.011017
 20
261.664886
 30
0.0
 11
229.511017
 21
257.368011
 31
0.0
  0
LINE
  5
3E
100
AcDbEntity
  8
256
390
0
  6
Continuous
 62
     8
100
AcDbLine
 10
248.000031
 20
38.0
 30
0.0
 11
222.0
 21
44.0
 31
0.0
  0
LINE
  5
3F
100
AcDbEntity
  8
256
390
0
  6
Continuous
 62
     8
100
AcDbLine
 10
357.0
 20
262.0
 30
0.0
 11
227.0
 21
262.0
 31
0.0
  0
LINE
  5
40
100
AcDbEntity
  8
256
390
0
  6
Continuous
 62
     8
100
AcDbLine
 10
222.0
 20
31.0
 30
0.0
 11
320.25
 21
31.0
 31
0.0
  0
LINE
  5
41
100
AcDbEntity
  8
256
390
0
  6
Continuous
 62
     8
100
AcDbLine
 10
234.511017
 20
267.368011
 30
0.0
 11
232.011017
 21
271.664886
 31
0.0
  0
LINE
  5
42
100
AcDbEntity
  8
256
390
0
  6
Continuous
 62
     8
100
AcDbLine
 10
385.25
 20
282.0
 30
0.0
 11
362.0
 21
282.0
 31
0.0
  0
LINE
  5
43
100
AcDbEntity
  8
256
390
0
  6
Continuous
 62
     8
100
AcDbLine
 10
10.0
 20
10.0
 30
0.0
 11
410.0
 21
10.0
 31
0.0
  0
LINE
  5
44
100
AcDbEntity
  8
256
390
0
  6
Continuous
 62
     8
100
AcDbLine
 10
222.0
 20
48.0
 30
0.0
 11
410.0
 21
48.0
 31
0.0
  0
LINE
  5
45
100
AcDbEntity
  8
256
390
0
  6
Continuous
 62
     8
100
AcDbLine
 10
227.000031
 20
10.0
 30
0.0
 11
410.0
 21
10.0
 31
0.0
  0
LINE
  5
46
100
AcDbEntity
  8
256
390
0
  6
Continuous
 62
     8
100
AcDbLine
 10
342.0
 20
287.0
 30
0.0
 11
342.0
 21
257.0
 31
0.0
  0
LINE
  5
47
100
AcDbEntity
  8
256
390
0
  6
Continuous
 62
     8
100
AcDbLine
 10
222.0
 20
13.5
 30
0.0
 11
271.000031
 21
13.5
 31
0.0
  0
LINE
  5
48
100
AcDbEntity
  8
256
390
0
  6
Continuous
 62
     8
100
AcDbLine
 10
222.0
 20
20.5
 30
0.0
 11
271.0
 21
20.5
 31
0.0
  0
LINE
  5
49
100
AcDbEntity
  8
256
390
0
  6
Continuous
 62
     8
100
AcDbLine
 10
222.0
 20
27.5
 30
0.0
 11
271.0
 21
27.5
 31
0.0
  0
LINE
  5
4A
100
AcDbEntity
  8
256
390
0
  6
Continuous
 62
     8
100
AcDbLine
 10
248.000031
 20
44.0
 30
0.0
 11
248.000031
 21
10.0
 31
0.0
  0
LINE
  5
4B
100
AcDbEntity
  8
256
390
0
  6
Continuous
 62
     8
100
AcDbLine
 10
222.0
 20
48.0
 30
0.0
 11
222.0
 21
10.0
 31
0.0
  0
LINE
  5
4C
100
AcDbEntity
  8
256
390
0
  6
Continuous
 62
     8
100
AcDbLine
 10
232.011017
 20
276.664886
 30
0.0
 11
229.511017
 21
272.368011
 31
0.0
  0
LINE
  5
4D
100
AcDbEntity
  8
256
390
0
  6
Continuous
 62
     8
100
AcDbLine
 10
357.0
 20
282.0
 30
0.0
 11
227.0
 21
282.0
 31
0.0
  0
LINE
  5
4E
100
AcDbEntity
  8
256
390
0
  6
Continuous
 62
     8
100
AcDbLine
 10
229.511017
 20
267.368011
 30
0.0
 11
234.511017
 21
267.368011
 31
0.0
  0
LINE
  5
4F
100
AcDbEntity
  8
256
390
0
  6
Continuous
 62
     8
100
AcDbLine
 10
222.0
 20
24.0
 30
0.0
 11
271.0
 21
24.0
 31
0.0
  0
LINE
  5
50
100
AcDbEntity
  8
256
390
0
  6
Continuous
 62
     8
100
AcDbLine
 10
232.011017
 20
281.664886
 30
0.0
 11
229.511017
 21
277.368011
 31
0.0
  0
LINE
  5
51
100
AcDbEntity
  8
256
390
0
  6
Continuous
 62
     8
100
AcDbLine
 10
265.250031
 20
44.0
 30
0.0
 11
265.250031
 21
10.0
 31
0.0
  0
LINE
  5
52
100
AcDbEntity
  8
256
390
0
  6
Continuous
 62
     8
100
AcDbLine
 10
229.511017
 20
277.368011
 30
0.0
 11
234.511017
 21
277.368011
 31
0.0
  0
LINE
  5
53
100
AcDbEntity
  8
256
390
0
  6
Continuous
 62
     8
100
AcDbLine
 10
320.25
 20
10.0
 30
0.0
 11
320.25
 21
48.0
 31
0.0
  0
LINE
  5
54
100
AcDbEntity
  8
256
390
0
  6
Continuous
 62
     8
100
AcDbLine
 10
232.011017
 20
271.664886
 30
0.0
 11
229.511017
 21
267.368011
 31
0.0
  0
LINE
  5
55
100
AcDbEntity
  8
256
390
0
  6
Continuous
 62
     8
100
AcDbLine
 10
234.511017
 20
277.368011
 30
0.0
 11
232.011017
 21
281.664886
 31
0.0
  0
LINE
  5
56
100
AcDbEntity
  8
256
390
0
  6
Continuous
 62
     8
100
AcDbLine
 10
222.0
 20
17.0
 30
0.0
 11
271.0
 21
17.0
 31
0.0
  0
LINE
  5
57
100
AcDbEntity
  8
256
390
0
  6
Continuous
 62
     8
100
AcDbLine
 10
271.0
 20
48.0
 30
0.0
 11
271.0
 21
10.0
 31
0.0
  0
LINE
  5
58
100
AcDbEntity
  8
256
390
0
  6
Continuous
 62
     8
100
AcDbLine
 10
357.0
 20
287.0
 30
0.0
 11
357.0
 21
257.0
 31
0.0
  0
LINE
  5
59
100
AcDbEntity
  8
256
390
0
  6
Continuous
 62
     8
100
AcDbLine
 10
335.25
 20
35.0
 30
0.0
 11
410.0
 21
35.0
 31
0.0
  0
LINE
  5
5A
100
AcDbEntity
  8
256
390
0
  6
Continuous
 62
     8
100
AcDbLine
 10
227.0
 20
287.0
 30
0.0
 11
227.0
 21
257.0
 31
0.0
  0
LINE
  5
5B
100
AcDbEntity
  8
256
390
0
  6
Continuous
 62
     8
100
AcDbLine
 10
327.0
 20
287.0
 30
0.0
 11
327.0
 21
257.0
 31
0.0
  0
LINE
  5
5C
100
AcDbEntity
  8
256
390
0
  6
Continuous
 62
     8
100
AcDbLine
 10
229.511017
 20
272.368011
 30
0.0
 11
234.511017
 21
272.368011
 31
0.0
  0
LINE
  5
5D
100
AcDbEntity
  8
256
390
0
  6
Continuous
 62
     8
100
AcDbLine
 10
259.500031
 20
44.0
 30
0.0
 11
259.500031
 21
10.0
 31
0.0
  0
LINE
  5
5E
100
AcDbEntity
  8
256
390
0
  6
Continuous
 62
     8
100
AcDbLine
 10
320.25
 20
15.666667
 30
0.0
 11
410.0
 21
15.666667
 31
0.0
  0
LINE
  5
5F
100
AcDbEntity
  8
256
390
0
  6
Continuous
 62
     8
100
AcDbLine
 10
229.511017
 20
257.368011
 30
0.0
 11
234.511017
 21
257.368011
 31
0.0
  0
LINE
  5
60
100
AcDbEntity
  8
256
390
0
  6
Continuous
 62
     8
100
AcDbLine
 10
232.011017
 20
266.664886
 30
0.0
 11
229.511017
 21
262.368011
 31
0.0
  0
LINE
  5
61
100
AcDbEntity
  8
256
390
0
  6
Continuous
 62
     8
100
AcDbLine
 10
410.0
 20
257.0
 30
0.0
 11
227.0
 21
257.0
 31
0.0
  0
LINE
  5
62
100
AcDbEntity
  8
256
390
0
  6
Continuous
 62
     8
100
AcDbLine
 10
234.511017
 20
257.368011
 30
0.0
 11
232.011017
 21
261.664886
 31
0.0
  0
LINE
  5
63
100
AcDbEntity
  8
256
390
0
  6
Continuous
 62
     8
100
AcDbLine
 10
271.0
 20
26.5
 30
0.0
 11
410.0
 21
26.5
 31
0.0
  0
LINE
  5
64
100
AcDbEntity
  8
256
390
0
  6
Continuous
 62
     8
100
AcDbLine
 10
10.0
 20
10.0
 30
0.0
 11
10.0
 21
287.0
 31
0.0
  0
LINE
  5
65
100
AcDbEntity
  8
256
390
0
  6
Continuous
 62
     8
100
AcDbLine
 10
234.511017
 20
262.368011
 30
0.0
 11
232.011017
 21
266.664886
 31
0.0
  0
LINE
  5
66
100
AcDbEntity
  8
256
390
0
  6
Continuous
 62
     8
100
AcDbLine
 10
350.25
 20
15.666667
 30
0.0
 11
350.25
 21
48.0
 31
0.0
  0
LINE
  5
67
100
AcDbEntity
  8
256
390
0
  6
Continuous
 62
     8
100
AcDbLine
 10
307.164695
 20
32.573373
 30
0.0
 11
314.235801
 21
39.644442
 31
0.0
  0
LINE
  5
68
100
AcDbEntity
  8
256
390
0
  6
Continuous
 62
     8
100
AcDbLine
 10
357.0
 20
272.0
 30
0.0
 11
227.0
 21
272.0
 31
0.0
  0
LINE
  5
69
100
AcDbEntity
  8
256
390
0
  6
Continuous
 62
     8
100
AcDbLine
 10
234.511017
 20
272.368011
 30
0.0
 11
232.011017
 21
276.664886
 31
0.0
  0
MTEXT
  5
6A
100
AcDbEntity
  8
256
390
0
 62
     8
100
AcDbMText
 10
262.375031
 20
28.244792
 30
0.0
 40
1.75
 41
4.55
 71
     8
 72
     1
  1
0.5  
210
0.0
220
0.0
230
1.0
 73
     1
 44
1.0
  0
MTEXT
  5
6B
100
AcDbEntity
  8
256
390
0
 62
     8
100
AcDbMText
 10
250.875031
 20
21.244792
 30
0.0
 40
1.75
 41
4.55
 71
     8
 72
     1
  1
0.2  
210
0.0
220
0.0
230
1.0
 73
     1
 44
1.0
  0
MTEXT
  5
6C
100
AcDbEntity
  8
256
390
0
 62
     8
100
AcDbMText
 10
250.875031
 20
28.244792
 30
0.0
 40
1.75
 41
3.993182
 71
     8
 72
     1
  1
0.1  
210
0.0
220
0.0
230
1.0
 73
     1
 44
1.0
  0
MTEXT
  5
6D
100
AcDbEntity
  8
256
390
0
 62
     8
100
AcDbMText
 10
250.875031
 20
17.744792
 30
0.0
 40
1.75
 41
4.55
 71
     8
 72
     1
  1
0.3  
210
0.0
220
0.0
230
1.0
 73
     1
 44
1.0
  0
MTEXT
  5
6E
100
AcDbEntity
  8
256
390
0
 62
     8
100
AcDbMText
 10
287.02719
 20
42.856306
 30
0.0
 40
3.386667
 41
24.56873
 71
     8
 72
     1
  1
材    質  
210
0.0
220
0.0
230
1.0
 73
     1
 44
1.0
  0
MTEXT
  5
6F
100
AcDbEntity
  8
256
390
0
 62
     8
100
AcDbMText
 10
256.625031
 20
35.244792
 30
0.0
 40
1.75
 41
3.993182
 71
     8
 72
     1
  1
0.1  
210
0.0
220
0.0
230
1.0
 73
     1
 44
1.0
  0
MTEXT
  5
70
100
AcDbEntity
  8
256
390
0
 62
     8
100
AcDbMText
 10
268.125015
 20
14.244792
 30
0.0
 40
1.75
 41
1.590909
 71
     8
 72
     1
  1
6  
210
0.0
220
0.0
230
1.0
 73
     1
 44
1.0
  0
MTEXT
  5
71
100
AcDbEntity
  8
256
390
0
 62
     8
100
AcDbMText
 10
268.125015
 20
21.244792
 30
0.0
 40
1.75
 41
4.486364
 71
     8
 72
     1
  1
2.5  
210
0.0
220
0.0
230
1.0
 73
     1
 44
1.0
  0
MTEXT
  5
72
100
AcDbEntity
  8
256
390
0
 62
     8
100
AcDbMText
 10
312.52208
 20
42.980576
 30
0.0
 40
3.386667
 41
17.518305
 71
     8
 72
     1
  1
個 数  
210
0.0
220
0.0
230
1.0
 73
     1
 44
1.0
  0
MTEXT
  5
73
100
AcDbEntity
  8
256
390
0
 62
     8
100
AcDbMText
 10
360.130196
 20
257.742347
 30
0.0
 40
2.822222
 41
5.926666
 71
     8
 72
     1
  1
理  
210
0.0
220
0.0
230
1.0
 73
     1
 44
1.0
  0
MTEXT
  5
74
100
AcDbEntity
  8
256
390
0
 62
     8
100
AcDbMText
 10
257.063488
 20
41.133356
 30
0.0
 40
1.7952
 41
7.6704
 71
     8
 72
     1
  1
中級  
210
0.0
220
0.0
230
1.0
 73
     1
 44
1.0
  0
MTEXT
  5
75
100
AcDbEntity
  8
256
390
0
 62
     8
100
AcDbMText
 10
268.763424
 20
39.076539
 30
0.0
 40
2.0
 41
7.581818
 71
     8
 72
     1
  1
v %%p  
210
0.0
220
0.0
230
1.0
 73
     1
 44
1.0
  0
MTEXT
  5
76
100
AcDbEntity
  8
256
390
0
 62
     8
100
AcDbMText
 10
246.361108
 20
10.744792
 30
0.0
 40
1.75
 41
35.111364
 71
     9
 72
     1
  1
2000を超え4000以下  
210
0.0
220
0.0
230
1.0
 73
     1
 44
1.0
  0
MTEXT
  5
77
100
AcDbEntity
  8
256
390
0
 62
     8
100
AcDbMText
 10
315.229673
 20
32.880846
 30
0.0
 40
3.386667
 41
10.375516
 71
     8
 72
     1
  1
1台  
210
0.0
220
0.0
230
1.0
 73
     1
 44
1.0
  0
MTEXT
  5
78
100
AcDbEntity
  8
256
390
0
 62
     8
100
AcDbMText
 10
246.383663
 20
21.244792
 30
0.0
 40
1.75
 41
32.056818
 71
     9
 72
     1
  1
 120を超え 400以下  
210
0.0
220
0.0
230
1.0
 73
     1
 44
1.0
  0
MTEXT
  5
79
100
AcDbEntity
  8
256
390
0
 62
     8
100
AcDbMText
 10
388.380196
 20
278.047566
 30
0.0
 40
3.386667
 41
6.958061
 71
     8
 72
     1
  1
取  
210
0.0
220
0.0
230
1.0
 73
     1
 44
1.0
  0
MTEXT
  5
7A
100
AcDbEntity
  8
256
390
0
 62
     8
100
AcDbMText
 10
388.380196
 20
282.575181
 30
0.0
 40
3.386667
 41
6.68097
 71
     8
 72
     1
  1
面  
210
0.0
220
0.0
230
1.0
 73
     1
 44
1.0
  0
MTEXT
  5
7B
100
AcDbEntity
  8
256
390
0
 62
     8
100
AcDbMText
 10
230.223858
 20
38.623908
 30
0.0
 40
1.5
 41
24.272727
 71
     8
 72
     1
  1
寸法の区分(mm)  
210
0.0
220
0.0
230
1.0
 73
     1
 44
1.0
  0
MTEXT
  5
7C
100
AcDbEntity
  8
256
390
0
 62
     8
100
AcDbMText
 10
343.211504
 20
19.692223
 30
0.0
 40
3.386667
 41
16.902547
 71
     8
 72
     1
  1
図 番  
210
0.0
220
0.0
230
1.0
 73
     1
 44
1.0
  0
MTEXT
  5
7D
100
AcDbEntity
  8
256
390
0
 62
     8
100
AcDbMText
 10
262.375031
 20
31.744792
 30
0.0
 40
1.75
 41
4.55
 71
     8
 72
     1
  1
0.3  
210
0.0
220
0.0
230
1.0
 73
     1
 44
1.0
  0
MTEXT
  5
7E
100
AcDbEntity
  8
256
390
0
 62
     8
100
AcDbMText
 10
360.130196
 20
268.089407
 30
0.0
 40
3.386667
 41
7.112001
 71
     8
 72
     1
  1
理  
210
0.0
220
0.0
230
1.0
 73
     1
 44
1.0
  0
MTEXT
  5
7F
100
AcDbEntity
  8
256
390
0
 62
     8
100
AcDbMText
 10
246.369552
 20
14.244792
 30
0.0
 40
1.75
 41
34.888636
 71
     9
 72
     1
  1
1000を超え2000以下  
210
0.0
220
0.0
230
1.0
 73
     1
 44
1.0
  0
MTEXT
  5
80
100
AcDbEntity
  8
256
390
0
 62
     8
100
AcDbMText
 10
268.125015
 20
24.744792
 30
0.0
 40
1.75
 41
4.263636
 71
     8
 72
     1
  1
1.5  
210
0.0
220
0.0
230
1.0
 73
     1
 44
1.0
  0
MTEXT
  5
81
100
AcDbEntity
  8
256
390
0
 62
     8
100
AcDbMText
 10
262.375031
 20
35.244792
 30
0.0
 40
1.75
 41
4.55
 71
     8
 72
     1
  1
0.2  
210
0.0
220
0.0
230
1.0
 73
     1
 44
1.0
  0
MTEXT
  5
82
100
AcDbEntity
  8
256
390
0
 62
     8
100
AcDbMText
 10
351.983257
 20
283.013492
 30
0.0
 40
3.386667
 41
21.551517
 71
     8
 72
     1
  1
年月日     
210
0.0
220
0.0
230
1.0
 73
     1
 44
1.0
  0
MTEXT
  5
83
100
AcDbEntity
  8
256
390
0
 62
     8
100
AcDbMText
 10
250.875031
 20
31.744792
 30
0.0
 40
1.75
 41
6.586364
 71
     8
 72
     1
  1
0.05  
210
0.0
220
0.0
230
1.0
 73
     1
 44
1.0
  0
MTEXT
  5
84
100
AcDbEntity
  8
256
390
0
 62
     8
100
AcDbMText
 10
250.875031
 20
35.244792
 30
0.0
 40
1.75
 41
6.586364
 71
     8
 72
     1
  1
0.05  
210
0.0
220
0.0
230
1.0
 73
     1
 44
1.0
  0
MTEXT
  5
85
100
AcDbEntity
  8
256
390
0
 62
     8
100
AcDbMText
 10
262.375031
 20
10.744792
 30
0.0
 40
1.75
 41
1.765909
 71
     8
 72
     1
  1
4  
210
0.0
220
0.0
230
1.0
 73
     1
 44
1.0
  0
MTEXT
  5
86
100
AcDbEntity
  8
256
390
0
 62
     8
100
AcDbMText
 10
343.259623
 20
40.051182
 30
0.0
 40
3.386667
 41
17.210426
 71
     8
 72
     1
  1
名 称  
210
0.0
220
0.0
230
1.0
 73
     1
 44
1.0
  0
MTEXT
  5
87
100
AcDbEntity
  8
256
390
0
 62
     8
100
AcDbMText
 10
280.042689
 20
27.073014
 30
0.0
 40
3.386667
 41
17.241214
 71
     8
 72
     1
  1
設 計  
210
0.0
220
0.0
230
1.0
 73
     1
 44
1.0
  0
MTEXT
  5
88
100
AcDbEntity
  8
256
390
0
 62
     8
100
AcDbMText
 10
268.125015
 20
17.744792
 30
0.0
 40
1.75
 41
1.765909
 71
     8
 72
     1
  1
4  
210
0.0
220
0.0
230
1.0
 73
     1
 44
1.0
  0
MTEXT
  5
89
100
AcDbEntity
  8
256
390
0
 62
     8
100
AcDbMText
 10
256.625031
 20
28.244792
 30
0.0
 40
1.75
 41
4.55
 71
     8
 72
     1
  1
0.2  
210
0.0
220
0.0
230
1.0
 73
     1
 44
1.0
  0
MTEXT
  5
8A
100
AcDbEntity
  8
256
390
0
 62
     8
100
AcDbMText
 10
246.368174
 20
17.744792
 30
0.0
 40
1.75
 41
33.138636
 71
     9
 72
     1
  1
 400を超え1000以下  
210
0.0
220
0.0
230
1.0
 73
     1
 44
1.0
  0
MTEXT
  5
8B
100
AcDbEntity
  8
256
390
0
 62
     8
100
AcDbMText
 10
250.875031
 20
14.244792
 30
0.0
 40
1.75
 41
4.55
 71
     8
 72
     1
  1
0.5  
210
0.0
220
0.0
230
1.0
 73
     1
 44
1.0
  0
MTEXT
  5
8C
100
AcDbEntity
  8
256
390
0
 62
     8
100
AcDbMText
 10
257.26344
 20
39.076539
 30
0.0
 40
2.0
 41
8.563636
 71
     8
 72
     1
  1
m %%p  
210
0.0
220
0.0
230
1.0
 73
     1
 44
1.0
  0
MTEXT
  5
8D
100
AcDbEntity
  8
256
390
0
 62
     8
100
AcDbMText
 10
246.444454
 20
35.244792
 30
0.0
 40
1.75
 41
29.543182
 71
     9
 72
     1
  1
 0.5を超え   3以下  
210
0.0
220
0.0
230
1.0
 73
     1
 44
1.0
  0
MTEXT
  5
8E
100
AcDbEntity
  8
256
390
0
 62
     8
100
AcDbMText
 10
246.445896
 20
31.744792
 30
0.0
 40
1.75
 41
26.615909
 71
     9
 72
     1
  1
   3を超え   6以下  
210
0.0
220
0.0
230
1.0
 73
     1
 44
1.0
  0
MTEXT
  5
8F
100
AcDbEntity
  8
256
390
0
 62
     8
100
AcDbMText
 10
343.228244
 20
29.512776
 30
0.0
 40
2.54
 41
22.998545
 71
     8
 72
     1
  1
部品番号  
210
0.0
220
0.0
230
1.0
 73
     1
 44
1.0
  0
MTEXT
  5
90
100
AcDbEntity
  8
256
390
0
 62
     8
100
AcDbMText
 10
251.19527
 20
41.133356
 30
0.0
 40
1.7952
 41
8.04576
 71
     8
 72
     1
  1
精級  
210
0.0
220
0.0
230
1.0
 73
     1
 44
1.0
  0
MTEXT
  5
91
100
AcDbEntity
  8
256
390
0
 62
     8
100
AcDbMText
 10
246.399214
 20
24.744792
 30
0.0
 40
1.75
 41
30.243182
 71
     9
 72
     1
  1
  30を超え 120以下  
210
0.0
220
0.0
230
1.0
 73
     1
 44
1.0
  0
MTEXT
  5
92
100
AcDbEntity
  8
256
390
0
 62
     8
100
AcDbMText
 10
262.375031
 20
24.744792
 30
0.0
 40
1.75
 41
4.565909
 71
     8
 72
     1
  1
0.8  
210
0.0
220
0.0
230
1.0
 73
     1
 44
1.0
  0
MTEXT
  5
93
100
AcDbEntity
  8
256
390
0
 62
     8
100
AcDbMText
 10
242.4153
 20
40.925781
 30
0.0
 40
1.5
 41
13.636364
 71
     8
 72
     1
  1
公差等級  
210
0.0
220
0.0
230
1.0
 73
     1
 44
1.0
  0
MTEXT
  5
94
100
AcDbEntity
  8
256
390
0
 62
     8
100
AcDbMText
 10
246.430153
 20
28.244792
 30
0.0
 40
1.75
 41
27.395455
 71
     9
 72
     1
  1
   6を超え  30以下  
210
0.0
220
0.0
230
1.0
 73
     1
 44
1.0
  0
MTEXT
  5
95
100
AcDbEntity
  8
256
390
0
 62
     8
100
AcDbMText
 10
285.330511
 20
282.942152
 30
0.0
 40
3.386667
 41
59.482188
 71
     8
 72
     1
  1
訂    正    内    容  
210
0.0
220
0.0
230
1.0
 73
     1
 44
1.0
  0
MTEXT
  5
96
100
AcDbEntity
  8
256
390
0
 62
     8
100
AcDbMText
 10
256.625031
 20
24.744792
 30
0.0
 40
1.75
 41
4.55
 71
     8
 72
     1
  1
0.3  
210
0.0
220
0.0
230
1.0
 73
     1
 44
1.0
  0
MTEXT
  5
97
100
AcDbEntity
  8
256
390
0
 62
     8
100
AcDbMText
 10
262.375031
 20
17.744792
 30
0.0
 40
1.75
 41
1.622727
 71
     8
 72
     1
  1
2  
210
0.0
220
0.0
230
1.0
 73
     1
 44
1.0
  0
MTEXT
  5
98
100
AcDbEntity
  8
256
390
0
 62
     8
100
AcDbMText
 10
262.375031
 20
14.244792
 30
0.0
 40
1.75
 41
1.622727
 71
     8
 72
     1
  1
3  
210
0.0
220
0.0
230
1.0
 73
     1
 44
1.0
  0
MTEXT
  5
99
100
AcDbEntity
  8
256
390
0
 62
     8
100
AcDbMText
 10
328.687321
 20
19.668163
 30
0.0
 40
3.386667
 41
22.536729
 71
     8
 72
     1
  1
三角法  
210
0.0
220
0.0
230
1.0
 73
     1
 44
1.0
  0
MTEXT
  5
9A
100
AcDbEntity
  8
256
390
0
 62
     8
100
AcDbMText
 10
365.92539
 20
11.0735
 30
0.0
 40
3.386667
 41
99.506434
 71
     8
 72
     1
  1
双 葉 電 子 工 業 株 式 会 社  
210
0.0
220
0.0
230
1.0
 73
     1
 44
1.0
  0
MTEXT
  5
9B
100
AcDbEntity
  8
256
390
0
 62
     8
100
AcDbMText
 10
256.625031
 20
17.744792
 30
0.0
 40
1.75
 41
4.565909
 71
     8
 72
     1
  1
0.8  
210
0.0
220
0.0
230
1.0
 73
     1
 44
1.0
  0
MTEXT
  5
9C
100
AcDbEntity
  8
256
390
0
 62
     8
100
AcDbMText
 10
312.769883
 20
27.273035
 30
0.0
 40
3.386667
 41
17.518305
 71
     8
 72
     1
  1
承 認  
210
0.0
220
0.0
230
1.0
 73
     1
 44
1.0
  0
MTEXT
  5
9D
100
AcDbEntity
  8
256
390
0
 62
     8
100
AcDbMText
 10
268.125015
 20
28.244792
 30
0.0
 40
1.75
 41
0.843182
 71
     8
 72
     1
  1
1  
210
0.0
220
0.0
230
1.0
 73
     1
 44
1.0
  0
MTEXT
  5
9E
100
AcDbEntity
  8
256
390
0
 62
     8
100
AcDbMText
 10
247.07562
 20
45.235875
 30
0.0
 40
1.7
 41
74.846364
 71
     8
 72
     1
  1
削り加工寸法の普通許容差 JIS B 0405-1991  
210
0.0
220
0.0
230
1.0
 73
     1
 44
1.0
  0
MTEXT
  5
9F
100
AcDbEntity
  8
256
390
0
 62
     8
100
AcDbMText
 10
250.875031
 20
24.744792
 30
0.0
 40
1.75
 41
6.586364
 71
     8
 72
     1
  1
0.15  
210
0.0
220
0.0
230
1.0
 73
     1
 44
1.0
  0
MTEXT
  5
A0
100
AcDbEntity
  8
256
390
0
 62
     8
100
AcDbMText
 10
250.875031
 20
9.839584
 30
0.0
 40
2.54
 41
2.632364
 71
     8
 72
     1
  1
-  
210
0.0
220
0.0
230
1.0
 73
     1
 44
1.0
  0
MTEXT
  5
A1
100
AcDbEntity
  8
256
390
0
 62
     8
100
AcDbMText
 10
296.045235
 20
27.214792
 30
0.0
 40
3.386667
 41
17.025699
 71
     8
 72
     1
  1
検 図  
210
0.0
220
0.0
230
1.0
 73
     1
 44
1.0
  0
MTEXT
  5
A2
100
AcDbEntity
  8
256
390
0
 62
     8
100
AcDbMText
 10
268.125015
 20
34.339584
 30
0.0
 40
2.54
 41
2.632364
 71
     8
 72
     1
  1
-  
210
0.0
220
0.0
230
1.0
 73
     1
 44
1.0
  0
MTEXT
  5
A3
100
AcDbEntity
  8
256
390
0
 62
     8
100
AcDbMText
 10
256.625031
 20
31.744792
 30
0.0
 40
1.75
 41
3.993182
 71
     8
 72
     1
  1
0.1  
210
0.0
220
0.0
230
1.0
 73
     1
 44
1.0
  0
MTEXT
  5
A4
100
AcDbEntity
  8
256
390
0
 62
     8
100
AcDbMText
 10
263.01344
 20
39.076539
 30
0.0
 40
2.0
 41
7.527273
 71
     8
 72
     1
  1
c %%p  
210
0.0
220
0.0
230
1.0
 73
     1
 44
1.0
  0
MTEXT
  5
A5
100
AcDbEntity
  8
256
390
0
 62
     8
100
AcDbMText
 10
360.130196
 20
278.047566
 30
0.0
 40
3.386667
 41
6.68097
 71
     8
 72
     1
  1
上  
210
0.0
220
0.0
230
1.0
 73
     1
 44
1.0
  0
MTEXT
  5
A6
100
AcDbEntity
  8
256
390
0
 62
     8
100
AcDbMText
 10
232.748022
 20
282.92144
 30
0.0
 40
3.386667
 41
14.870547
 71
     8
 72
     1
  1
記号  
210
0.0
220
0.0
230
1.0
 73
     1
 44
1.0
  0
MTEXT
  5
A7
100
AcDbEntity
  8
256
390
0
 62
     8
100
AcDbMText
 10
256.625031
 20
21.244792
 30
0.0
 40
1.75
 41
4.55
 71
     8
 72
     1
  1
0.5  
210
0.0
220
0.0
230
1.0
 73
     1
 44
1.0
  0
MTEXT
  5
A8
100
AcDbEntity
  8
256
390
0
 62
     8
100
AcDbMText
 10
256.625031
 20
10.744792
 30
0.0
 40
1.75
 41
1.622727
 71
     8
 72
     1
  1
2  
210
0.0
220
0.0
230
1.0
 73
     1
 44
1.0
  0
MTEXT
  5
A9
100
AcDbEntity
  8
256
390
0
 62
     8
100
AcDbMText
 10
262.375031
 20
21.244792
 30
0.0
 40
1.75
 41
4.263636
 71
     8
 72
     1
  1
1.2  
210
0.0
220
0.0
230
1.0
 73
     1
 44
1.0
  0
MTEXT
  5
AA
100
AcDbEntity
  8
256
390
0
 62
     8
100
AcDbMText
 10
360.130196
 20
282.575181
 30
0.0
 40
3.386667
 41
7.050425
 71
     8
 72
     1
  1
仕  
210
0.0
220
0.0
230
1.0
 73
     1
 44
1.0
  0
MTEXT
  5
AB
100
AcDbEntity
  8
256
390
0
 62
     8
100
AcDbMText
 10
268.125015
 20
10.744792
 30
0.0
 40
1.75
 41
1.654545
 71
     8
 72
     1
  1
8  
210
0.0
220
0.0
230
1.0
 73
     1
 44
1.0
  0
MTEXT
  5
AC
100
AcDbEntity
  8
256
390
0
 62
     8
100
AcDbMText
 10
360.130196
 20
260.858133
 30
0.0
 40
2.822222
 41
5.875353
 71
     8
 72
     1
  1
処  
210
0.0
220
0.0
230
1.0
 73
     1
 44
1.0
  0
MTEXT
  5
AD
100
AcDbEntity
  8
256
390
0
 62
     8
100
AcDbMText
 10
336.870941
 20
283.013492
 30
0.0
 40
3.386667
 41
22.81382
 71
     8
 72
     1
  1
担当者     
210
0.0
220
0.0
230
1.0
 73
     1
 44
1.0
  0
MTEXT
  5
AE
100
AcDbEntity
  8
256
390
0
 62
     8
100
AcDbMText
 10
251.577735
 20
39.076539
 30
0.0
 40
2.0
 41
6.836364
 71
     8
 72
     1
  1
f %%p  
210
0.0
220
0.0
230
1.0
 73
     1
 44
1.0
  0
MTEXT
  5
AF
100
AcDbEntity
  8
256
390
0
 62
     8
100
AcDbMText
 10
360.130196
 20
263.973919
 30
0.0
 40
2.822222
 41
5.952323
 71
     8
 72
     1
  1
熱  
210
0.0
220
0.0
230
1.0
 73
     1
 44
1.0
  0
MTEXT
  5
B0
100
AcDbEntity
  8
256
390
0
 62
     8
100
AcDbMText
 10
268.125015
 20
31.744792
 30
0.0
 40
1.75
 41
4.55
 71
     8
 72
     1
  1
0.5  
210
0.0
220
0.0
230
1.0
 73
     1
 44
1.0
  0
MTEXT
  5
B1
100
AcDbEntity
  8
256
390
0
 62
     8
100
AcDbMText
 10
328.494219
 20
43.012096
 30
0.0
 40
3.386667
 41
17.30279
 71
     8
 72
     1
  1
尺 度  
210
0.0
220
0.0
230
1.0
 73
     1
 44
1.0
  0
MTEXT
  5
B2
100
AcDbEntity
  8
256
390
0
 62
     8
100
AcDbMText
 10
262.660189
 20
41.133356
 30
0.0
 40
1.7952
 41
7.9968
 71
     8
 72
     1
  1
粗級  
210
0.0
220
0.0
230
1.0
 73
     1
 44
1.0
  0
MTEXT
  5
B3
100
AcDbEntity
  8
256
390
0
 62
     8
100
AcDbMText
 10
225.086682
 20
40.357732
 30
0.0
 40
1.5
 41
6.640909
 71
     8
 72
     1
  1
基準  
210
0.0
220
0.0
230
1.0
 73
     1
 44
1.0
  0
MTEXT
  5
B4
100
AcDbEntity
  8
256
390
0
 62
     8
100
AcDbMText
 10
268.384088
 20
41.201556
 30
0.0
 40
1.584
 41
10.8
 71
     8
 72
     1
  1
極粗級  
210
0.0
220
0.0
230
1.0
 73
     1
 44
1.0
  0
MTEXT
  5
B5
100
AcDbEntity
  8
256
390
0
 62
     8
100
AcDbMText
 10
256.625031
 20
14.244792
 30
0.0
 40
1.75
 41
4.263636
 71
     8
 72
     1
  1
1.2  
210
0.0
220
0.0
230
1.0
 73
     1
 44
1.0
  0
MTEXT
  5
B6
100
AcDbEntity
  8
256
390
0
 62
     8
100
AcDbMText
 10
360.130196
 20
272.53334
 30
0.0
 40
3.386667
 41
7.050425
 71
     8
 72
     1
  1
処  
210
0.0
220
0.0
230
1.0
 73
     1
 44
1.0
  0
INSERT
  5
BB
100
AcDbEntity
  8
256
390
0
100
AcDbBlockReference
  2
AID287
 10
0.0
 20
0.0
 30
0.0
  0
LINE
  5
BD
100
AcDbEntity
  8
1
390
0
  6
Continuous
 62
     7
100
AcDbLine
 10
161.641373
 20
119.288299
 30
0.0
 11
167.141373
 21
119.288299
 31
0.0
  0
ARC
  5
BE
100
AcDbEntity
  8
1
390
0
  6
Continuous
 62
     7
100
AcDbCircle
 10
169.614639
 20
121.238299
 30
0.0
 40
2.501408
210
0.0
220
0.0
230
1.0
100
AcDbArc
 50
171.397295
 51
188.602705
  0
LINE
  5
BF
100
AcDbEntity
  8
1
390
0
  6
Continuous
 62
     7
100
AcDbLine
 10
167.141373
 20
120.864134
 30
0.0
 11
167.141373
 21
119.288299
 31
0.0
  0
LINE
  5
C0
100
AcDbEntity
  8
1
390
0
  6
Continuous
 62
     7
100
AcDbLine
 10
167.141373
 20
122.988299
 30
0.0
 11
161.641373
 21
122.988299
 31
0.0
  0
LINE
  5
C1
100
AcDbEntity
  8
1
390
0
  6
Continuous
 62
     7
100
AcDbLine
 10
167.141373
 20
122.988299
 30
0.0
 11
167.141373
 21
121.612465
 31
0.0
  0
LINE
  5
C2
100
AcDbEntity
  8
1
390
0
  6
Continuous
 62
     7
100
AcDbLine
 10
161.841373
 20
123.188299
 30
0.0
 11
167.141373
 21
123.188299
 31
0.0
  0
LINE
  5
C3
100
AcDbEntity
  8
1
390
0
  6
Continuous
 62
     7
100
AcDbLine
 10
167.141373
 20
123.188299
 30
0.0
 11
167.141373
 21
122.988299
 31
0.0
  0
LINE
  5
C4
100
AcDbEntity
  8
1
390
0
  6
Continuous
 62
     7
100
AcDbLine
 10
162.141373
 20
119.188299
 30
0.0
 11
167.141373
 21
119.188299
 31
0.0
  0
LINE
  5
C5
100
AcDbEntity
  8
1
390
0
  6
Continuous
 62
     7
100
AcDbLine
 10
163.141373
 20
140.538299
 30
0.0
 11
166.141373
 21
140.538299
 31
0.0
  0
LINE
  5
C6
100
AcDbEntity
  8
1
390
0
  6
Continuous
 62
     7
100
AcDbLine
 10
163.791373
 20
141.188299
 30
0.0
 11
165.491373
 21
141.188299
 31
0.0
  0
LINE
  5
C7
100
AcDbEntity
  8
1
390
0
  6
Continuous
 62
     7
100
AcDbLine
 10
163.791373
 20
149.188299
 30
0.0
 11
165.491373
 21
149.188299
 31
0.0
  0
LINE
  5
C8
100
AcDbEntity
  8
1
390
0
  6
Continuous
 62
     7
100
AcDbLine
 10
161.641373
 20
122.988299
 30
0.0
 11
161.641373
 21
119.288299
 31
0.0
  0
LINE
  5
C9
100
AcDbEntity
  8
1
390
0
  6
Continuous
 62
     7
100
AcDbLine
 10
161.841373
 20
123.188299
 30
0.0
 11
161.641373
 21
122.988299
 31
0.0
  0
LINE
  5
CA
100
AcDbEntity
  8
1
390
0
  6
Continuous
 62
     7
100
AcDbLine
 10
210.184985
 20
122.938299
 30
0.0
 11
167.141373
 21
122.938299
 31
0.0
  0
LINE
  5
CB
100
AcDbEntity
  8
1
390
0
  6
Continuous
 62
     7
100
AcDbLine
 10
167.141373
 20
119.538299
 30
0.0
 11
207.373446
 21
119.538299
 31
0.0
  0
LINE
  5
CC
100
AcDbEntity
  8
1
390
0
  6
Continuous
 62
     7
100
AcDbLine
 10
166.141373
 20
123.188299
 30
0.0
 11
166.141373
 21
140.538299
 31
0.0
  0
LINE
  5
CD
100
AcDbEntity
  8
1
390
0
  6
Continuous
 62
     7
100
AcDbLine
 10
163.141373
 20
140.538299
 30
0.0
 11
163.141373
 21
123.188299
 31
0.0
  0
LINE
  5
CE
100
AcDbEntity
  8
1
390
0
  6
Continuous
 62
     7
100
AcDbLine
 10
166.141373
 20
140.538299
 30
0.0
 11
165.491373
 21
141.188299
 31
0.0
  0
LINE
  5
CF
100
AcDbEntity
  8
1
390
0
  6
Continuous
 62
     7
100
AcDbLine
 10
163.791373
 20
141.188299
 30
0.0
 11
163.141373
 21
140.538299
 31
0.0
  0
LINE
  5
D0
100
AcDbEntity
  8
1
390
0
  6
Continuous
 62
     7
100
AcDbLine
 10
163.791373
 20
149.188299
 30
0.0
 11
163.791373
 21
141.188299
 31
0.0
  0
LINE
  5
D1
100
AcDbEntity
  8
1
390
0
  6
Continuous
 62
     7
100
AcDbLine
 10
165.491373
 20
141.188299
 30
0.0
 11
165.491373
 21
149.188299
 31
0.0
  0
LINE
  5
D3
100
AcDbEntity
  8
1
390
0
  6
CENTER
 62
     1
100
AcDbLine
 10
164.641373
 20
119.088299
 30
0.0
 11
164.641373
 21
149.388299
 31
0.0
  0
LINE
  5
D4
100
AcDbEntity
  8
1
390
0
  6
CENTER
 62
     1
100
AcDbLine
 10
166.913214
 20
121.238299
 30
0.0
 11
208.779216
 21
121.238299
 31
0.0
  0
LINE
  5
D5
100
AcDbEntity
  8
1
390
0
  6
Continuous
 62
     7
100
AcDbLine
 10
298.906894
 20
116.338299
 30
0.0
 11
298.906894
 21
116.839871
 31
0.0
  0
LINE
  5
D6
100
AcDbEntity
  8
1
390
0
  6
Continuous
 62
     7
100
AcDbLine
 10
273.906894
 20
119.338299
 30
0.0
 11
273.906894
 21
123.138299
 31
0.0
  0
LINE
  5
D7
100
AcDbEntity
  8
1
390
0
  6
Continuous
 62
     7
100
AcDbLine
 10
298.906894
 20
116.839871
 30
0.0
 11
298.906894
 21
126.138299
 31
0.0
  0
LINE
  5
D8
100
AcDbEntity
  8
1
390
0
  6
Continuous
 62
     7
100
AcDbLine
 10
307.906894
 20
116.338299
 30
0.0
 11
307.906894
 21
116.839871
 31
0.0
  0
LINE
  5
D9
100
AcDbEntity
  8
1
390
0
  6
Continuous
 62
     7
100
AcDbLine
 10
307.906894
 20
116.839871
 30
0.0
 11
307.906894
 21
126.138299
 31
0.0
  0
LINE
  5
DA
100
AcDbEntity
  8
1
390
0
  6
Continuous
 62
     7
100
AcDbLine
 10
311.906894
 20
125.788299
 30
0.0
 11
311.906894
 21
116.688299
 31
0.0
  0
LINE
  5
DC
100
AcDbEntity
  8
1
390
0
  6
DOT
 62
     9
100
AcDbLine
 10
305.906894
 20
124.838299
 30
0.0
 11
305.906894
 21
117.638299
 31
0.0
  0
LINE
  5
DD
100
AcDbEntity
  8
1
390
0
  6
DOT
 62
     9
100
AcDbLine
 10
306.406894
 20
124.738299
 30
0.0
 11
306.406894
 21
117.738299
 31
0.0
  0
LINE
  5
DE
100
AcDbEntity
  8
1
390
0
  6
DOT
 62
     9
100
AcDbLine
 10
308.506894
 20
124.738299
 30
0.0
 11
308.506894
 21
124.70527
 31
0.0
  0
LINE
  5
DF
100
AcDbEntity
  8
1
390
0
  6
DOT
 62
     9
100
AcDbLine
 10
310.306894
 20
124.70527
 30
0.0
 11
308.506894
 21
124.70527
 31
0.0
  0
LINE
  5
E0
100
AcDbEntity
  8
1
390
0
  6
DOT
 62
     9
100
AcDbLine
 10
310.306894
 20
124.70527
 30
0.0
 11
310.306894
 21
123.876543
 31
0.0
  0
LINE
  5
E1
100
AcDbEntity
  8
1
390
0
  6
DOT
 62
     9
100
AcDbLine
 10
310.306894
 20
123.876543
 30
0.0
 11
308.506894
 21
123.876543
 31
0.0
  0
LINE
  5
E2
100
AcDbEntity
  8
1
390
0
  6
DOT
 62
     9
100
AcDbLine
 10
308.506894
 20
123.876543
 30
0.0
 11
308.506894
 21
117.738299
 31
0.0
  0
LINE
  5
E3
100
AcDbEntity
  8
1
390
0
  6
DOT
 62
     9
100
AcDbLine
 10
308.506894
 20
124.17853
 30
0.0
 11
308.506894
 21
123.876543
 31
0.0
  0
LINE
  5
E4
100
AcDbEntity
  8
1
390
0
  6
Continuous
 62
     7
100
AcDbLine
 10
312.506894
 20
124.188299
 30
0.0
 11
312.506894
 21
118.288299
 31
0.0
  0
LINE
  5
E5
100
AcDbEntity
  8
1
390
0
  6
DOT
 62
     9
100
AcDbLine
 10
308.506894
 20
123.349803
 30
0.0
 11
310.306894
 21
123.349803
 31
0.0
  0
LINE
  5
E6
100
AcDbEntity
  8
1
390
0
  6
DOT
 62
     9
100
AcDbLine
 10
310.306894
 20
124.17853
 30
0.0
 11
308.506894
 21
124.17853
 31
0.0
  0
LINE
  5
E7
100
AcDbEntity
  8
1
390
0
  6
DOT
 62
     9
100
AcDbLine
 10
309.006894
 20
118.688299
 30
0.0
 11
309.006894
 21
120.181673
 31
0.0
  0
LINE
  5
E8
100
AcDbEntity
  8
1
390
0
  6
DOT
 62
     9
100
AcDbLine
 10
309.006894
 20
120.181673
 30
0.0
 11
309.006894
 21
123.788299
 31
0.0
  0
LINE
  5
E9
100
AcDbEntity
  8
1
390
0
  6
DOT
 62
     9
100
AcDbLine
 10
310.306894
 20
123.876543
 30
0.0
 11
310.306894
 21
123.349803
 31
0.0
  0
LINE
  5
EA
100
AcDbEntity
  8
1
390
0
  6
DOT
 62
     9
100
AcDbLine
 10
307.206894
 20
123.488299
 30
0.0
 11
307.206894
 21
120.2132
 31
0.0
  0
LINE
  5
EB
100
AcDbEntity
  8
1
390
0
  6
DOT
 62
     9
100
AcDbLine
 10
307.206894
 20
120.2132
 30
0.0
 11
309.006894
 21
120.2132
 31
0.0
  0
LINE
  5
EC
100
AcDbEntity
  8
1
390
0
  6
DOT
 62
     9
100
AcDbLine
 10
309.006894
 20
123.294511
 30
0.0
 11
307.206894
 21
123.294511
 31
0.0
  0
LINE
  5
ED
100
AcDbEntity
  8
1
390
0
  6
DOT
 62
     9
100
AcDbLine
 10
309.306894
 20
123.413299
 30
0.0
 11
309.306894
 21
119.063299
 31
0.0
  0
LINE
  5
EE
100
AcDbEntity
  8
1
390
0
  6
DOT
 62
     9
100
AcDbLine
 10
307.206894
 20
119.597022
 30
0.0
 11
309.006894
 21
119.597022
 31
0.0
  0
LINE
  5
EF
100
AcDbEntity
  8
1
390
0
  6
DOT
 62
     9
100
AcDbLine
 10
307.206894
 20
120.628134
 30
0.0
 11
309.006894
 21
120.628134
 31
0.0
  0
LINE
  5
F0
100
AcDbEntity
  8
1
390
0
  6
DOT
 62
     9
100
AcDbLine
 10
307.206894
 20
119.597022
 30
0.0
 11
307.206894
 21
120.2132
 31
0.0
  0
LINE
  5
F1
100
AcDbEntity
  8
1
390
0
  6
Continuous
 62
     7
100
AcDbLine
 10
316.556894
 20
119.988299
 30
0.0
 11
316.556894
 21
122.488299
 31
0.0
  0
LINE
  5
F2
100
AcDbEntity
  8
1
390
0
  6
Continuous
 62
     7
100
AcDbLine
 10
316.956894
 20
122.088299
 30
0.0
 11
316.956894
 21
120.388299
 31
0.0
  0
LINE
  5
F3
100
AcDbEntity
  8
1
390
0
  6
DOT
 62
     9
100
AcDbLine
 10
309.006894
 20
119.182088
 30
0.0
 11
307.206894
 21
119.182088
 31
0.0
  0
LINE
  5
F4
100
AcDbEntity
  8
1
390
0
  6
DOT
 62
     9
100
AcDbLine
 10
307.206894
 20
122.263399
 30
0.0
 11
309.006894
 21
122.263399
 31
0.0
  0
LINE
  5
F5
100
AcDbEntity
  8
1
390
0
  6
DOT
 62
     9
100
AcDbLine
 10
307.206894
 20
119.182088
 30
0.0
 11
307.206894
 21
118.988299
 31
0.0
  0
LINE
  5
F6
100
AcDbEntity
  8
1
390
0
  6
DOT
 62
     9
100
AcDbLine
 10
307.206894
 20
119.182088
 30
0.0
 11
307.206894
 21
119.597022
 31
0.0
  0
LINE
  5
F7
100
AcDbEntity
  8
1
390
0
  6
DOT
 62
     9
100
AcDbLine
 10
308.506894
 20
124.17853
 30
0.0
 11
308.506894
 21
124.70527
 31
0.0
  0
LINE
  5
F8
100
AcDbEntity
  8
1
390
0
  6
DOT
 62
     9
100
AcDbLine
 10
307.206894
 20
122.879577
 30
0.0
 11
309.006894
 21
122.879577
 31
0.0
  0
LINE
  5
F9
100
AcDbEntity
  8
1
390
0
  6
DOT
 62
     9
100
AcDbLine
 10
307.206894
 20
121.848465
 30
0.0
 11
309.006894
 21
121.848465
 31
0.0
  0
LINE
  5
FA
100
AcDbEntity
  8
1
390
0
  6
Continuous
 62
     7
100
AcDbLine
 10
298.906894
 20
126.138299
 30
0.0
 11
273.906894
 21
123.138299
 31
0.0
  0
LINE
  5
FB
100
AcDbEntity
  8
1
390
0
  6
Continuous
 62
     7
100
AcDbLine
 10
273.906894
 20
119.338299
 30
0.0
 11
298.906894
 21
116.338299
 31
0.0
  0
LINE
  5
FC
100
AcDbEntity
  8
1
390
0
  6
Continuous
 62
     7
100
AcDbLine
 10
298.906894
 20
116.338299
 30
0.0
 11
307.906894
 21
116.338299
 31
0.0
  0
LINE
  5
FD
100
AcDbEntity
  8
1
390
0
  6
Continuous
 62
     7
100
AcDbLine
 10
307.906894
 20
126.138299
 30
0.0
 11
298.906894
 21
126.138299
 31
0.0
  0
LINE
  5
FE
100
AcDbEntity
  8
1
390
0
  6
Continuous
 62
     7
100
AcDbLine
 10
307.906894
 20
116.688299
 30
0.0
 11
311.906894
 21
116.688299
 31
0.0
  0
LINE
  5
FF
100
AcDbEntity
  8
1
390
0
  6
Continuous
 62
     7
100
AcDbLine
 10
311.906894
 20
125.788299
 30
0.0
 11
307.906894
 21
125.788299
 31
0.0
  0
LINE
  5
100
100
AcDbEntity
  8
1
390
0
  6
DOT
 62
     9
100
AcDbLine
 10
311.906894
 20
124.838299
 30
0.0
 11
305.906894
 21
124.838299
 31
0.0
  0
LINE
  5
101
100
AcDbEntity
  8
1
390
0
  6
DOT
 62
     9
100
AcDbLine
 10
305.906894
 20
117.638299
 30
0.0
 11
311.906894
 21
117.638299
 31
0.0
  0
LINE
  5
102
100
AcDbEntity
  8
1
390
0
  6
DOT
 62
     9
100
AcDbLine
 10
306.406894
 20
117.738299
 30
0.0
 11
307.906894
 21
117.738299
 31
0.0
  0
LINE
  5
103
100
AcDbEntity
  8
1
390
0
  6
DOT
 62
     9
100
AcDbLine
 10
307.906894
 20
117.738299
 30
0.0
 11
308.506894
 21
117.738299
 31
0.0
  0
LINE
  5
104
100
AcDbEntity
  8
1
390
0
  6
DOT
 62
     9
100
AcDbLine
 10
308.506894
 20
124.738299
 30
0.0
 11
307.906894
 21
124.738299
 31
0.0
  0
LINE
  5
105
100
AcDbEntity
  8
1
390
0
  6
DOT
 62
     9
100
AcDbLine
 10
307.906894
 20
124.738299
 30
0.0
 11
306.406894
 21
124.738299
 31
0.0
  0
LINE
  5
106
100
AcDbEntity
  8
1
390
0
  6
DOT
 62
     9
100
AcDbLine
 10
306.406894
 20
124.238299
 30
0.0
 11
305.906894
 21
124.238299
 31
0.0
  0
LINE
  5
107
100
AcDbEntity
  8
1
390
0
  6
DOT
 62
     9
100
AcDbLine
 10
305.906894
 20
118.238299
 30
0.0
 11
306.406894
 21
118.238299
 31
0.0
  0
LINE
  5
108
100
AcDbEntity
  8
1
390
0
  6
DOT
 62
     9
100
AcDbLine
 10
308.506894
 20
118.288299
 30
0.0
 11
311.906894
 21
118.288299
 31
0.0
  0
LINE
  5
109
100
AcDbEntity
  8
1
390
0
  6
Continuous
 62
     7
100
AcDbLine
 10
311.906894
 20
118.288299
 30
0.0
 11
312.506894
 21
118.288299
 31
0.0
  0
LINE
  5
10A
100
AcDbEntity
  8
1
390
0
  6
Continuous
 62
     7
100
AcDbLine
 10
312.506894
 20
124.188299
 30
0.0
 11
311.906894
 21
124.188299
 31
0.0
  0
LINE
  5
10B
100
AcDbEntity
  8
1
390
0
  6
DOT
 62
     9
100
AcDbLine
 10
311.906894
 20
124.188299
 30
0.0
 11
310.306894
 21
124.188299
 31
0.0
  0
LINE
  5
10C
100
AcDbEntity
  8
1
390
0
  6
DOT
 62
     9
100
AcDbLine
 10
310.306894
 20
124.188299
 30
0.0
 11
308.506894
 21
124.188299
 31
0.0
  0
LINE
  5
10D
100
AcDbEntity
  8
1
390
0
  6
DOT
 62
     9
100
AcDbLine
 10
305.906894
 20
118.688299
 30
0.0
 11
309.006894
 21
118.688299
 31
0.0
  0
LINE
  5
10E
100
AcDbEntity
  8
1
390
0
  6
DOT
 62
     9
100
AcDbLine
 10
309.006894
 20
123.788299
 30
0.0
 11
305.906894
 21
123.788299
 31
0.0
  0
LINE
  5
10F
100
AcDbEntity
  8
1
390
0
  6
DOT
 62
     9
100
AcDbLine
 10
309.006894
 20
123.488299
 30
0.0
 11
308.506894
 21
123.488299
 31
0.0
  0
LINE
  5
110
100
AcDbEntity
  8
1
390
0
  6
DOT
 62
     9
100
AcDbLine
 10
308.506894
 20
123.488299
 30
0.0
 11
307.906894
 21
123.488299
 31
0.0
  0
LINE
  5
111
100
AcDbEntity
  8
1
390
0
  6
DOT
 62
     9
100
AcDbLine
 10
307.906894
 20
123.488299
 30
0.0
 11
307.206894
 21
123.488299
 31
0.0
  0
LINE
  5
112
100
AcDbEntity
  8
1
390
0
  6
DOT
 62
     9
100
AcDbLine
 10
312.506894
 20
123.413299
 30
0.0
 11
309.306894
 21
123.413299
 31
0.0
  0
LINE
  5
113
100
AcDbEntity
  8
1
390
0
  6
DOT
 62
     9
100
AcDbLine
 10
309.306894
 20
119.063299
 30
0.0
 11
312.506894
 21
119.063299
 31
0.0
  0
LINE
  5
114
100
AcDbEntity
  8
1
390
0
  6
Continuous
 62
     7
100
AcDbLine
 10
273.906894
 20
122.938299
 30
0.0
 11
215.184985
 21
122.938299
 31
0.0
  0
LINE
  5
115
100
AcDbEntity
  8
1
390
0
  6
Continuous
 62
     7
100
AcDbLine
 10
212.373446
 20
119.538299
 30
0.0
 11
273.906894
 21
119.538299
 31
0.0
  0
LINE
  5
116
100
AcDbEntity
  8
1
390
0
  6
DOT
 62
     9
100
AcDbLine
 10
307.206894
 20
122.638299
 30
0.0
 11
306.406894
 21
122.638299
 31
0.0
  0
LINE
  5
117
100
AcDbEntity
  8
1
390
0
  6
DOT
 62
     9
100
AcDbLine
 10
306.406894
 20
122.638299
 30
0.0
 11
305.906894
 21
122.638299
 31
0.0
  0
LINE
  5
118
100
AcDbEntity
  8
1
390
0
  6
DOT
 62
     9
100
AcDbLine
 10
305.906894
 20
119.838299
 30
0.0
 11
306.406894
 21
119.838299
 31
0.0
  0
LINE
  5
119
100
AcDbEntity
  8
1
390
0
  6
DOT
 62
     9
100
AcDbLine
 10
306.406894
 20
119.838299
 30
0.0
 11
307.206894
 21
119.838299
 31
0.0
  0
LINE
  5
11A
100
AcDbEntity
  8
1
390
0
  6
DOT
 62
     9
100
AcDbLine
 10
309.306894
 20
122.638299
 30
0.0
 11
309.006894
 21
122.638299
 31
0.0
  0
LINE
  5
11B
100
AcDbEntity
  8
1
390
0
  6
DOT
 62
     9
100
AcDbLine
 10
309.006894
 20
119.838299
 30
0.0
 11
309.306894
 21
119.838299
 31
0.0
  0
LINE
  5
11C
100
AcDbEntity
  8
1
390
0
  6
DOT
 62
     9
100
AcDbLine
 10
309.006894
 20
119.988299
 30
0.0
 11
311.906894
 21
119.988299
 31
0.0
  0
LINE
  5
11D
100
AcDbEntity
  8
1
390
0
  6
DOT
 62
     9
100
AcDbLine
 10
311.906894
 20
119.988299
 30
0.0
 11
312.506894
 21
119.988299
 31
0.0
  0
LINE
  5
11E
100
AcDbEntity
  8
1
390
0
  6
Continuous
 62
     7
100
AcDbLine
 10
312.506894
 20
119.988299
 30
0.0
 11
316.556894
 21
119.988299
 31
0.0
  0
LINE
  5
11F
100
AcDbEntity
  8
1
390
0
  6
Continuous
 62
     7
100
AcDbLine
 10
316.556894
 20
122.488299
 30
0.0
 11
312.506894
 21
122.488299
 31
0.0
  0
LINE
  5
120
100
AcDbEntity
  8
1
390
0
  6
DOT
 62
     9
100
AcDbLine
 10
312.506894
 20
122.488299
 30
0.0
 11
311.906894
 21
122.488299
 31
0.0
  0
LINE
  5
121
100
AcDbEntity
  8
1
390
0
  6
DOT
 62
     9
100
AcDbLine
 10
311.906894
 20
122.488299
 30
0.0
 11
309.006894
 21
122.488299
 31
0.0
  0
LINE
  5
122
100
AcDbEntity
  8
1
390
0
  6
Continuous
 62
     7
100
AcDbLine
 10
316.556894
 20
119.988299
 30
0.0
 11
316.956894
 21
120.388299
 31
0.0
  0
LINE
  5
123
100
AcDbEntity
  8
1
390
0
  6
Continuous
 62
     7
100
AcDbLine
 10
316.956894
 20
122.088299
 30
0.0
 11
316.556894
 21
122.488299
 31
0.0
  0
LINE
  5
124
100
AcDbEntity
  8
1
390
0
  6
DOT
 62
     9
100
AcDbLine
 10
307.206894
 20
118.988299
 30
0.0
 11
307.906894
 21
118.988299
 31
0.0
  0
LINE
  5
125
100
AcDbEntity
  8
1
390
0
  6
DOT
 62
     9
100
AcDbLine
 10
307.906894
 20
118.988299
 30
0.0
 11
308.506894
 21
118.988299
 31
0.0
  0
LINE
  5
126
100
AcDbEntity
  8
1
390
0
  6
DOT
 62
     9
100
AcDbLine
 10
308.506894
 20
118.988299
 30
0.0
 11
309.006894
 21
118.988299
 31
0.0
  0
LINE
  5
127
100
AcDbEntity
  8
1
390
0
  6
CENTER
 62
     1
100
AcDbLine
 10
213.779216
 20
121.238299
 30
0.0
 11
317.156894
 21
121.238299
 31
0.0
  0
LINE
  5
128
100
AcDbEntity
  8
1
390
0
  6
Continuous
 62
     9
100
AcDbLine
 10
204.573236
 20
116.151998
 30
0.0
 11
212.950398
 21
126.28252
 31
0.0
  0
LINE
  5
129
100
AcDbEntity
  8
1
390
0
  6
Continuous
 62
     9
100
AcDbLine
 10
209.573236
 20
116.151998
 30
0.0
 11
217.950398
 21
126.28252
 31
0.0
  0
LINE
  5
12A
100
AcDbEntity
  8
1
390
0
  6
Continuous
 62
     7
100
AcDbLine
 10
81.415135
 20
123.188299
 30
0.0
 11
87.015135
 21
123.188299
 31
0.0
  0
LINE
  5
12B
100
AcDbEntity
  8
1
390
0
  6
Continuous
 62
     7
100
AcDbLine
 10
87.215135
 20
122.988299
 30
0.0
 11
81.215135
 21
122.988299
 31
0.0
  0
POLYLINE
  5
12C
100
AcDbEntity
  8
1
390
0
  6
DOT
 62
     9
100
AcDb2dPolyline
 66
     1
 10
0.0
 20
0.0
 30
0.0
 40
1.0
 41
1.0
  0
VERTEX
  5
12D
100
AcDbEntity
  8
1
390
0
 62
     9
100
AcDbVertex
100
AcDb2dVertex
 10
85.476087
 20
123.188299
 30
0.0
  0
VERTEX
  5
12E
100
AcDbEntity
  8
1
390
0
 62
     9
100
AcDbVertex
100
AcDb2dVertex
 10
85.676634
 20
123.092444
 30
0.0
  0
VERTEX
  5
12F
100
AcDbEntity
  8
1
390
0
 62
     9
100
AcDbVertex
100
AcDb2dVertex
 10
85.873448
 20
122.988299
 30
0.0
  0
SEQEND
  5
130
100
AcDbEntity
  8
0
390
0
  0
POLYLINE
  5
131
100
AcDbEntity
  8
1
390
0
  6
DOT
 62
     9
100
AcDb2dPolyline
 66
     1
 10
0.0
 20
0.0
 30
0.0
 40
1.0
 41
1.0
  0
VERTEX
  5
132
100
AcDbEntity
  8
1
390
0
 62
     9
100
AcDbVertex
100
AcDb2dVertex
 10
82.556823
 20
122.988299
 30
0.0
  0
VERTEX
  5
133
100
AcDbEntity
  8
1
390
0
 62
     9
100
AcDbVertex
100
AcDb2dVertex
 10
82.753305
 20
123.092277
 30
0.0
  0
VERTEX
  5
134
100
AcDbEntity
  8
1
390
0
 62
     9
100
AcDbVertex
100
AcDb2dVertex
 10
82.954183
 20
123.188299
 30
0.0
  0
SEQEND
  5
135
100
AcDbEntity
  8
0
390
0
  0
LINE
  5
136
100
AcDbEntity
  8
1
390
0
  6
Continuous
 62
     7
100
AcDbLine
 10
81.215135
 20
119.288299
 30
0.0
 11
87.215135
 21
119.288299
 31
0.0
  0
ARC
  5
137
100
AcDbEntity
  8
1
390
0
  6
DOT
 62
     9
100
AcDbCircle
 10
84.214667
 20
121.238299
 30
0.0
 40
1.700457
210
0.0
220
0.0
230
1.0
100
AcDbArc
 50
347.288712
 51
12.711288
  0
LINE
  5
138
100
AcDbEntity
  8
1
390
0
  6
DOT
 62
     9
100
AcDbLine
 10
85.873448
 20
120.864134
 30
0.0
 11
85.873448
 21
119.288299
 31
0.0
  0
LINE
  5
139
100
AcDbEntity
  8
1
390
0
  6
DOT
 62
     9
100
AcDbLine
 10
82.556823
 20
120.864134
 30
0.0
 11
82.556823
 21
119.288299
 31
0.0
  0
ARC
  5
13A
100
AcDbEntity
  8
1
390
0
  6
DOT
 62
     9
100
AcDbCircle
 10
84.215135
 20
121.238299
 30
0.0
 40
1.7
210
0.0
220
0.0
230
1.0
100
AcDbArc
 50
167.285241
 51
192.714759
  0
LINE
  5
13B
100
AcDbEntity
  8
1
390
0
  6
DOT
 62
     9
100
AcDbLine
 10
82.556823
 20
122.988299
 30
0.0
 11
82.556823
 21
121.612465
 31
0.0
  0
LINE
  5
13C
100
AcDbEntity
  8
1
390
0
  6
DOT
 62
     9
100
AcDbLine
 10
85.873448
 20
122.988299
 30
0.0
 11
85.873448
 21
121.612465
 31
0.0
  0
LINE
  5
13D
100
AcDbEntity
  8
1
390
0
  6
Continuous
 62
     7
100
AcDbLine
 10
81.715135
 20
119.188299
 30
0.0
 11
86.715135
 21
119.188299
 31
0.0
  0
LINE
  5
13E
100
AcDbEntity
  8
1
390
0
  6
Continuous
 62
     7
100
AcDbLine
 10
82.715135
 20
140.538299
 30
0.0
 11
85.715135
 21
140.538299
 31
0.0
  0
LINE
  5
13F
100
AcDbEntity
  8
1
390
0
  6
Continuous
 62
     7
100
AcDbLine
 10
83.365135
 20
141.188299
 30
0.0
 11
85.065135
 21
141.188299
 31
0.0
  0
LINE
  5
140
100
AcDbEntity
  8
1
390
0
  6
Continuous
 62
     7
100
AcDbLine
 10
83.365135
 20
149.188299
 30
0.0
 11
85.065135
 21
149.188299
 31
0.0
  0
ARC
  5
141
100
AcDbEntity
  8
1
390
0
  6
DOT
 62
     9
100
AcDbCircle
 10
84.215135
 20
121.238299
 30
0.0
 40
1.7
210
0.0
220
0.0
230
1.0
100
AcDbArc
 50
12.714759
 51
167.285241
  0
ARC
  5
142
100
AcDbEntity
  8
1
390
0
  6
DOT
 62
     9
100
AcDbCircle
 10
84.215135
 20
121.238299
 30
0.0
 40
1.7
210
0.0
220
0.0
230
1.0
100
AcDbArc
 50
192.714759
 51
347.285241
  0
CIRCLE
  5
143
100
AcDbEntity
  8
1
390
0
  6
DOT
 62
     9
100
AcDbCircle
 10
84.215135
 20
121.238299
 30
0.0
 40
1.9
210
0.0
220
0.0
230
1.0
  0
ARC
  5
144
100
AcDbEntity
  8
1
390
0
  6
Continuous
 62
     7
100
AcDbCircle
 10
84.215135
 20
121.238299
 30
0.0
 40
4.9
210
0.0
220
0.0
230
1.0
100
AcDbArc
 50
296.150626
 51
72.174294
  0
ARC
  5
145
100
AcDbEntity
  8
1
390
0
  6
DOT
 62
     9
100
AcDbCircle
 10
84.215135
 20
121.238299
 30
0.0
 40
4.9
210
0.0
220
0.0
230
1.0
100
AcDbArc
 50
72.174294
 51
107.825706
  0
ARC
  5
146
100
AcDbEntity
  8
1
390
0
  6
Continuous
 62
     7
100
AcDbCircle
 10
84.215135
 20
121.238299
 30
0.0
 40
4.9
210
0.0
220
0.0
230
1.0
100
AcDbArc
 50
107.825706
 51
296.150626
  0
CIRCLE
  5
147
100
AcDbEntity
  8
1
390
0
  6
DOT
 62
     9
100
AcDbCircle
 10
84.215135
 20
121.238299
 30
0.0
 40
3.6
210
0.0
220
0.0
230
1.0
  0
CIRCLE
  5
148
100
AcDbEntity
  8
1
390
0
  6
DOT
 62
     9
100
AcDbCircle
 10
84.215135
 20
121.238299
 30
0.0
 40
1.4
210
0.0
220
0.0
230
1.0
  0
CIRCLE
  5
149
100
AcDbEntity
  8
1
390
0
  6
DOT
 62
     9
100
AcDbCircle
 10
84.215135
 20
121.238299
 30
0.0
 40
2.55
210
0.0
220
0.0
230
1.0
  0
CIRCLE
  5
14A
100
AcDbEntity
  8
1
390
0
  6
DOT
 62
     9
100
AcDbCircle
 10
84.215135
 20
121.238299
 30
0.0
 40
3.0
210
0.0
220
0.0
230
1.0
  0
ARC
  5
14B
100
AcDbEntity
  8
1
390
0
  6
DOT
 62
     9
100
AcDbCircle
 10
84.215135
 20
121.238299
 30
0.0
 40
3.5
210
0.0
220
0.0
230
1.0
100
AcDbArc
 50
115.376934
 51
155.520768
  0
ARC
  5
14C
100
AcDbEntity
  8
1
390
0
  6
DOT
 62
     9
100
AcDbCircle
 10
84.215135
 20
121.238299
 30
0.0
 40
3.5
210
0.0
220
0.0
230
1.0
100
AcDbArc
 50
64.623066
 51
115.376934
  0
ARC
  5
14D
100
AcDbEntity
  8
1
390
0
  6
DOT
 62
     9
100
AcDbCircle
 10
84.215135
 20
121.238299
 30
0.0
 40
3.5
210
0.0
220
0.0
230
1.0
100
AcDbArc
 50
328.997281
 51
64.623066
  0
ARC
  5
14E
100
AcDbEntity
  8
1
390
0
  6
DOT
 62
     9
100
AcDbCircle
 10
84.215135
 20
121.238299
 30
0.0
 40
3.5
210
0.0
220
0.0
230
1.0
100
AcDbArc
 50
326.141563
 51
328.997281
  0
ARC
  5
14F
100
AcDbEntity
  8
1
390
0
  6
DOT
 62
     9
100
AcDbCircle
 10
84.215135
 20
121.238299
 30
0.0
 40
3.5
210
0.0
220
0.0
230
1.0
100
AcDbArc
 50
213.858437
 51
326.141563
  0
ARC
  5
150
100
AcDbEntity
  8
1
390
0
  6
DOT
 62
     9
100
AcDbCircle
 10
84.215135
 20
121.238299
 30
0.0
 40
3.5
210
0.0
220
0.0
230
1.0
100
AcDbArc
 50
211.002719
 51
213.858437
  0
ARC
  5
151
100
AcDbEntity
  8
1
390
0
  6
DOT
 62
     9
100
AcDbCircle
 10
84.215135
 20
121.238299
 30
0.0
 40
3.5
210
0.0
220
0.0
230
1.0
100
AcDbArc
 50
155.520768
 51
211.002719
  0
ARC
  5
152
100
AcDbEntity
  8
1
390
0
  6
DOT
 62
     9
100
AcDbCircle
 10
84.215135
 20
121.238299
 30
0.0
 40
2.25
210
0.0
220
0.0
230
1.0
100
AcDbArc
 50
152.896461
 51
293.954019
  0
LINE
  5
153
100
AcDbEntity
  8
1
390
0
  6
DOT
 62
     9
100
AcDbLine
 10
83.694358
 20
122.879577
 30
0.0
 11
82.60495
 21
121.848465
 31
0.0
  0
ARC
  5
154
100
AcDbEntity
  8
1
390
0
  6
DOT
 62
     9
100
AcDbCircle
 10
84.215135
 20
121.238299
 30
0.0
 40
2.25
210
0.0
220
0.0
230
1.0
100
AcDbArc
 50
332.896461
 51
113.954019
  0
LINE
  5
155
100
AcDbEntity
  8
1
390
0
  6
DOT
 62
     9
100
AcDbLine
 10
85.825321
 20
120.628134
 30
0.0
 11
86.218051
 21
120.2132
 31
0.0
  0
LINE
  5
156
100
AcDbEntity
  8
1
390
0
  6
DOT
 62
     9
100
AcDbLine
 10
85.128643
 20
119.182088
 30
0.0
 11
84.735913
 21
119.597022
 31
0.0
  0
LINE
  5
157
100
AcDbEntity
  8
1
390
0
  6
DOT
 62
     9
100
AcDbLine
 10
82.60495
 20
121.848465
 30
0.0
 11
82.21222
 21
122.263399
 31
0.0
  0
LINE
  5
158
100
AcDbEntity
  8
1
390
0
  6
DOT
 62
     9
100
AcDbLine
 10
83.301628
 20
123.294511
 30
0.0
 11
83.694358
 21
122.879577
 31
0.0
  0
LINE
  5
159
100
AcDbEntity
  8
1
390
0
  6
DOT
 62
     9
100
AcDbLine
 10
84.735913
 20
119.597022
 30
0.0
 11
85.825321
 21
120.628134
 31
0.0
  0
CIRCLE
  5
15A
100
AcDbEntity
  8
1
390
0
  6
DOT
 62
     9
100
AcDbCircle
 10
84.215135
 20
121.238299
 30
0.0
 40
4.55
210
0.0
220
0.0
230
1.0
  0
LINE
  5
15B
100
AcDbEntity
  8
1
390
0
  6
DOT
 62
     9
100
AcDbLine
 10
86.515064
 20
123.876543
 30
0.0
 11
86.275245
 21
123.349803
 31
0.0
  0
ARC
  5
15C
100
AcDbEntity
  8
1
390
0
  6
DOT
 62
     9
100
AcDbCircle
 10
84.215135
 20
121.238299
 30
0.0
 40
2.95
210
0.0
220
0.0
230
1.0
100
AcDbArc
 50
85.335696
 51
45.70584
  0
LINE
  5
15D
100
AcDbEntity
  8
1
390
0
  6
DOT
 62
     9
100
AcDbLine
 10
84.455022
 20
124.17853
 30
0.0
 11
84.694841
 21
124.70527
 31
0.0
  0
CIRCLE
  5
15E
100
AcDbEntity
  8
1
390
0
  6
DOT
 62
     9
100
AcDbCircle
 10
84.215135
 20
121.238299
 30
0.0
 40
1.25
210
0.0
220
0.0
230
1.0
  0
CIRCLE
  5
15F
100
AcDbEntity
  8
1
390
0
  6
DOT
 62
     9
100
AcDbCircle
 10
84.215135
 20
121.238299
 30
0.0
 40
2.175
210
0.0
220
0.0
230
1.0
  0
ARC
  5
160
100
AcDbEntity
  8
1
390
0
  6
DOT
 62
     9
100
AcDbCircle
 10
84.215135
 20
121.238299
 30
0.0
 40
2.95
210
0.0
220
0.0
230
1.0
100
AcDbArc
 50
45.70584
 51
85.335696
  0
CIRCLE
  5
161
100
AcDbEntity
  8
1
390
0
  6
DOT
 62
     9
100
AcDbCircle
 10
84.215135
 20
121.238299
 30
0.0
 40
0.85
210
0.0
220
0.0
230
1.0
  0
LINE
  5
162
100
AcDbEntity
  8
1
390
0
  6
Continuous
 62
     7
100
AcDbLine
 10
87.215135
 20
122.988299
 30
0.0
 11
87.015135
 21
123.188299
 31
0.0
  0
LINE
  5
163
100
AcDbEntity
  8
1
390
0
  6
Continuous
 62
     7
100
AcDbLine
 10
81.415135
 20
123.188299
 30
0.0
 11
81.215135
 21
122.988299
 31
0.0
  0
LINE
  5
164
100
AcDbEntity
  8
1
390
0
  6
Continuous
 62
     7
100
AcDbLine
 10
87.215135
 20
119.288299
 30
0.0
 11
87.215135
 21
122.988299
 31
0.0
  0
LINE
  5
165
100
AcDbEntity
  8
1
390
0
  6
Continuous
 62
     7
100
AcDbLine
 10
81.215135
 20
122.988299
 30
0.0
 11
81.215135
 21
119.288299
 31
0.0
  0
LINE
  5
166
100
AcDbEntity
  8
1
390
0
  6
Continuous
 62
     7
100
AcDbLine
 10
85.715135
 20
123.188299
 30
0.0
 11
85.715135
 21
140.538299
 31
0.0
  0
LINE
  5
167
100
AcDbEntity
  8
1
390
0
  6
Continuous
 62
     7
100
AcDbLine
 10
82.715135
 20
140.538299
 30
0.0
 11
82.715135
 21
123.188299
 31
0.0
  0
LINE
  5
168
100
AcDbEntity
  8
1
390
0
  6
Continuous
 62
     7
100
AcDbLine
 10
85.715135
 20
140.538299
 30
0.0
 11
85.065135
 21
141.188299
 31
0.0
  0
LINE
  5
169
100
AcDbEntity
  8
1
390
0
  6
Continuous
 62
     7
100
AcDbLine
 10
83.365135
 20
141.188299
 30
0.0
 11
82.715135
 21
140.538299
 31
0.0
  0
LINE
  5
16A
100
AcDbEntity
  8
1
390
0
  6
Continuous
 62
     7
100
AcDbLine
 10
83.365135
 20
149.188299
 30
0.0
 11
83.365135
 21
141.188299
 31
0.0
  0
LINE
  5
16B
100
AcDbEntity
  8
1
390
0
  6
Continuous
 62
     7
100
AcDbLine
 10
85.065135
 20
141.188299
 30
0.0
 11
85.065135
 21
149.188299
 31
0.0
  0
LINE
  5
16C
100
AcDbEntity
  8
1
390
0
  6
CENTER
 62
     1
100
AcDbLine
 10
79.465135
 20
121.238299
 30
0.0
 11
88.965135
 21
121.238299
 31
0.0
  0
LINE
  5
16D
100
AcDbEntity
  8
1
390
0
  6
CENTER
 62
     1
100
AcDbLine
 10
84.215135
 20
116.488299
 30
0.0
 11
84.215135
 21
149.388299
 31
0.0
  0
CIRCLE
  5
16E
100
AcDbEntity
  8
1
390
0
  6
Continuous
 62
     7
100
AcDbCircle
 10
164.641373
 20
220.989311
 30
0.0
 40
0.85
210
0.0
220
0.0
230
1.0
  0
CIRCLE
  5
16F
100
AcDbEntity
  8
1
390
0
  6
Continuous
 62
     7
100
AcDbCircle
 10
164.641373
 20
220.989311
 30
0.0
 40
1.5
210
0.0
220
0.0
230
1.0
  0
ARC
  5
170
100
AcDbEntity
  8
1
390
0
  6
Continuous
 62
     7
100
AcDbCircle
 10
164.641373
 20
220.989311
 30
0.0
 40
2.8
210
0.0
220
0.0
230
1.0
100
AcDbArc
 50
26.765501
 51
333.234499
  0
LINE
  5
171
100
AcDbEntity
  8
1
390
0
  6
Continuous
 62
     7
100
AcDbLine
 10
167.141373
 20
222.250263
 30
0.0
 11
167.141373
 21
219.728359
 31
0.0
  0
ARC
  5
172
100
AcDbEntity
  8
1
390
0
  6
Continuous
 62
     7
100
AcDbCircle
 10
164.641373
 20
220.989311
 30
0.0
 40
3.0
210
0.0
220
0.0
230
1.0
100
AcDbArc
 50
33.55731
 51
326.44269
  0
LINE
  5
173
100
AcDbEntity
  8
1
390
0
  6
Continuous
 62
     7
100
AcDbLine
 10
167.141373
 20
222.647623
 30
0.0
 11
167.141373
 21
222.250263
 31
0.0
  0
LINE
  5
174
100
AcDbEntity
  8
1
390
0
  6
Continuous
 62
     7
100
AcDbLine
 10
167.141373
 20
219.728359
 30
0.0
 11
167.141373
 21
219.330998
 31
0.0
  0
LINE
  5
175
100
AcDbEntity
  8
1
390
0
  6
DOT
 62
     9
100
AcDbLine
 10
167.141373
 20
219.330998
 30
0.0
 11
167.113214
 21
219.289311
 31
0.0
  0
CIRCLE
  5
176
100
AcDbEntity
  8
1
390
0
  6
DOT
 62
     9
100
AcDbCircle
 10
164.641373
 20
220.989311
 30
0.0
 40
2.5
210
0.0
220
0.0
230
1.0
  0
LINE
  5
177
100
AcDbEntity
  8
1
390
0
  6
Continuous
 62
     7
100
AcDbLine
 10
211.941121
 20
222.689311
 30
0.0
 11
167.113408
 21
222.689311
 31
0.0
  0
LINE
  5
178
100
AcDbEntity
  8
1
390
0
  6
Continuous
 62
     7
100
AcDbLine
 10
167.113418
 20
219.289311
 30
0.0
 11
210.224931
 21
219.289311
 31
0.0
  0
LINE
  5
179
100
AcDbEntity
  8
1
390
0
  6
CENTER
 62
     1
100
AcDbLine
 10
164.641373
 20
217.789311
 30
0.0
 11
164.641373
 21
224.189311
 31
0.0
  0
LINE
  5
17A
100
AcDbEntity
  8
1
390
0
  6
CENTER
 62
     1
100
AcDbLine
 10
161.441373
 20
220.989311
 30
0.0
 11
212.950398
 21
220.989311
 31
0.0
  0
LINE
  5
17B
100
AcDbEntity
  8
1
390
0
  6
Continuous
 62
     7
100
AcDbLine
 10
298.906894
 20
216.089311
 30
0.0
 11
298.906894
 21
225.889311
 31
0.0
  0
LINE
  5
17C
100
AcDbEntity
  8
1
390
0
  6
Continuous
 62
     7
100
AcDbLine
 10
307.906894
 20
216.089311
 30
0.0
 11
307.906894
 21
225.889311
 31
0.0
  0
LINE
  5
17D
100
AcDbEntity
  8
1
390
0
  6
Continuous
 62
     7
100
AcDbLine
 10
273.906894
 20
219.089311
 30
0.0
 11
273.906894
 21
220.989311
 31
0.0
  0
LINE
  5
17E
100
AcDbEntity
  8
1
390
0
  6
Continuous
 62
     7
100
AcDbLine
 10
273.906894
 20
220.989311
 30
0.0
 11
273.906894
 21
222.889311
 31
0.0
  0
LINE
  5
17F
100
AcDbEntity
  8
1
390
0
  6
Continuous
 62
     7
100
AcDbLine
 10
311.906894
 20
225.539311
 30
0.0
 11
311.906894
 21
222.994644
 31
0.0
  0
LINE
  5
180
100
AcDbEntity
  8
1
390
0
  6
Continuous
 62
     7
100
AcDbLine
 10
311.906894
 20
222.994644
 30
0.0
 11
311.906894
 21
216.439311
 31
0.0
  0
LINE
  5
181
100
AcDbEntity
  8
1
390
0
  6
DOT
 62
     9
100
AcDbLine
 10
305.906894
 20
224.589311
 30
0.0
 11
305.906894
 21
222.575948
 31
0.0
  0
LINE
  5
182
100
AcDbEntity
  8
1
390
0
  6
DOT
 62
     9
100
AcDbLine
 10
305.906894
 20
222.575948
 30
0.0
 11
305.906894
 21
217.389311
 31
0.0
  0
LINE
  5
183
100
AcDbEntity
  8
1
390
0
  6
DOT
 62
     9
100
AcDbLine
 10
306.406894
 20
224.489311
 30
0.0
 11
306.406894
 21
224.174701
 31
0.0
  0
LINE
  5
184
100
AcDbEntity
  8
1
390
0
  6
DOT
 62
     9
100
AcDbLine
 10
308.506894
 20
224.489311
 30
0.0
 11
308.506894
 21
220.509605
 31
0.0
  0
LINE
  5
185
100
AcDbEntity
  8
1
390
0
  6
DOT
 62
     9
100
AcDbLine
 10
310.306894
 20
220.509605
 30
0.0
 11
308.506894
 21
220.509605
 31
0.0
  0
LINE
  5
186
100
AcDbEntity
  8
1
390
0
  6
DOT
 62
     9
100
AcDbLine
 10
310.306894
 20
220.509605
 30
0.0
 11
310.306894
 21
218.689382
 31
0.0
  0
LINE
  5
187
100
AcDbEntity
  8
1
390
0
  6
DOT
 62
     9
100
AcDbLine
 10
310.306894
 20
218.689382
 30
0.0
 11
308.506894
 21
218.689382
 31
0.0
  0
LINE
  5
188
100
AcDbEntity
  8
1
390
0
  6
DOT
 62
     9
100
AcDbLine
 10
306.406894
 20
224.174701
 30
0.0
 11
306.406894
 21
217.489311
 31
0.0
  0
LINE
  5
189
100
AcDbEntity
  8
1
390
0
  6
DOT
 62
     9
100
AcDbLine
 10
308.506894
 20
218.689382
 30
0.0
 11
308.506894
 21
217.489311
 31
0.0
  0
LINE
  5
18A
100
AcDbEntity
  8
1
390
0
  6
DOT
 62
     9
100
AcDbLine
 10
310.306894
 20
220.749424
 30
0.0
 11
308.506894
 21
220.749424
 31
0.0
  0
LINE
  5
18B
100
AcDbEntity
  8
1
390
0
  6
DOT
 62
     9
100
AcDbLine
 10
310.306894
 20
220.749424
 30
0.0
 11
310.306894
 21
220.509605
 31
0.0
  0
LINE
  5
18C
100
AcDbEntity
  8
1
390
0
  6
DOT
 62
     9
100
AcDbLine
 10
308.506894
 20
220.509605
 30
0.0
 11
308.506894
 21
218.929201
 31
0.0
  0
LINE
  5
18D
100
AcDbEntity
  8
1
390
0
  6
Continuous
 62
     7
100
AcDbLine
 10
312.506894
 20
223.939311
 30
0.0
 11
312.506894
 21
223.67414
 31
0.0
  0
LINE
  5
18E
100
AcDbEntity
  8
1
390
0
  6
DOT
 62
     9
100
AcDbLine
 10
308.506894
 20
218.929201
 30
0.0
 11
310.306894
 21
218.929201
 31
0.0
  0
LINE
  5
18F
100
AcDbEntity
  8
1
390
0
  6
Continuous
 62
     7
100
AcDbLine
 10
312.506894
 20
223.67414
 30
0.0
 11
312.506894
 21
218.039311
 31
0.0
  0
LINE
  5
190
100
AcDbEntity
  8
1
390
0
  6
DOT
 62
     9
100
AcDbLine
 10
308.506894
 20
218.689382
 30
0.0
 11
308.506894
 21
218.929201
 31
0.0
  0
LINE
  5
191
100
AcDbEntity
  8
1
390
0
  6
DOT
 62
     9
100
AcDbLine
 10
309.006894
 20
218.439311
 30
0.0
 11
309.006894
 21
223.539311
 31
0.0
  0
LINE
  5
192
100
AcDbEntity
  8
1
390
0
  6
DOT
 62
     9
100
AcDbLine
 10
307.206894
 20
218.986395
 30
0.0
 11
309.006894
 21
218.986395
 31
0.0
  0
LINE
  5
193
100
AcDbEntity
  8
1
390
0
  6
DOT
 62
     9
100
AcDbLine
 10
307.206894
 20
221.902818
 30
0.0
 11
307.206894
 21
218.739311
 31
0.0
  0
LINE
  5
194
100
AcDbEntity
  8
1
390
0
  6
DOT
 62
     9
100
AcDbLine
 10
309.006894
 20
221.902818
 30
0.0
 11
307.206894
 21
221.902818
 31
0.0
  0
LINE
  5
195
100
AcDbEntity
  8
1
390
0
  6
DOT
 62
     9
100
AcDbLine
 10
309.306894
 20
223.164311
 30
0.0
 11
309.306894
 21
222.968803
 31
0.0
  0
LINE
  5
196
100
AcDbEntity
  8
1
390
0
  6
DOT
 62
     9
100
AcDbLine
 10
309.306894
 20
222.968803
 30
0.0
 11
309.306894
 21
218.814311
 31
0.0
  0
LINE
  5
197
100
AcDbEntity
  8
1
390
0
  6
DOT
 62
     9
100
AcDbLine
 10
307.206894
 20
222.599496
 30
0.0
 11
309.006894
 21
222.599496
 31
0.0
  0
LINE
  5
198
100
AcDbEntity
  8
1
390
0
  6
DOT
 62
     9
100
AcDbLine
 10
307.206894
 20
221.510088
 30
0.0
 11
309.006894
 21
221.510088
 31
0.0
  0
LINE
  5
199
100
AcDbEntity
  8
1
390
0
  6
DOT
 62
     9
100
AcDbLine
 10
307.206894
 20
221.902818
 30
0.0
 11
307.206894
 21
222.599496
 31
0.0
  0
LINE
  5
19A
100
AcDbEntity
  8
1
390
0
  6
Continuous
 62
     7
100
AcDbLine
 10
316.956894
 20
221.839311
 30
0.0
 11
316.956894
 21
221.573607
 31
0.0
  0
LINE
  5
19B
100
AcDbEntity
  8
1
390
0
  6
Continuous
 62
     7
100
AcDbLine
 10
316.556894
 20
219.739311
 30
0.0
 11
316.556894
 21
221.84857
 31
0.0
  0
LINE
  5
19C
100
AcDbEntity
  8
1
390
0
  6
Continuous
 62
     7
100
AcDbLine
 10
316.956894
 20
221.573607
 30
0.0
 11
316.956894
 21
220.139311
 31
0.0
  0
LINE
  5
19D
100
AcDbEntity
  8
1
390
0
  6
Continuous
 62
     7
100
AcDbLine
 10
316.556894
 20
221.84857
 30
0.0
 11
316.556894
 21
222.239311
 31
0.0
  0
LINE
  5
19E
100
AcDbEntity
  8
1
390
0
  6
DOT
 62
     9
100
AcDbLine
 10
307.206894
 20
222.992226
 30
0.0
 11
309.006894
 21
222.992226
 31
0.0
  0
LINE
  5
19F
100
AcDbEntity
  8
1
390
0
  6
DOT
 62
     9
100
AcDbLine
 10
307.206894
 20
222.599496
 30
0.0
 11
307.206894
 21
222.992226
 31
0.0
  0
LINE
  5
1A0
100
AcDbEntity
  8
1
390
0
  6
DOT
 62
     9
100
AcDbLine
 10
307.206894
 20
223.239311
 30
0.0
 11
307.206894
 21
222.992226
 31
0.0
  0
LINE
  5
1A1
100
AcDbEntity
  8
1
390
0
  6
DOT
 62
     9
100
AcDbLine
 10
309.006894
 20
220.075803
 30
0.0
 11
307.206894
 21
220.075803
 31
0.0
  0
LINE
  5
1A2
100
AcDbEntity
  8
1
390
0
  6
DOT
 62
     9
100
AcDbLine
 10
307.206894
 20
219.379125
 30
0.0
 11
309.006894
 21
219.379125
 31
0.0
  0
LINE
  5
1A3
100
AcDbEntity
  8
1
390
0
  6
DOT
 62
     9
100
AcDbLine
 10
307.206894
 20
220.468533
 30
0.0
 11
309.006894
 21
220.468533
 31
0.0
  0
LINE
  5
1A4
100
AcDbEntity
  8
1
390
0
  6
Continuous
 62
     7
100
AcDbLine
 10
298.906894
 20
216.089311
 30
0.0
 11
307.906894
 21
216.089311
 31
0.0
  0
LINE
  5
1A5
100
AcDbEntity
  8
1
390
0
  6
Continuous
 62
     7
100
AcDbLine
 10
307.906894
 20
225.889311
 30
0.0
 11
298.906894
 21
225.889311
 31
0.0
  0
LINE
  5
1A6
100
AcDbEntity
  8
1
390
0
  6
Continuous
 62
     7
100
AcDbLine
 10
298.906894
 20
225.889311
 30
0.0
 11
273.906894
 21
222.889311
 31
0.0
  0
LINE
  5
1A7
100
AcDbEntity
  8
1
390
0
  6
Continuous
 62
     7
100
AcDbLine
 10
273.906894
 20
219.089311
 30
0.0
 11
298.906894
 21
216.089311
 31
0.0
  0
LINE
  5
1A8
100
AcDbEntity
  8
1
390
0
  6
Continuous
 62
     7
100
AcDbLine
 10
307.906894
 20
216.439311
 30
0.0
 11
311.906894
 21
216.439311
 31
0.0
  0
LINE
  5
1A9
100
AcDbEntity
  8
1
390
0
  6
Continuous
 62
     7
100
AcDbLine
 10
311.906894
 20
225.539311
 30
0.0
 11
307.906894
 21
225.539311
 31
0.0
  0
LINE
  5
1AA
100
AcDbEntity
  8
1
390
0
  6
DOT
 62
     9
100
AcDbLine
 10
311.906894
 20
224.589311
 30
0.0
 11
305.906894
 21
224.589311
 31
0.0
  0
LINE
  5
1AB
100
AcDbEntity
  8
1
390
0
  6
DOT
 62
     9
100
AcDbLine
 10
305.906894
 20
217.389311
 30
0.0
 11
311.906894
 21
217.389311
 31
0.0
  0
LINE
  5
1AC
100
AcDbEntity
  8
1
390
0
  6
DOT
 62
     9
100
AcDbLine
 10
306.406894
 20
217.489311
 30
0.0
 11
307.906894
 21
217.489311
 31
0.0
  0
LINE
  5
1AD
100
AcDbEntity
  8
1
390
0
  6
DOT
 62
     9
100
AcDbLine
 10
307.906894
 20
217.489311
 30
0.0
 11
308.506894
 21
217.489311
 31
0.0
  0
LINE
  5
1AE
100
AcDbEntity
  8
1
390
0
  6
DOT
 62
     9
100
AcDbLine
 10
308.506894
 20
224.489311
 30
0.0
 11
307.906894
 21
224.489311
 31
0.0
  0
LINE
  5
1AF
100
AcDbEntity
  8
1
390
0
  6
DOT
 62
     9
100
AcDbLine
 10
307.906894
 20
224.489311
 30
0.0
 11
306.406894
 21
224.489311
 31
0.0
  0
LINE
  5
1B0
100
AcDbEntity
  8
1
390
0
  6
DOT
 62
     9
100
AcDbLine
 10
306.406894
 20
223.989311
 30
0.0
 11
305.906894
 21
223.989311
 31
0.0
  0
LINE
  5
1B1
100
AcDbEntity
  8
1
390
0
  6
DOT
 62
     9
100
AcDbLine
 10
305.906894
 20
217.989311
 30
0.0
 11
306.406894
 21
217.989311
 31
0.0
  0
LINE
  5
1B2
100
AcDbEntity
  8
1
390
0
  6
DOT
 62
     9
100
AcDbLine
 10
308.506894
 20
218.039311
 30
0.0
 11
311.906894
 21
218.039311
 31
0.0
  0
LINE
  5
1B3
100
AcDbEntity
  8
1
390
0
  6
Continuous
 62
     7
100
AcDbLine
 10
311.906894
 20
218.039311
 30
0.0
 11
312.506894
 21
218.039311
 31
0.0
  0
LINE
  5
1B4
100
AcDbEntity
  8
1
390
0
  6
Continuous
 62
     7
100
AcDbLine
 10
312.506894
 20
223.939311
 30
0.0
 11
311.906894
 21
223.939311
 31
0.0
  0
LINE
  5
1B5
100
AcDbEntity
  8
1
390
0
  6
DOT
 62
     9
100
AcDbLine
 10
311.906894
 20
223.939311
 30
0.0
 11
308.506894
 21
223.939311
 31
0.0
  0
LINE
  5
1B6
100
AcDbEntity
  8
1
390
0
  6
DOT
 62
     9
100
AcDbLine
 10
305.906894
 20
218.439311
 30
0.0
 11
309.006894
 21
218.439311
 31
0.0
  0
LINE
  5
1B7
100
AcDbEntity
  8
1
390
0
  6
DOT
 62
     9
100
AcDbLine
 10
309.006894
 20
223.539311
 30
0.0
 11
305.906894
 21
223.539311
 31
0.0
  0
LINE
  5
1B8
100
AcDbEntity
  8
1
390
0
  6
DOT
 62
     9
100
AcDbLine
 10
307.206894
 20
218.739311
 30
0.0
 11
307.906894
 21
218.739311
 31
0.0
  0
LINE
  5
1B9
100
AcDbEntity
  8
1
390
0
  6
DOT
 62
     9
100
AcDbLine
 10
307.906894
 20
218.739311
 30
0.0
 11
309.006894
 21
218.739311
 31
0.0
  0
LINE
  5
1BA
100
AcDbEntity
  8
1
390
0
  6
DOT
 62
     9
100
AcDbLine
 10
312.506894
 20
223.164311
 30
0.0
 11
309.306894
 21
223.164311
 31
0.0
  0
LINE
  5
1BB
100
AcDbEntity
  8
1
390
0
  6
DOT
 62
     9
100
AcDbLine
 10
309.306894
 20
218.814311
 30
0.0
 11
312.506894
 21
218.814311
 31
0.0
  0
LINE
  5
1BC
100
AcDbEntity
  8
1
390
0
  6
Continuous
 62
     7
100
AcDbLine
 10
273.906894
 20
222.689311
 30
0.0
 11
216.5545
 21
222.689311
 31
0.0
  0
LINE
  5
1BD
100
AcDbEntity
  8
1
390
0
  6
Continuous
 62
     7
100
AcDbLine
 10
214.904015
 20
219.289311
 30
0.0
 11
273.906894
 21
219.289311
 31
0.0
  0
LINE
  5
1BE
100
AcDbEntity
  8
1
390
0
  6
DOT
 62
     9
100
AcDbLine
 10
307.206894
 20
222.389311
 30
0.0
 11
306.406894
 21
222.389311
 31
0.0
  0
LINE
  5
1BF
100
AcDbEntity
  8
1
390
0
  6
DOT
 62
     9
100
AcDbLine
 10
306.406894
 20
222.389311
 30
0.0
 11
305.906894
 21
222.389311
 31
0.0
  0
LINE
  5
1C0
100
AcDbEntity
  8
1
390
0
  6
DOT
 62
     9
100
AcDbLine
 10
305.906894
 20
219.589311
 30
0.0
 11
306.406894
 21
219.589311
 31
0.0
  0
LINE
  5
1C1
100
AcDbEntity
  8
1
390
0
  6
DOT
 62
     9
100
AcDbLine
 10
306.406894
 20
219.589311
 30
0.0
 11
307.206894
 21
219.589311
 31
0.0
  0
LINE
  5
1C2
100
AcDbEntity
  8
1
390
0
  6
DOT
 62
     9
100
AcDbLine
 10
309.306894
 20
222.389311
 30
0.0
 11
309.006894
 21
222.389311
 31
0.0
  0
LINE
  5
1C3
100
AcDbEntity
  8
1
390
0
  6
DOT
 62
     9
100
AcDbLine
 10
309.006894
 20
219.589311
 30
0.0
 11
309.306894
 21
219.589311
 31
0.0
  0
LINE
  5
1C4
100
AcDbEntity
  8
1
390
0
  6
Continuous
 62
     7
100
AcDbLine
 10
316.556894
 20
219.739311
 30
0.0
 11
316.956894
 21
220.139311
 31
0.0
  0
LINE
  5
1C5
100
AcDbEntity
  8
1
390
0
  6
Continuous
 62
     7
100
AcDbLine
 10
316.956894
 20
221.839311
 30
0.0
 11
316.556894
 21
222.239311
 31
0.0
  0
LINE
  5
1C6
100
AcDbEntity
  8
1
390
0
  6
DOT
 62
     9
100
AcDbLine
 10
309.006894
 20
219.739311
 30
0.0
 11
310.306894
 21
219.739311
 31
0.0
  0
LINE
  5
1C7
100
AcDbEntity
  8
1
390
0
  6
DOT
 62
     9
100
AcDbLine
 10
310.306894
 20
219.739311
 30
0.0
 11
311.906894
 21
219.739311
 31
0.0
  0
LINE
  5
1C8
100
AcDbEntity
  8
1
390
0
  6
DOT
 62
     9
100
AcDbLine
 10
311.906894
 20
219.739311
 30
0.0
 11
312.506894
 21
219.739311
 31
0.0
  0
LINE
  5
1C9
100
AcDbEntity
  8
1
390
0
  6
Continuous
 62
     7
100
AcDbLine
 10
312.506894
 20
219.739311
 30
0.0
 11
316.556894
 21
219.739311
 31
0.0
  0
LINE
  5
1CA
100
AcDbEntity
  8
1
390
0
  6
Continuous
 62
     7
100
AcDbLine
 10
316.556894
 20
222.239311
 30
0.0
 11
312.506894
 21
222.239311
 31
0.0
  0
LINE
  5
1CB
100
AcDbEntity
  8
1
390
0
  6
DOT
 62
     9
100
AcDbLine
 10
312.506894
 20
222.239311
 30
0.0
 11
311.906894
 21
222.239311
 31
0.0
  0
LINE
  5
1CC
100
AcDbEntity
  8
1
390
0
  6
DOT
 62
     9
100
AcDbLine
 10
311.906894
 20
222.239311
 30
0.0
 11
309.006894
 21
222.239311
 31
0.0
  0
LINE
  5
1CD
100
AcDbEntity
  8
1
390
0
  6
DOT
 62
     9
100
AcDbLine
 10
309.006894
 20
223.239311
 30
0.0
 11
308.506894
 21
223.239311
 31
0.0
  0
LINE
  5
1CE
100
AcDbEntity
  8
1
390
0
  6
DOT
 62
     9
100
AcDbLine
 10
308.506894
 20
223.239311
 30
0.0
 11
307.906894
 21
223.239311
 31
0.0
  0
LINE
  5
1CF
100
AcDbEntity
  8
1
390
0
  6
DOT
 62
     9
100
AcDbLine
 10
307.906894
 20
223.239311
 30
0.0
 11
307.206894
 21
223.239311
 31
0.0
  0
LINE
  5
1D0
100
AcDbEntity
  8
1
390
0
  6
CENTER
 62
     1
100
AcDbLine
 10
217.950398
 20
220.989311
 30
0.0
 11
317.156894
 21
220.989311
 31
0.0
  0
LINE
  5
1D2
100
AcDbEntity
  8
5
390
0
  6
Continuous
 62
     9
100
AcDbLine
 10
204.573236
 20
216.033732
 30
0.0
 11
212.950398
 21
219.055928
 31
0.0
  0
LINE
  5
1D3
100
AcDbEntity
  8
5
390
0
  6
Continuous
 62
     9
100
AcDbLine
 10
209.573236
 20
216.033732
 30
0.0
 11
217.950398
 21
219.055928
 31
0.0
  0
POINT
  5
1D4
100
AcDbEntity
  8
5
390
0
 62
     9
100
AcDbPoint
 10
213.458719
 20
225.695872
 30
0.0
  0
POINT
  5
1D5
100
AcDbEntity
  8
5
390
0
 62
     9
100
AcDbPoint
 10
208.479292
 20
215.830969
 30
0.0
  0
LINE
  5
1D6
100
AcDbEntity
  8
1
390
0
  6
Continuous
 62
     9
100
AcDbLine
 10
213.458719
 20
225.695872
 30
0.0
 11
208.479292
 21
215.830969
 31
0.0
  0
POLYLINE
  5
1D7
100
AcDbEntity
  8
1
390
0
  6
Continuous
 62
     9
100
AcDb3dPolyline
 66
     1
 10
0.0
 20
0.0
 30
0.0
 70
     8
 40
1.0
 41
1.0
  0
VERTEX
  5
1D8
100
AcDbEntity
  8
1
390
0
 62
     9
100
AcDbVertex
100
AcDb3dPolylineVertex
 10
213.458719
 20
225.695872
 30
0.0
 70
    32
  0
VERTEX
  5
1D9
100
AcDbEntity
  8
1
390
0
 62
     9
100
AcDbVertex
100
AcDb3dPolylineVertex
 10
208.479292
 20
215.830969
 30
0.0
 70
    32
  0
SEQEND
  5
1DA
100
AcDbEntity
  8
0
390
0
  0
POINT
  5
1DB
100
AcDbEntity
  8
5
390
0
 62
     9
100
AcDbPoint
 10
217.968388
 20
225.60192
 30
0.0
  0
POINT
  5
1DC
100
AcDbEntity
  8
5
390
0
 62
     9
100
AcDbPoint
 10
213.270816
 20
215.92492
 30
0.0
  0
LINE
  5
1DD
100
AcDbEntity
  8
1
390
0
  6
Continuous
 62
     9
100
AcDbLine
 10
217.968388
 20
225.60192
 30
0.0
 11
213.270816
 21
215.92492
 31
0.0
  0
POLYLINE
  5
1DE
100
AcDbEntity
  8
1
390
0
  6
Continuous
 62
     9
100
AcDb3dPolyline
 66
     1
 10
0.0
 20
0.0
 30
0.0
 70
     8
 40
1.0
 41
1.0
  0
VERTEX
  5
1DF
100
AcDbEntity
  8
1
390
0
 62
     9
100
AcDbVertex
100
AcDb3dPolylineVertex
 10
217.968388
 20
225.60192
 30
0.0
 70
    32
  0
VERTEX
  5
1E0
100
AcDbEntity
  8
1
390
0
 62
     9
100
AcDbVertex
100
AcDb3dPolylineVertex
 10
213.270816
 20
215.92492
 30
0.0
 70
    32
  0
SEQEND
  5
1E1
100
AcDbEntity
  8
0
390
0
  0
INSERT
  5
1F2
100
AcDbEntity
  8
1
390
0
100
AcDbBlockReference
  2
AID1341
 10
0.0
 20
0.0
 30
0.0
  0
INSERT
  5
205
100
AcDbEntity
  8
1
390
0
100
AcDbBlockReference
  2
AID1348
 10
0.0
 20
0.0
 30
0.0
  0
INSERT
  5
217
100
AcDbEntity
  8
1
390
0
100
AcDbBlockReference
  2
AID1357
 10
0.0
 20
0.0
 30
0.0
  0
INSERT
  5
22A
100
AcDbEntity
  8
1
390
0
100
AcDbBlockReference
  2
AID1365
 10
0.0
 20
0.0
 30
0.0
  0
INSERT
  5
23F
100
AcDbEntity
  8
1
390
0
100
AcDbBlockReference
  2
AID1374
 10
0.0
 20
0.0
 30
0.0
  0
INSERT
  5
251
100
AcDbEntity
  8
1
390
0
100
AcDbBlockReference
  2
AID1385
 10
0.0
 20
0.0
 30
0.0
  0
INSERT
  5
265
100
AcDbEntity
  8
1
390
0
100
AcDbBlockReference
  2
AID1393
 10
0.0
 20
0.0
 30
0.0
  0
INSERT
  5
279
100
AcDbEntity
  8
1
390
0
100
AcDbBlockReference
  2
AID1403
 10
0.0
 20
0.0
 30
0.0
  0
INSERT
  5
28E
100
AcDbEntity
  8
1
390
0
100
AcDbBlockReference
  2
AID1413
 10
0.0
 20
0.0
 30
0.0
  0
INSERT
  5
293
100
AcDbEntity
  8
1
390
0
100
AcDbBlockReference
  2
AID1424
 10
0.0
 20
0.0
 30
0.0
  0
INSERT
  5
298
100
AcDbEntity
  8
1
390
0
100
AcDbBlockReference
  2
AID1428
 10
0.0
 20
0.0
 30
0.0
  0
INSERT
  5
29D
100
AcDbEntity
  8
1
390
0
100
AcDbBlockReference
  2
AID1432
 10
0.0
 20
0.0
 30
0.0
  0
ENDSEC
  0
SECTION
  2
OBJECTS
  0
DICTIONARY
  5
19
100
AcDbDictionary
280
     0
281
     1
  3
ACAD_GROUP
350
1A
  3
ACAD_MLINESTYLE
350
1B
  3
ACAD_LAYOUT
350
1E
  3
ACAD_PLOTSETTINGS
350
22
  3
ACAD_PLOTSTYLENAME
350
1F
  3
ACAD_WIPEOUT_VARS
350
23
  0
DICTIONARY
  5
1A
102
{ACAD_REACTORS
330
19
102
}
100
AcDbDictionary
280
     0
281
     1
  0
DICTIONARY
  5
1B
102
{ACAD_REACTORS
330
19
102
}
100
AcDbDictionary
280
     0
281
     1
  3
Standard
350
1C
  0
MLINESTYLE
  5
1C
102
{ACAD_REACTORS
330
1B
102
}
100
AcDbMlineStyle
  2
Standard
 70
     0
  3

 62
     0
 51
90.0
 52
90.0
 71
     2
 49
0.5
 62
   256
  6
ByLayer
 49
-0.5
 62
   256
  6
ByLayer
  0
ACDBDICTIONARYWDFLT
  5
1F
102
{ACAD_REACTORS
330
19
102
}
100
AcDbDictionary
281
     1
  3
Normal
350
1D
100
AcDbDictionaryWithDefault
340
1D
  0
ACDBPLACEHOLDER
  5
1D
102
{ACAD_REACTORS
330
1F
102
}
  0
LAYOUT
  5
20
102
{ACAD_REACTORS
330
1E
102
}
100
AcDbPlotSettings
  1

  2

  4

  6

 40
0.0
 41
0.0
 42
0.0
 43
0.0
 44
0.0
 45
0.0
 46
0.0
 47
0.0
 48
0.0
 49
0.0
140
0.0
141
0.0
142
1.0
143
1.0
 70
  1024
 72
     0
 73
     0
 74
     0
  7

 75
     0
147
1.0
148
0.0
149
0.0
100
AcDbLayout
  1
Model
 70
     0
 71
     0
 10
0.0
 20
0.0
 11
0.0
 21
0.0
 12
0.0
 22
0.0
 32
0.0
 14
0.0
 24
0.0
 34
0.0
 15
0.0
 25
0.0
 35
0.0
146
0.0
 13
0.0
 23
0.0
 33
0.0
 16
0.0
 26
0.0
 36
0.0
 17
0.0
 27
0.0
 37
0.0
 76
     0
330
A
331
0
345
0
346
0
  0
LAYOUT
  5
21
102
{ACAD_REACTORS
330
1E
102
}
100
AcDbPlotSettings
  1

  2

  4

  6

 40
0.0
 41
0.0
 42
0.0
 43
0.0
 44
0.0
 45
0.0
 46
0.0
 47
0.0
 48
0.0
 49
0.0
140
0.0
141
0.0
142
1.0
143
1.0
 70
     0
 72
     0
 73
     0
 74
     0
  7

 75
     0
147
1.0
148
0.0
149
0.0
100
AcDbLayout
  1
Layout1
 70
     0
 71
     0
 10
0.0
 20
0.0
 11
0.0
 21
0.0
 12
0.0
 22
0.0
 32
0.0
 14
0.0
 24
0.0
 34
0.0
 15
0.0
 25
0.0
 35
0.0
146
0.0
 13
0.0
 23
0.0
 33
0.0
 16
0.0
 26
0.0
 36
0.0
 17
0.0
 27
0.0
 37
0.0
 76
     0
330
B
331
0
345
0
346
0
  0
DICTIONARY
  5
1E
102
{ACAD_REACTORS
330
19
102
}
100
AcDbDictionary
280
     0
281
     1
  3
Layout1
350
21
  3
Model
350
20
  0
DICTIONARY
  5
22
102
{ACAD_REACTORS
330
19
102
}
100
AcDbDictionary
280
     0
281
     1
  0
WIPEOUTVARIABLES
  5
23
100
AcDbWipeoutVariables
 70
     1
  0
ENDSEC
  0
EOF
