  0
SECTION
  2
HEADER
  9
$ACADVER
  1
AC1015
  9
$ACADMAINTVER
 70
     6
  9
$DWGCODEPAGE
  3
DOS932
  9
$INSBASE
 10
0.0
 20
0.0
 30
0.0
  9
$EXTMIN
 10
-312.241471
 20
0.0
 30
0.0
  9
$EXTMAX
 10
697.758529
 20
297.0
 30
5.0
  9
$LIMMIN
 10
-312.241471
 20
0.0
  9
$LIMMAX
 10
697.758529
 20
297.0
  9
$ORTHOMODE
 70
     0
  9
$REGENMODE
 70
     1
  9
$FILLMODE
 70
     1
  9
$QTEXTMODE
 70
     0
  9
$MIRRTEXT
 70
     1
  9
$LTSCALE
 40
10.0
  9
$ATTMODE
 70
     1
  9
$TEXTSIZE
 40
0.2
  9
$TRACEWID
 40
0.05
  9
$TEXTSTYLE
  7
Standard
  9
$CLAYER
  8
0
  9
$CELTYPE
  6
Continuous
  9
$CECOLOR
 62
   256
  9
$CELTSCALE
 40
1.0
  9
$DISPSILH
 70
     0
  9
$DIMSCALE
 40
1.0
  9
$DIMASZ
 40
1.8
  9
$DIMEXO
 40
1.8
  9
$DIMDLI
 40
0.38
  9
$DIMRND
 40
0.0
  9
$DIMDLE
 40
0.0
  9
$DIMEXE
 40
1.8
  9
$DIMTP
 40
0.0
  9
$DIMTM
 40
0.0
  9
$DIMTXT
 40
6.0
  9
$DIMCEN
 40
0.09
  9
$DIMTSZ
 40
0.0
  9
$DIMTOL
 70
     0
  9
$DIMLIM
 70
     0
  9
$DIMTIH
 70
     0
  9
$DIMTOH
 70
     0
  9
$DIMSE1
 70
     0
  9
$DIMSE2
 70
     0
  9
$DIMTAD
 70
     1
  9
$DIMZIN
 70
     0
  9
$DIMBLK
  1

  9
$DIMASO
 70
     1
  9
$DIMSHO
 70
     1
  9
$DIMPOST
  1

  9
$DIMAPOST
  1

  9
$DIMALT
 70
     0
  9
$DIMALTD
 70
     2
  9
$DIMALTF
 40
25.4
  9
$DIMLFAC
 40
1.0
  9
$DIMTOFL
 70
     0
  9
$DIMTVP
 40
0.0
  9
$DIMTIX
 70
     0
  9
$DIMSOXD
 70
     0
  9
$DIMSAH
 70
     0
  9
$DIMBLK1
  1

  9
$DIMBLK2
  1

  9
$DIMSTYLE
  2
Standard
  9
$DIMCLRD
 70
     7
  9
$DIMCLRE
 70
     7
  9
$DIMCLRT
 70
     7
  9
$DIMTFAC
 40
0.7
  9
$DIMGAP
 40
1.2
  9
$DIMJUST
 70
     0
  9
$DIMSD1
 70
     0
  9
$DIMSD2
 70
     0
  9
$DIMTOLJ
 70
     1
  9
$DIMTZIN
 70
     0
  9
$DIMALTZ
 70
     0
  9
$DIMALTTZ
 70
     0
  9
$DIMUPT
 70
     0
  9
$DIMDEC
 70
     7
  9
$DIMTDEC
 70
     4
  9
$DIMALTU
 70
     2
  9
$DIMALTTD
 70
     2
  9
$DIMTXSTY
  7
Standard
  9
$DIMAUNIT
 70
     0
  9
$DIMADEC
 70
     0
  9
$DIMALTRND
 40
0.0
  9
$DIMAZIN
 70
     0
  9
$DIMDSEP
 70
     0
  9
$DIMATFIT
 70
     3
  9
$DIMFRAC
 70
     0
  9
$DIMLDRBLK
  1

  9
$DIMLUNIT
 70
     2
  9
$DIMLWD
 70
     0
  9
$DIMLWE
 70
     0
  9
$DIMTMOVE
 70
     0
  9
$LUNITS
 70
     2
  9
$LUPREC
 70
     4
  9
$SKETCHINC
 40
0.1
  9
$FILLETRAD
 40
0.0
  9
$AUNITS
 70
     0
  9
$AUPREC
 70
     0
  9
$MENU
  1
acad
  9
$ELEVATION
 40
0.0
  9
$PELEVATION
 40
0.0
  9
$THICKNESS
 40
0.0
  9
$LIMCHECK
 70
     0
  9
$CHAMFERA
 40
0.0
  9
$CHAMFERB
 40
0.0
  9
$CHAMFERC
 40
0.0
  9
$CHAMFERD
 40
0.0
  9
$SKPOLY
 70
     0
  9
$TDCREATE
 40
2459173.593321759
  9
$TDUCREATE
 40
0.000000000
  9
$TDUPDATE
 40
2459173.218125000
  9
$TDUUPDATE
 40
0.000000000
  9
$TDINDWG
 40
0.0000000000
  9
$TDUSRTIMER
 40
0.0000000000
  9
$USRTIMER
 70
     1
  9
$ANGBASE
 50
0.0
  9
$ANGDIR
 70
     0
  9
$PDMODE
 70
     0
  9
$PDSIZE
 40
0.0
  9
$PLINEWID
 40
0.0
  9
$SPLFRAME
 70
     0
  9
$SPLINETYPE
 70
     6
  9
$SPLINESEGS
 70
     8
  9
$HANDSEED
  5
417
  9
$SURFTAB1
 70
     6
  9
$SURFTAB2
 70
     6
  9
$SURFTYPE
 70
     6
  9
$SURFU
 70
     6
  9
$SURFV
 70
     6
  9
$UCSBASE
  2

  9
$UCSNAME
  2

  9
$UCSORG
 10
0.0
 20
0.0
 30
0.0
  9
$UCSXDIR
 10
1.0
 20
0.0
 30
0.0
  9
$UCSYDIR
 10
0.0
 20
1.0
 30
0.0
  9
$UCSORTHOREF
  2

  9
$UCSORTHOVIEW
 70
     0
  9
$UCSORGTOP
 10
0.0
 20
0.0
 30
0.0
  9
$UCSORGBOTTOM
 10
0.0
 20
0.0
 30
0.0
  9
$UCSORGLEFT
 10
0.0
 20
0.0
 30
0.0
  9
$UCSORGRIGHT
 10
0.0
 20
0.0
 30
0.0
  9
$UCSORGFRONT
 10
0.0
 20
0.0
 30
0.0
  9
$UCSORGBACK
 10
0.0
 20
0.0
 30
0.0
  9
$PUCSBASE
  2

  9
$PUCSNAME
  2

  9
$PUCSORG
 10
0.0
 20
0.0
 30
0.0
  9
$PUCSXDIR
 10
1.0
 20
0.0
 30
0.0
  9
$PUCSYDIR
 10
0.0
 20
1.0
 30
0.0
  9
$PUCSORTHOREF
  2

  9
$PUCSORTHOVIEW
 70
     0
  9
$PUCSORGTOP
 10
0.0
 20
0.0
 30
0.0
  9
$PUCSORGBOTTOM
 10
0.0
 20
0.0
 30
0.0
  9
$PUCSORGLEFT
 10
0.0
 20
0.0
 30
0.0
  9
$PUCSORGRIGHT
 10
0.0
 20
0.0
 30
0.0
  9
$PUCSORGFRONT
 10
0.0
 20
0.0
 30
0.0
  9
$PUCSORGBACK
 10
0.0
 20
0.0
 30
0.0
  9
$USERI1
 70
     0
  9
$USERI2
 70
     0
  9
$USERI3
 70
     0
  9
$USERI4
 70
     0
  9
$USERI5
 70
     0
  9
$USERR1
 40
0.0
  9
$USERR2
 40
0.0
  9
$USERR3
 40
0.0
  9
$USERR4
 40
0.0
  9
$USERR5
 40
0.0
  9
$WORLDVIEW
 70
     1
  9
$SHADEDGE
 70
     3
  9
$SHADEDIF
 70
    70
  9
$TILEMODE
 70
     1
  9
$MAXACTVP
 70
    16
  9
$PINSBASE
 10
0.0
 20
0.0
 30
0.0
  9
$PLIMCHECK
 70
     0
  9
$PEXTMIN
 10
1.000000E+20
 20
1.000000E+20
 30
1.000000E+20
  9
$PEXTMAX
 10
-1.000000E+20
 20
-1.000000E+20
 30
-1.000000E+20
  9
$PLIMMIN
 10
0.0
 20
0.0
  9
$PLIMMAX
 10
12.0
 20
9.0
  9
$UNITMODE
 70
     0
  9
$VISRETAIN
 70
     0
  9
$PLINEGEN
 70
     1
  9
$PSLTSCALE
 70
     0
  9
$TREEDEPTH
 70
  3020
  9
$CMLSTYLE
  2
Standard
  9
$CMLJUST
 70
     0
  9
$CMLSCALE
 40
1.0
  9
$PROXYGRAPHICS
 70
     0
  9
$MEASUREMENT
 70
     0
  9
$CELWEIGHT
370
     0
  9
$ENDCAPS
280
     0
  9
$JOINSTYLE
280
     0
  9
$LWDISPLAY
290
     0
  9
$INSUNITS
 70
     0
  9
$HYPERLINKBASE
  1

  9
$STYLESHEET
  1

  9
$XEDIT
290
     1
  9
$CEPSNTYPE
380
     0
  9
$PSTYLEMODE
290
     1
  9
$FINGERPRINTGUID
  2

  9
$VERSIONGUID
  2

  9
$EXTNAMES
290
     1
  9
$PSVPSCALE
 40
0.0
  0
ENDSEC
  0
SECTION
  2
CLASSES
  0
CLASS
  1
LWPOLYLINE
  2
AcDbPolyline
  3
AutoCAD 2000
 90
        0
280
     0
281
     1
  0
CLASS
  1
IMAGE
  2
AcDbRasterImage
  3
ISM
 90
      127
280
     0
281
     1
  0
CLASS
  1
OLE2FRAME
  2
AcDbOle2Frame
  3
AutoCAD 2000
 90
        0
280
     0
281
     1
  0
CLASS
  1
HATCH
  2
AcDbHatch
  3
AutoCAD 2000
 90
        0
280
     0
281
     1
  0
CLASS
  1
DICTIONARYVAR
  2
AcDbDictionaryVar
  3
AutoCAD 2000
 90
        0
280
     0
281
     0
  0
CLASS
  1
RASTERVARIABLES
  2
AcDbRasterVariables
  3
ISM
 90
        0
280
     0
281
     0
  0
CLASS
  1
IMAGEDEF
  2
AcDbRasterImageDef
  3
ISM
 90
        0
280
     0
281
     0
  0
CLASS
  1
IMAGEDEF_REACTOR
  2
AcDbRasterImageDefReactor
  3
ISM
 90
        1
280
     0
281
     0
  0
CLASS
  1
IDBUFFER
  2
AcDbIdBuffer
  3
AutoCAD 2000
 90
        0
280
     0
281
     0
  0
CLASS
  1
SPATIAL_FILTER
  2
AcDbSpatialFilter
  3
AutoCAD 2000
 90
        0
280
     0
281
     0
  0
CLASS
  1
XRECORD
  2
AcDbXrecord
  3
AutoCAD 2000
 90
        0
280
     0
281
     0
  0
CLASS
  1
SORTENTSTABLE
  2
AcDbSortentsTable
  3
AutoCAD 2000
 90
        0
280
     0
281
     0
  0
CLASS
  1
LAYER_INDEX
  2
AcDbLayerIndex
  3
AutoCAD 2000
 90
        0
280
     0
281
     0
  0
CLASS
  1
SPATIAL_INDEX
  2
AcDbSpatialIndex
  3
AutoCAD 2000
 90
        0
280
     0
281
     0
  0
CLASS
  1
OBJECT_PTR
  2
CAseDLPNTableRecord
  3
"ASE-LPNTableRecord"
 90
        1
280
     0
281
     0
  0
CLASS
  1
LAYOUT
  2
AcDbLayout
  3
AutoCAD 2000
 90
        0
280
     0
281
     0
  0
CLASS
  1
PLOTSETTINGS
  2
AcDbPlotSettings
  3
AutoCAD 2000
 90
        0
280
     0
281
     0
  0
CLASS
  1
ACDBDICTIONARYWDFLT
  2
AcDbDictionaryWithDefault
  3
AutoCAD 2000
 90
        0
280
     0
281
     0
  0
CLASS
  1
ACDBPLACEHOLDER
  2
AcDbPlaceHolder
  3
AutoCAD 2000
 90
        0
280
     0
281
     0
  0
CLASS
  1
VBA_PROJECT
  2
AcDbVbaProject
  3
acadvba
 90
        0
280
     0
281
     0
  0
CLASS
  1
WIPEOUT
  2
AcDbWipeout
  3
WipeOut|AutoCAD Express Tool|expresstools@autodesk.com
 90
      127
280
     0
281
     1
  0
CLASS
  1
WIPEOUTVARIABLES
  2
AcDbWipeoutVariables
  3
WipeOut|AutoCAD Express Tool|expresstools@autodesk.com
 90
        0
280
     0
281
     0
  0
CLASS
  1
RTEXT
  2
RText
  3
RText|AutoCAD Express Tool|expresstools@autodesk.com
 90
        0
280
     0
281
     1
  0
CLASS
  1
ARCALIGNEDTEXT
  2
AcDbArcAlignedText
  3
ATEXT|AutoCAD Express Tool|expresstools@autodesk.com
 90
        0
280
     0
281
     1
  0
ENDSEC
  0
SECTION
  2
TABLES
  0
TABLE
  2
VPORT
  5
7
100
AcDbSymbolTable
 70
     1
  0
VPORT
  5
15
100
AcDbSymbolTableRecord
100
AcDbViewportTableRecord
  2
*ACTIVE
 70
     0
 10
0.0
 20
0.0
 11
1.0
 21
1.0
 12
6.591288
 22
4.579184
 13
0.0
 23
0.0
 14
1.0
 24
1.0
 15
0.0
 25
0.0
 16
0.0
 26
0.0
 36
1.0
 17
0.0
 27
0.0
 37
0.0
 40
9.158369
 41
0.688564
 42
50.0
 43
0.0
 44
0.0
 50
0.0
 51
0.0
 71
     0
 72
   100
 73
     1
 74
     1
 75
     0
 76
     0
 77
     0
 78
     0
281
     0
 65
     0
110
0.0
120
0.0
130
0.0
111
1.0
121
0.0
131
0.0
112
0.0
122
1.0
132
0.0
345
0
346
0
 79
     0
146
0.0
  0
ENDTAB
  0
TABLE
  2
LTYPE
  5
4
100
AcDbSymbolTable
 70
     5
  0
LTYPE
  5
11
100
AcDbSymbolTableRecord
100
AcDbLinetypeTableRecord
  2
ByBlock
 70
    64
  3

 72
    65
 73
     0
 40
0.0
  0
LTYPE
  5
12
100
AcDbSymbolTableRecord
100
AcDbLinetypeTableRecord
  2
ByLayer
 70
    64
  3

 72
    65
 73
     0
 40
0.0
  0
LTYPE
  5
13
100
AcDbSymbolTableRecord
100
AcDbLinetypeTableRecord
  2
Continuous
 70
    64
  3
Solid line
 72
    65
 73
     0
 40
0.0
  0
LTYPE
  5
102
100
AcDbSymbolTableRecord
100
AcDbLinetypeTableRecord
  2
DOT
 70
    64
  3
..............................................
 72
    65
 73
     2
 40
0.5
 49
0.25
 74
     0
 49
-0.25
 74
     0
  0
LTYPE
  5
207
100
AcDbSymbolTableRecord
100
AcDbLinetypeTableRecord
  2
CENTER
 70
    64
  3
____ _ ____ _ ____ _ ____ _ ____ _ ____ _ ____
 72
    65
 73
     4
 40
2.0
 49
1.25
 74
     0
 49
-0.25
 74
     0
 49
0.25
 74
     0
 49
-0.25
 74
     0
  0
ENDTAB
  0
TABLE
  2
LAYER
  5
2
100
AcDbSymbolTable
 70
     3
  0
LAYER
  5
14
100
AcDbSymbolTableRecord
100
AcDbLayerTableRecord
  2
0
 70
     0
 62
     7
  6
Continuous
290
     1
370
    -3
390
1D
  0
LAYER
  5
2B
100
AcDbSymbolTableRecord
100
AcDbLayerTableRecord
  2
256
 70
     0
 62
     7
  6
Continuous
290
     1
370
    -3
390
1D
  0
LAYER
  5
BC
100
AcDbSymbolTableRecord
100
AcDbLayerTableRecord
  2
1
 70
     0
 62
     7
  6
Continuous
290
     1
370
    -3
390
1D
  0
ENDTAB
  0
TABLE
  2
STYLE
  5
3
100
AcDbSymbolTable
 70
     1
  0
STYLE
  5
17
100
AcDbSymbolTableRecord
100
AcDbTextStyleTableRecord
  2
Standard
 70
     0
 40
0.0
 41
1.0
 50
0.0
 71
     0
 42
0.0
  3
ＭＳ Ｐゴシック
  4

1001
ACAD
1000
ＭＳ Ｐゴシック
1071
        0
  0
ENDTAB
  0
TABLE
  2
VIEW
  5
5
100
AcDbSymbolTable
 70
     0
  0
ENDTAB
  0
TABLE
  2
UCS
  5
6
100
AcDbSymbolTable
 70
     0
  0
ENDTAB
  0
TABLE
  2
APPID
  5
8
100
AcDbSymbolTable
 70
     2
  0
APPID
  5
16
100
AcDbSymbolTableRecord
100
AcDbRegAppTableRecord
  2
ACAD
 70
     0
  0
APPID
  5
26
100
AcDbSymbolTableRecord
100
AcDbRegAppTableRecord
  2
TOPsolid_Draft
 70
     0
  0
ENDTAB
  0
TABLE
  2
DIMSTYLE
  5
9
100
AcDbSymbolTable
 70
     1
100
AcDbDimStyleTable
 71
     0
  0
DIMSTYLE
105
18
100
AcDbSymbolTableRecord
100
AcDbDimStyleTableRecord
  2
Standard
 70
     0
  3

  4

 40
1.0
 41
1.8
 42
1.8
 43
0.38
 44
1.8
 45
0.0
 46
0.0
 47
0.0
 48
0.0
 71
     0
 72
     0
 73
     0
 74
     0
 75
     0
 76
     0
 77
     1
 78
     0
 79
     0
140
6.0
141
0.09
142
0.0
143
25.4
144
1.0
145
0.0
146
0.7
147
1.2
148
0.0
170
     0
171
     2
172
     0
173
     0
174
     0
175
     0
176
     7
177
     7
178
     7
179
     0
271
     7
272
     4
273
     2
274
     2
275
     0
276
     0
277
     2
278
    46
279
     0
280
     0
281
     0
282
     0
283
     1
284
     0
285
     0
286
     0
288
     0
289
     3
340
17
341
0
342
0
343
0
344
0
371
    -2
372
    -2
  0
ENDTAB
  0
TABLE
  2
BLOCK_RECORD
  5
1
100
AcDbSymbolTable
 70
    16
  0
BLOCK_RECORD
  5
A
100
AcDbSymbolTableRecord
100
AcDbBlockTableRecord
  2
*MODEL_SPACE
340
20
  0
BLOCK_RECORD
  5
B
100
AcDbSymbolTableRecord
100
AcDbBlockTableRecord
  2
*PAPER_SPACE
340
21
  0
BLOCK_RECORD
  5
B7
100
AcDbSymbolTableRecord
100
AcDbBlockTableRecord
  2
AID287
340
0
102
{BLKREFS
331
BB
102
}
  0
BLOCK_RECORD
  5
326
100
AcDbSymbolTableRecord
100
AcDbBlockTableRecord
  2
AID977
340
0
102
{BLKREFS
331
337
102
}
  0
BLOCK_RECORD
  5
338
100
AcDbSymbolTableRecord
100
AcDbBlockTableRecord
  2
AID985
340
0
102
{BLKREFS
331
349
102
}
  0
BLOCK_RECORD
  5
34A
100
AcDbSymbolTableRecord
100
AcDbBlockTableRecord
  2
AID993
340
0
102
{BLKREFS
331
35B
102
}
  0
BLOCK_RECORD
  5
35C
100
AcDbSymbolTableRecord
100
AcDbBlockTableRecord
  2
AID1001
340
0
102
{BLKREFS
331
36E
102
}
  0
BLOCK_RECORD
  5
370
100
AcDbSymbolTableRecord
100
AcDbBlockTableRecord
  2
AID1012
340
0
102
{BLKREFS
331
381
102
}
  0
BLOCK_RECORD
  5
382
100
AcDbSymbolTableRecord
100
AcDbBlockTableRecord
  2
AID1020
340
0
102
{BLKREFS
331
394
102
}
  0
BLOCK_RECORD
  5
395
100
AcDbSymbolTableRecord
100
AcDbBlockTableRecord
  2
AID1029
340
0
102
{BLKREFS
331
3A8
102
}
  0
BLOCK_RECORD
  5
3A9
100
AcDbSymbolTableRecord
100
AcDbBlockTableRecord
  2
AID1039
340
0
102
{BLKREFS
331
3BD
102
}
  0
BLOCK_RECORD
  5
3BE
100
AcDbSymbolTableRecord
100
AcDbBlockTableRecord
  2
AID1050
340
0
102
{BLKREFS
331
3D0
102
}
  0
BLOCK_RECORD
  5
3D1
100
AcDbSymbolTableRecord
100
AcDbBlockTableRecord
  2
AID1059
340
0
102
{BLKREFS
331
3E3
102
}
  0
BLOCK_RECORD
  5
3E4
100
AcDbSymbolTableRecord
100
AcDbBlockTableRecord
  2
AID1068
340
0
102
{BLKREFS
331
3F5
102
}
  0
BLOCK_RECORD
  5
3F6
100
AcDbSymbolTableRecord
100
AcDbBlockTableRecord
  2
AID1076
340
0
102
{BLKREFS
331
3FA
102
}
  0
BLOCK_RECORD
  5
3FB
100
AcDbSymbolTableRecord
100
AcDbBlockTableRecord
  2
AID1080
340
0
102
{BLKREFS
331
3FF
102
}
  0
BLOCK_RECORD
  5
400
100
AcDbSymbolTableRecord
100
AcDbBlockTableRecord
  2
AID1084
340
0
102
{BLKREFS
331
404
102
}
  0
BLOCK_RECORD
  5
405
100
AcDbSymbolTableRecord
100
AcDbBlockTableRecord
  2
AID1088
340
0
102
{BLKREFS
331
410
102
}
  0
ENDTAB
  0
ENDSEC
  0
SECTION
  2
BLOCKS
  0
BLOCK
  5
D
100
AcDbEntity
  8
0
390
0
100
AcDbBlockBegin
  2
*MODEL_SPACE
 70
     0
 10
0.0
 20
0.0
 30
0.0
  3
*MODEL_SPACE
  1

  0
ENDBLK
  5
E
100
AcDbEntity
  8
0
390
0
100
AcDbBlockEnd
  0
BLOCK
  5
F
100
AcDbEntity
 67
     1
  8
0
390
0
100
AcDbBlockBegin
  2
*PAPER_SPACE
 70
     0
 10
0.0
 20
0.0
 30
0.0
  3
*PAPER_SPACE
  1

  0
ENDBLK
  5
10
100
AcDbEntity
 67
     1
  8
0
390
0
100
AcDbBlockEnd
  0
BLOCK
  5
B8
100
AcDbEntity
  8
0
390
0
100
AcDbBlockBegin
  2
AID287
 70
     0
 10
0.0
 20
0.0
 30
0.0
  3
DNote#note referencing elements
  1

  0
MTEXT
  5
B9
100
AcDbEntity
  8
256
390
0
 62
     2
100
AcDbMText
 10
406.171318
 20
6.951938
 30
0.0
 40
3.0
 41
7.472727
 71
     7
 72
     1
  1
A3
210
0.0
220
0.0
230
1.0
 73
     1
 44
1.0
  0
ENDBLK
  5
BA
100
AcDbEntity
  8
0
390
0
100
AcDbBlockEnd
  0
BLOCK
  5
327
100
AcDbEntity
  8
0
390
0
100
AcDbBlockBegin
  2
AID977
 70
     0
 10
0.0
 20
0.0
 30
0.0
  3
DIMENS
  1

  0
MTEXT
  5
328
100
AcDbEntity
  8
1
390
0
 62
     2
100
AcDbMText
 10
148.185936
 20
210.377523
 30
0.0
 40
6.0
 41
9.872727
 71
     7
 72
     1
  1
11
210
0.0
220
0.0
230
1.0
 73
     1
 44
1.0
  0
LINE
  5
329
100
AcDbEntity
  8
1
390
0
  6
Continuous
 62
    11
100
AcDbLine
 10
145.890482
 20
209.286614
 30
0.0
 11
156.890482
 21
209.286614
 31
0.0
  0
LINE
  5
32A
100
AcDbEntity
  8
1
390
0
  6
Continuous
 62
    11
100
AcDbLine
 10
145.890482
 20
197.150423
 30
0.0
 11
145.890482
 21
211.086614
 31
0.0
  0
LINE
  5
32B
100
AcDbEntity
  8
1
390
0
  6
Continuous
 62
    11
100
AcDbLine
 10
156.890482
 20
193.650423
 30
0.0
 11
156.890482
 21
211.086614
 31
0.0
  0
POLYLINE
  5
32C
100
AcDbEntity
  8
1
390
0
  6
Continuous
 62
    11
100
AcDb2dPolyline
 66
     1
 10
0.0
 20
0.0
 30
0.0
 40
1.0
 41
1.0
  0
VERTEX
  5
32D
100
AcDbEntity
  8
1
390
0
 62
    11
100
AcDbVertex
100
AcDb2dVertex
 10
150.390482
 20
208.386614
 30
0.0
  0
VERTEX
  5
32E
100
AcDbEntity
  8
1
390
0
 62
    11
100
AcDbVertex
100
AcDb2dVertex
 10
145.890482
 20
209.286614
 30
0.0
  0
VERTEX
  5
32F
100
AcDbEntity
  8
1
390
0
 62
    11
100
AcDbVertex
100
AcDb2dVertex
 10
150.390482
 20
210.186614
 30
0.0
  0
SEQEND
  5
330
100
AcDbEntity
  8
0
390
0
  0
POLYLINE
  5
331
100
AcDbEntity
  8
1
390
0
  6
Continuous
 62
    11
100
AcDb2dPolyline
 66
     1
 10
0.0
 20
0.0
 30
0.0
 40
1.0
 41
1.0
  0
VERTEX
  5
332
100
AcDbEntity
  8
1
390
0
 62
    11
100
AcDbVertex
100
AcDb2dVertex
 10
152.390482
 20
210.186614
 30
0.0
  0
VERTEX
  5
333
100
AcDbEntity
  8
1
390
0
 62
    11
100
AcDbVertex
100
AcDb2dVertex
 10
156.890482
 20
209.286614
 30
0.0
  0
VERTEX
  5
334
100
AcDbEntity
  8
1
390
0
 62
    11
100
AcDbVertex
100
AcDb2dVertex
 10
152.390482
 20
208.386614
 30
0.0
  0
SEQEND
  5
335
100
AcDbEntity
  8
0
390
0
  0
ENDBLK
  5
336
100
AcDbEntity
  8
0
390
0
100
AcDbBlockEnd
  0
BLOCK
  5
339
100
AcDbEntity
  8
0
390
0
100
AcDbBlockBegin
  2
AID985
 70
     0
 10
0.0
 20
0.0
 30
0.0
  3
DIMENS
  1

  0
MTEXT
  5
33A
100
AcDbEntity
  8
1
390
0
 62
     2
100
AcDbMText
 10
150.2223
 20
221.414215
 30
0.0
 40
6.0
 41
11.727273
 71
     7
 72
     1
  1
16
210
0.0
220
0.0
230
1.0
 73
     1
 44
1.0
  0
LINE
  5
33B
100
AcDbEntity
  8
1
390
0
  6
Continuous
 62
    11
100
AcDbLine
 10
145.890482
 20
220.241488
 30
0.0
 11
161.890482
 21
220.241488
 31
0.0
  0
LINE
  5
33C
100
AcDbEntity
  8
1
390
0
  6
Continuous
 62
    11
100
AcDbLine
 10
145.890482
 20
197.150423
 30
0.0
 11
145.890482
 21
222.041488
 31
0.0
  0
LINE
  5
33D
100
AcDbEntity
  8
1
390
0
  6
Continuous
 62
    11
100
AcDbLine
 10
161.890482
 20
193.650423
 30
0.0
 11
161.890482
 21
222.041488
 31
0.0
  0
POLYLINE
  5
33E
100
AcDbEntity
  8
1
390
0
  6
Continuous
 62
    11
100
AcDb2dPolyline
 66
     1
 10
0.0
 20
0.0
 30
0.0
 40
1.0
 41
1.0
  0
VERTEX
  5
33F
100
AcDbEntity
  8
1
390
0
 62
    11
100
AcDbVertex
100
AcDb2dVertex
 10
150.390482
 20
219.341488
 30
0.0
  0
VERTEX
  5
340
100
AcDbEntity
  8
1
390
0
 62
    11
100
AcDbVertex
100
AcDb2dVertex
 10
145.890482
 20
220.241488
 30
0.0
  0
VERTEX
  5
341
100
AcDbEntity
  8
1
390
0
 62
    11
100
AcDbVertex
100
AcDb2dVertex
 10
150.390482
 20
221.141488
 30
0.0
  0
SEQEND
  5
342
100
AcDbEntity
  8
0
390
0
  0
POLYLINE
  5
343
100
AcDbEntity
  8
1
390
0
  6
Continuous
 62
    11
100
AcDb2dPolyline
 66
     1
 10
0.0
 20
0.0
 30
0.0
 40
1.0
 41
1.0
  0
VERTEX
  5
344
100
AcDbEntity
  8
1
390
0
 62
    11
100
AcDbVertex
100
AcDb2dVertex
 10
157.390482
 20
221.141488
 30
0.0
  0
VERTEX
  5
345
100
AcDbEntity
  8
1
390
0
 62
    11
100
AcDbVertex
100
AcDb2dVertex
 10
161.890482
 20
220.241488
 30
0.0
  0
VERTEX
  5
346
100
AcDbEntity
  8
1
390
0
 62
    11
100
AcDbVertex
100
AcDb2dVertex
 10
157.390482
 20
219.341488
 30
0.0
  0
SEQEND
  5
347
100
AcDbEntity
  8
0
390
0
  0
ENDBLK
  5
348
100
AcDbEntity
  8
0
390
0
100
AcDbBlockEnd
  0
BLOCK
  5
34B
100
AcDbEntity
  8
0
390
0
100
AcDbBlockBegin
  2
AID993
 70
     0
 10
0.0
 20
0.0
 30
0.0
  3
DIMENS
  1

  0
MTEXT
  5
34C
100
AcDbEntity
  8
1
390
0
 62
     2
100
AcDbMText
 10
232.485666
 20
209.785497
 30
0.0
 40
6.0
 41
11.618182
 71
     7
 72
     1
  1
17
210
0.0
220
0.0
230
1.0
 73
     1
 44
1.0
  0
LINE
  5
34D
100
AcDbEntity
  8
1
390
0
  6
Continuous
 62
    11
100
AcDbLine
 10
244.626575
 20
208.667315
 30
0.0
 11
227.626575
 21
208.667315
 31
0.0
  0
LINE
  5
34E
100
AcDbEntity
  8
1
390
0
  6
Continuous
 62
    11
100
AcDbLine
 10
244.626575
 20
195.425423
 30
0.0
 11
244.626575
 21
210.467315
 31
0.0
  0
LINE
  5
34F
100
AcDbEntity
  8
1
390
0
  6
Continuous
 62
    11
100
AcDbLine
 10
227.626575
 20
195.450423
 30
0.0
 11
227.626575
 21
210.467315
 31
0.0
  0
POLYLINE
  5
350
100
AcDbEntity
  8
1
390
0
  6
Continuous
 62
    11
100
AcDb2dPolyline
 66
     1
 10
0.0
 20
0.0
 30
0.0
 40
1.0
 41
1.0
  0
VERTEX
  5
351
100
AcDbEntity
  8
1
390
0
 62
    11
100
AcDbVertex
100
AcDb2dVertex
 10
240.126575
 20
209.567315
 30
0.0
  0
VERTEX
  5
352
100
AcDbEntity
  8
1
390
0
 62
    11
100
AcDbVertex
100
AcDb2dVertex
 10
244.626575
 20
208.667315
 30
0.0
  0
VERTEX
  5
353
100
AcDbEntity
  8
1
390
0
 62
    11
100
AcDbVertex
100
AcDb2dVertex
 10
240.126575
 20
207.767315
 30
0.0
  0
SEQEND
  5
354
100
AcDbEntity
  8
0
390
0
  0
POLYLINE
  5
355
100
AcDbEntity
  8
1
390
0
  6
Continuous
 62
    11
100
AcDb2dPolyline
 66
     1
 10
0.0
 20
0.0
 30
0.0
 40
1.0
 41
1.0
  0
VERTEX
  5
356
100
AcDbEntity
  8
1
390
0
 62
    11
100
AcDbVertex
100
AcDb2dVertex
 10
232.126575
 20
207.767315
 30
0.0
  0
VERTEX
  5
357
100
AcDbEntity
  8
1
390
0
 62
    11
100
AcDbVertex
100
AcDb2dVertex
 10
227.626575
 20
208.667315
 30
0.0
  0
VERTEX
  5
358
100
AcDbEntity
  8
1
390
0
 62
    11
100
AcDbVertex
100
AcDb2dVertex
 10
232.126575
 20
209.567315
 30
0.0
  0
SEQEND
  5
359
100
AcDbEntity
  8
0
390
0
  0
ENDBLK
  5
35A
100
AcDbEntity
  8
0
390
0
100
AcDbBlockEnd
  0
BLOCK
  5
35D
100
AcDbEntity
  8
0
390
0
100
AcDbBlockBegin
  2
AID1001
 70
     0
 10
0.0
 20
0.0
 30
0.0
  3
DIMENS
  1

  0
MTEXT
  5
35E
100
AcDbEntity
  8
1
390
0
 62
     2
100
AcDbMText
 10
259.883729
 20
198.834514
 30
0.0
 40
6.0
 41
9.490909
 71
     7
 72
     1
  1
Φ
210
0.0
220
0.0
230
1.0
 11
0.0
 21
1.0
 31
0.0
 73
     1
 44
1.0
  0
MTEXT
  5
35F
100
AcDbEntity
  8
1
390
0
 62
     2
100
AcDbMText
 10
259.883729
 20
204.779968
 30
0.0
 40
6.0
 41
5.181818
 71
     7
 72
     1
  1
7
210
0.0
220
0.0
230
1.0
 11
0.0
 21
1.0
 31
0.0
 73
     1
 44
1.0
  0
LINE
  5
360
100
AcDbEntity
  8
1
390
0
  6
Continuous
 62
    11
100
AcDbLine
 10
261.029183
 20
208.434514
 30
0.0
 11
261.029183
 21
177.675423
 31
0.0
  0
LINE
  5
361
100
AcDbEntity
  8
1
390
0
  6
Continuous
 62
    11
100
AcDbLine
 10
246.426575
 20
193.625423
 30
0.0
 11
262.829183
 21
193.625423
 31
0.0
  0
LINE
  5
362
100
AcDbEntity
  8
1
390
0
  6
Continuous
 62
    11
100
AcDbLine
 10
246.426575
 20
186.675423
 30
0.0
 11
262.829183
 21
186.675423
 31
0.0
  0
POLYLINE
  5
363
100
AcDbEntity
  8
1
390
0
  6
Continuous
 62
    11
100
AcDb2dPolyline
 66
     1
 10
0.0
 20
0.0
 30
0.0
 40
1.0
 41
1.0
  0
VERTEX
  5
364
100
AcDbEntity
  8
1
390
0
 62
    11
100
AcDbVertex
100
AcDb2dVertex
 10
260.129183
 20
198.125423
 30
0.0
  0
VERTEX
  5
365
100
AcDbEntity
  8
1
390
0
 62
    11
100
AcDbVertex
100
AcDb2dVertex
 10
261.029183
 20
193.625423
 30
0.0
  0
VERTEX
  5
366
100
AcDbEntity
  8
1
390
0
 62
    11
100
AcDbVertex
100
AcDb2dVertex
 10
261.929183
 20
198.125423
 30
0.0
  0
SEQEND
  5
367
100
AcDbEntity
  8
0
390
0
  0
POLYLINE
  5
368
100
AcDbEntity
  8
1
390
0
  6
Continuous
 62
    11
100
AcDb2dPolyline
 66
     1
 10
0.0
 20
0.0
 30
0.0
 40
1.0
 41
1.0
  0
VERTEX
  5
369
100
AcDbEntity
  8
1
390
0
 62
    11
100
AcDbVertex
100
AcDb2dVertex
 10
261.929183
 20
182.175423
 30
0.0
  0
VERTEX
  5
36A
100
AcDbEntity
  8
1
390
0
 62
    11
100
AcDbVertex
100
AcDb2dVertex
 10
261.029183
 20
186.675423
 30
0.0
  0
VERTEX
  5
36B
100
AcDbEntity
  8
1
390
0
 62
    11
100
AcDbVertex
100
AcDb2dVertex
 10
260.129183
 20
182.175423
 30
0.0
  0
SEQEND
  5
36C
100
AcDbEntity
  8
0
390
0
  0
ENDBLK
  5
36D
100
AcDbEntity
  8
0
390
0
100
AcDbBlockEnd
  0
BLOCK
  5
371
100
AcDbEntity
  8
0
390
0
100
AcDbBlockBegin
  2
AID1012
 70
     0
 10
0.0
 20
0.0
 30
0.0
  3
DIMENS
  1

  0
MTEXT
  5
372
100
AcDbEntity
  8
1
390
0
 62
     2
100
AcDbMText
 10
190.556256
 20
172.683044
 30
0.0
 40
6.0
 41
25.963636
 71
     7
 72
     1
  1
1000
210
0.0
220
0.0
230
0.9999999999999999
 11
1.0
 21
0.0
 31
0.0
 73
     1
 44
1.0
  0
LINE
  5
373
100
AcDbEntity
  8
1
390
0
  6
Continuous
 62
    11
100
AcDbLine
 10
244.626575
 20
171.537589
 30
0.0
 11
150.940482
 21
171.537589
 31
0.0
  0
LINE
  5
374
100
AcDbEntity
  8
1
390
0
  6
Continuous
 62
    11
100
AcDbLine
 10
244.626575
 20
184.875423
 30
0.0
 11
244.626575
 21
169.737589
 31
0.0
  0
LINE
  5
375
100
AcDbEntity
  8
1
390
0
  6
Continuous
 62
    11
100
AcDbLine
 10
150.940482
 20
188.350423
 30
0.0
 11
150.940482
 21
169.737589
 31
0.0
  0
POLYLINE
  5
376
100
AcDbEntity
  8
1
390
0
  6
Continuous
 62
    11
100
AcDb2dPolyline
 66
     1
 10
0.0
 20
0.0
 30
0.0
 40
1.0
 41
1.0
  0
VERTEX
  5
377
100
AcDbEntity
  8
1
390
0
 62
    11
100
AcDbVertex
100
AcDb2dVertex
 10
240.126575
 20
172.437589
 30
0.0
  0
VERTEX
  5
378
100
AcDbEntity
  8
1
390
0
 62
    11
100
AcDbVertex
100
AcDb2dVertex
 10
244.626575
 20
171.537589
 30
0.0
  0
VERTEX
  5
379
100
AcDbEntity
  8
1
390
0
 62
    11
100
AcDbVertex
100
AcDb2dVertex
 10
240.126575
 20
170.637589
 30
0.0
  0
SEQEND
  5
37A
100
AcDbEntity
  8
0
390
0
  0
POLYLINE
  5
37B
100
AcDbEntity
  8
1
390
0
  6
Continuous
 62
    11
100
AcDb2dPolyline
 66
     1
 10
0.0
 20
0.0
 30
0.0
 40
1.0
 41
1.0
  0
VERTEX
  5
37C
100
AcDbEntity
  8
1
390
0
 62
    11
100
AcDbVertex
100
AcDb2dVertex
 10
155.440482
 20
170.637589
 30
0.0
  0
VERTEX
  5
37D
100
AcDbEntity
  8
1
390
0
 62
    11
100
AcDbVertex
100
AcDb2dVertex
 10
150.940482
 20
171.537589
 30
0.0
  0
VERTEX
  5
37E
100
AcDbEntity
  8
1
390
0
 62
    11
100
AcDbVertex
100
AcDb2dVertex
 10
155.440482
 20
172.437589
 30
0.0
  0
SEQEND
  5
37F
100
AcDbEntity
  8
0
390
0
  0
ENDBLK
  5
380
100
AcDbEntity
  8
0
390
0
100
AcDbBlockEnd
  0
BLOCK
  5
383
100
AcDbEntity
  8
0
390
0
100
AcDbBlockBegin
  2
AID1020
 70
     0
 10
0.0
 20
0.0
 30
0.0
  3
DIMENS
  1

  0
MTEXT
  5
384
100
AcDbEntity
  8
1
390
0
 62
     2
100
AcDbMText
 10
153.099573
 20
138.416989
 30
0.0
 40
6.0
 41
9.490909
 71
     7
 72
     1
  1
Φ
210
0.0
220
0.0
230
1.0
 73
     1
 44
1.0
  0
MTEXT
  5
385
100
AcDbEntity
  8
1
390
0
 62
     2
100
AcDbMText
 10
159.045027
 20
138.416989
 30
0.0
 40
6.0
 41
6.054545
 71
     7
 72
     1
  1
4
210
0.0
220
0.0
230
1.0
 73
     1
 44
1.0
  0
LINE
  5
386
100
AcDbEntity
  8
1
390
0
  6
Continuous
 62
    11
100
AcDbLine
 10
134.890482
 20
137.271534
 30
0.0
 11
162.917754
 21
137.271534
 31
0.0
  0
LINE
  5
387
100
AcDbEntity
  8
1
390
0
  6
Continuous
 62
    11
100
AcDbLine
 10
143.890482
 20
118.686404
 30
0.0
 11
143.890482
 21
139.071534
 31
0.0
  0
LINE
  5
388
100
AcDbEntity
  8
1
390
0
  6
Continuous
 62
    11
100
AcDbLine
 10
147.890482
 20
118.686404
 30
0.0
 11
147.890482
 21
139.071534
 31
0.0
  0
POLYLINE
  5
389
100
AcDbEntity
  8
1
390
0
  6
Continuous
 62
    11
100
AcDb2dPolyline
 66
     1
 10
0.0
 20
0.0
 30
0.0
 40
1.0
 41
1.0
  0
VERTEX
  5
38A
100
AcDbEntity
  8
1
390
0
 62
    11
100
AcDbVertex
100
AcDb2dVertex
 10
139.390482
 20
136.371534
 30
0.0
  0
VERTEX
  5
38B
100
AcDbEntity
  8
1
390
0
 62
    11
100
AcDbVertex
100
AcDb2dVertex
 10
143.890482
 20
137.271534
 30
0.0
  0
VERTEX
  5
38C
100
AcDbEntity
  8
1
390
0
 62
    11
100
AcDbVertex
100
AcDb2dVertex
 10
139.390482
 20
138.171534
 30
0.0
  0
SEQEND
  5
38D
100
AcDbEntity
  8
0
390
0
  0
POLYLINE
  5
38E
100
AcDbEntity
  8
1
390
0
  6
Continuous
 62
    11
100
AcDb2dPolyline
 66
     1
 10
0.0
 20
0.0
 30
0.0
 40
1.0
 41
1.0
  0
VERTEX
  5
38F
100
AcDbEntity
  8
1
390
0
 62
    11
100
AcDbVertex
100
AcDb2dVertex
 10
152.390482
 20
138.171534
 30
0.0
  0
VERTEX
  5
390
100
AcDbEntity
  8
1
390
0
 62
    11
100
AcDbVertex
100
AcDb2dVertex
 10
147.890482
 20
137.271534
 30
0.0
  0
VERTEX
  5
391
100
AcDbEntity
  8
1
390
0
 62
    11
100
AcDbVertex
100
AcDb2dVertex
 10
152.390482
 20
136.371534
 30
0.0
  0
SEQEND
  5
392
100
AcDbEntity
  8
0
390
0
  0
ENDBLK
  5
393
100
AcDbEntity
  8
0
390
0
100
AcDbBlockEnd
  0
BLOCK
  5
396
100
AcDbEntity
  8
0
390
0
100
AcDbBlockBegin
  2
AID1029
 70
     0
 10
0.0
 20
0.0
 30
0.0
  3
DIMENS
  1

  0
MTEXT
  5
397
100
AcDbEntity
  8
1
390
0
 62
     2
100
AcDbMText
 10
119.931439
 20
123.058305
 30
0.0
 40
6.0
 41
5.672727
 71
     7
 72
     1
  1
8
210
0.0
220
0.0
230
1.0
 11
0.0
 21
1.0
 31
0.0
 73
     1
 44
1.0
  0
MTEXT
  5
398
100
AcDbEntity
  8
1
390
0
 62
     2
100
AcDbMText
 10
121.131439
 20
129.221941
 30
0.0
 40
4.2
 41
20.770909
 71
     7
 72
     1
  1
-0.03
210
0.0
220
0.0
230
1.0
 11
0.0
 21
1.0
 31
0.0
 73
     1
 44
1.0
  0
MTEXT
  5
399
100
AcDbEntity
  8
1
390
0
 62
     2
100
AcDbMText
 10
116.244166
 20
129.221941
 30
0.0
 40
4.2
 41
4.2
 71
     7
 72
     1
  1
 0
210
0.0
220
0.0
230
1.0
 11
0.0
 21
1.0
 31
0.0
 73
     1
 44
1.0
  0
LINE
  5
39A
100
AcDbEntity
  8
1
390
0
  6
Continuous
 62
    11
100
AcDbLine
 10
122.312348
 20
100.085577
 30
0.0
 11
122.312348
 21
140.341032
 31
0.0
  0
LINE
  5
39B
100
AcDbEntity
  8
1
390
0
  6
Continuous
 62
    11
100
AcDbLine
 10
139.590482
 20
109.085577
 30
0.0
 11
120.512348
 21
109.085577
 31
0.0
  0
LINE
  5
39C
100
AcDbEntity
  8
1
390
0
  6
Continuous
 62
    11
100
AcDbLine
 10
142.790482
 20
117.085577
 30
0.0
 11
120.512348
 21
117.085577
 31
0.0
  0
POLYLINE
  5
39D
100
AcDbEntity
  8
1
390
0
  6
Continuous
 62
    11
100
AcDb2dPolyline
 66
     1
 10
0.0
 20
0.0
 30
0.0
 40
1.0
 41
1.0
  0
VERTEX
  5
39E
100
AcDbEntity
  8
1
390
0
 62
    11
100
AcDbVertex
100
AcDb2dVertex
 10
123.212348
 20
104.585577
 30
0.0
  0
VERTEX
  5
39F
100
AcDbEntity
  8
1
390
0
 62
    11
100
AcDbVertex
100
AcDb2dVertex
 10
122.312348
 20
109.085577
 30
0.0
  0
VERTEX
  5
3A0
100
AcDbEntity
  8
1
390
0
 62
    11
100
AcDbVertex
100
AcDb2dVertex
 10
121.412348
 20
104.585577
 30
0.0
  0
SEQEND
  5
3A1
100
AcDbEntity
  8
0
390
0
  0
POLYLINE
  5
3A2
100
AcDbEntity
  8
1
390
0
  6
Continuous
 62
    11
100
AcDb2dPolyline
 66
     1
 10
0.0
 20
0.0
 30
0.0
 40
1.0
 41
1.0
  0
VERTEX
  5
3A3
100
AcDbEntity
  8
1
390
0
 62
    11
100
AcDbVertex
100
AcDb2dVertex
 10
121.412348
 20
121.585577
 30
0.0
  0
VERTEX
  5
3A4
100
AcDbEntity
  8
1
390
0
 62
    11
100
AcDbVertex
100
AcDb2dVertex
 10
122.312348
 20
117.085577
 30
0.0
  0
VERTEX
  5
3A5
100
AcDbEntity
  8
1
390
0
 62
    11
100
AcDbVertex
100
AcDb2dVertex
 10
123.212348
 20
121.585577
 30
0.0
  0
SEQEND
  5
3A6
100
AcDbEntity
  8
0
390
0
  0
ENDBLK
  5
3A7
100
AcDbEntity
  8
0
390
0
100
AcDbBlockEnd
  0
BLOCK
  5
3AA
100
AcDbEntity
  8
0
390
0
100
AcDbBlockBegin
  2
AID1039
 70
     0
 10
0.0
 20
0.0
 30
0.0
  3
DIMENS
  1

  0
MTEXT
  5
3AB
100
AcDbEntity
  8
1
390
0
 62
     2
100
AcDbMText
 10
156.099573
 20
94.243902
 30
0.0
 40
6.0
 41
9.490909
 71
     7
 72
     1
  1
Φ
210
0.0
220
0.0
230
1.0
 73
     1
 44
1.0
  0
MTEXT
  5
3AC
100
AcDbEntity
  8
1
390
0
 62
     2
100
AcDbMText
 10
162.045027
 20
94.243902
 30
0.0
 40
6.0
 41
12.0
 71
     7
 72
     1
  1
10
210
0.0
220
0.0
230
1.0
 73
     1
 44
1.0
  0
MTEXT
  5
3AD
100
AcDbEntity
  8
1
390
0
 62
     2
100
AcDbMText
 10
171.781391
 20
93.043902
 30
0.0
 40
4.2
 41
20.770909
 71
     7
 72
     1
  1
-0.05
210
0.0
220
0.0
230
1.0
 73
     1
 44
1.0
  0
MTEXT
  5
3AE
100
AcDbEntity
  8
1
390
0
 62
     2
100
AcDbMText
 10
171.781391
 20
97.931175
 30
0.0
 40
4.2
 41
4.2
 71
     7
 72
     1
  1
 0
210
0.0
220
0.0
230
1.0
 73
     1
 44
1.0
  0
LINE
  5
3AF
100
AcDbEntity
  8
1
390
0
  6
Continuous
 62
    11
100
AcDbLine
 10
131.890482
 20
91.862993
 30
0.0
 11
182.900482
 21
91.862993
 31
0.0
  0
LINE
  5
3B0
100
AcDbEntity
  8
1
390
0
  6
Continuous
 62
    11
100
AcDbLine
 10
140.890482
 20
107.785577
 30
0.0
 11
140.890482
 21
90.062993
 31
0.0
  0
LINE
  5
3B1
100
AcDbEntity
  8
1
390
0
  6
Continuous
 62
    11
100
AcDbLine
 10
150.890482
 20
107.835577
 30
0.0
 11
150.890482
 21
90.062993
 31
0.0
  0
POLYLINE
  5
3B2
100
AcDbEntity
  8
1
390
0
  6
Continuous
 62
    11
100
AcDb2dPolyline
 66
     1
 10
0.0
 20
0.0
 30
0.0
 40
1.0
 41
1.0
  0
VERTEX
  5
3B3
100
AcDbEntity
  8
1
390
0
 62
    11
100
AcDbVertex
100
AcDb2dVertex
 10
136.390482
 20
90.962993
 30
0.0
  0
VERTEX
  5
3B4
100
AcDbEntity
  8
1
390
0
 62
    11
100
AcDbVertex
100
AcDb2dVertex
 10
140.890482
 20
91.862993
 30
0.0
  0
VERTEX
  5
3B5
100
AcDbEntity
  8
1
390
0
 62
    11
100
AcDbVertex
100
AcDb2dVertex
 10
136.390482
 20
92.762993
 30
0.0
  0
SEQEND
  5
3B6
100
AcDbEntity
  8
0
390
0
  0
POLYLINE
  5
3B7
100
AcDbEntity
  8
1
390
0
  6
Continuous
 62
    11
100
AcDb2dPolyline
 66
     1
 10
0.0
 20
0.0
 30
0.0
 40
1.0
 41
1.0
  0
VERTEX
  5
3B8
100
AcDbEntity
  8
1
390
0
 62
    11
100
AcDbVertex
100
AcDb2dVertex
 10
155.390482
 20
92.762993
 30
0.0
  0
VERTEX
  5
3B9
100
AcDbEntity
  8
1
390
0
 62
    11
100
AcDbVertex
100
AcDb2dVertex
 10
150.890482
 20
91.862993
 30
0.0
  0
VERTEX
  5
3BA
100
AcDbEntity
  8
1
390
0
 62
    11
100
AcDbVertex
100
AcDb2dVertex
 10
155.390482
 20
90.962993
 30
0.0
  0
SEQEND
  5
3BB
100
AcDbEntity
  8
0
390
0
  0
ENDBLK
  5
3BC
100
AcDbEntity
  8
0
390
0
100
AcDbBlockEnd
  0
BLOCK
  5
3BF
100
AcDbEntity
  8
0
390
0
100
AcDbBlockBegin
  2
AID1050
 70
     0
 10
0.0
 20
0.0
 30
0.0
  3
DIMENS
  1

  0
MTEXT
  5
3C0
100
AcDbEntity
  8
1
390
0
 62
     2
100
AcDbMText
 10
168.114012
 20
119.294668
 30
0.0
 40
6.0
 41
9.490909
 71
     7
 72
     1
  1
Φ
210
0.0
220
0.0
230
1.0
 11
0.0
 21
1.0
 31
0.0
 73
     1
 44
1.0
  0
MTEXT
  5
3C1
100
AcDbEntity
  8
1
390
0
 62
     2
100
AcDbMText
 10
168.114012
 20
125.240123
 30
0.0
 40
6.0
 41
15.654545
 71
     7
 72
     1
  1
3.4
210
0.0
220
0.0
230
1.0
 11
0.0
 21
1.0
 31
0.0
 73
     1
 44
1.0
  0
LINE
  5
3C2
100
AcDbEntity
  8
1
390
0
  6
Continuous
 62
    11
100
AcDbLine
 10
169.286739
 20
134.021941
 30
0.0
 11
169.286739
 21
101.685577
 31
0.0
  0
LINE
  5
3C3
100
AcDbEntity
  8
1
390
0
  6
Continuous
 62
    11
100
AcDbLine
 10
163.690482
 20
114.085577
 30
0.0
 11
171.086739
 21
114.085577
 31
0.0
  0
LINE
  5
3C4
100
AcDbEntity
  8
1
390
0
  6
Continuous
 62
    11
100
AcDbLine
 10
163.690482
 20
110.685577
 30
0.0
 11
171.086739
 21
110.685577
 31
0.0
  0
POLYLINE
  5
3C5
100
AcDbEntity
  8
1
390
0
  6
Continuous
 62
    11
100
AcDb2dPolyline
 66
     1
 10
0.0
 20
0.0
 30
0.0
 40
1.0
 41
1.0
  0
VERTEX
  5
3C6
100
AcDbEntity
  8
1
390
0
 62
    11
100
AcDbVertex
100
AcDb2dVertex
 10
168.386739
 20
118.585577
 30
0.0
  0
VERTEX
  5
3C7
100
AcDbEntity
  8
1
390
0
 62
    11
100
AcDbVertex
100
AcDb2dVertex
 10
169.286739
 20
114.085577
 30
0.0
  0
VERTEX
  5
3C8
100
AcDbEntity
  8
1
390
0
 62
    11
100
AcDbVertex
100
AcDb2dVertex
 10
170.186739
 20
118.585577
 30
0.0
  0
SEQEND
  5
3C9
100
AcDbEntity
  8
0
390
0
  0
POLYLINE
  5
3CA
100
AcDbEntity
  8
1
390
0
  6
Continuous
 62
    11
100
AcDb2dPolyline
 66
     1
 10
0.0
 20
0.0
 30
0.0
 40
1.0
 41
1.0
  0
VERTEX
  5
3CB
100
AcDbEntity
  8
1
390
0
 62
    11
100
AcDbVertex
100
AcDb2dVertex
 10
170.186739
 20
106.185577
 30
0.0
  0
VERTEX
  5
3CC
100
AcDbEntity
  8
1
390
0
 62
    11
100
AcDbVertex
100
AcDb2dVertex
 10
169.286739
 20
110.685577
 30
0.0
  0
VERTEX
  5
3CD
100
AcDbEntity
  8
1
390
0
 62
    11
100
AcDbVertex
100
AcDb2dVertex
 10
168.386739
 20
106.185577
 30
0.0
  0
SEQEND
  5
3CE
100
AcDbEntity
  8
0
390
0
  0
ENDBLK
  5
3CF
100
AcDbEntity
  8
0
390
0
100
AcDbBlockEnd
  0
BLOCK
  5
3D2
100
AcDbEntity
  8
0
390
0
100
AcDbBlockBegin
  2
AID1059
 70
     0
 10
0.0
 20
0.0
 30
0.0
  3
DIMENS
  1

  0
MTEXT
  5
3D3
100
AcDbEntity
  8
1
390
0
 62
     2
100
AcDbMText
 10
177.167209
 20
119.844668
 30
0.0
 40
6.0
 41
9.490909
 71
     7
 72
     1
  1
Φ
210
0.0
220
0.0
230
1.0
 11
0.0
 21
1.0
 31
0.0
 73
     1
 44
1.0
  0
MTEXT
  5
3D4
100
AcDbEntity
  8
1
390
0
 62
     2
100
AcDbMText
 10
177.167209
 20
125.790123
 30
0.0
 40
6.0
 41
15.6
 71
     7
 72
     1
  1
4.5
210
0.0
220
0.0
230
1.0
 11
0.0
 21
1.0
 31
0.0
 73
     1
 44
1.0
  0
LINE
  5
3D5
100
AcDbEntity
  8
1
390
0
  6
Continuous
 62
    11
100
AcDbLine
 10
178.339936
 20
134.435577
 30
0.0
 11
178.339936
 21
101.135577
 31
0.0
  0
LINE
  5
3D6
100
AcDbEntity
  8
1
390
0
  6
Continuous
 62
    11
100
AcDbLine
 10
157.737854
 20
114.635577
 30
0.0
 11
180.139936
 21
114.635577
 31
0.0
  0
LINE
  5
3D7
100
AcDbEntity
  8
1
390
0
  6
Continuous
 62
    11
100
AcDbLine
 10
157.737854
 20
110.135577
 30
0.0
 11
180.139936
 21
110.135577
 31
0.0
  0
POLYLINE
  5
3D8
100
AcDbEntity
  8
1
390
0
  6
Continuous
 62
    11
100
AcDb2dPolyline
 66
     1
 10
0.0
 20
0.0
 30
0.0
 40
1.0
 41
1.0
  0
VERTEX
  5
3D9
100
AcDbEntity
  8
1
390
0
 62
    11
100
AcDbVertex
100
AcDb2dVertex
 10
177.439936
 20
119.135577
 30
0.0
  0
VERTEX
  5
3DA
100
AcDbEntity
  8
1
390
0
 62
    11
100
AcDbVertex
100
AcDb2dVertex
 10
178.339936
 20
114.635577
 30
0.0
  0
VERTEX
  5
3DB
100
AcDbEntity
  8
1
390
0
 62
    11
100
AcDbVertex
100
AcDb2dVertex
 10
179.239936
 20
119.135577
 30
0.0
  0
SEQEND
  5
3DC
100
AcDbEntity
  8
0
390
0
  0
POLYLINE
  5
3DD
100
AcDbEntity
  8
1
390
0
  6
Continuous
 62
    11
100
AcDb2dPolyline
 66
     1
 10
0.0
 20
0.0
 30
0.0
 40
1.0
 41
1.0
  0
VERTEX
  5
3DE
100
AcDbEntity
  8
1
390
0
 62
    11
100
AcDbVertex
100
AcDb2dVertex
 10
179.239936
 20
105.635577
 30
0.0
  0
VERTEX
  5
3DF
100
AcDbEntity
  8
1
390
0
 62
    11
100
AcDbVertex
100
AcDb2dVertex
 10
178.339936
 20
110.135577
 30
0.0
  0
VERTEX
  5
3E0
100
AcDbEntity
  8
1
390
0
 62
    11
100
AcDbVertex
100
AcDb2dVertex
 10
177.439936
 20
105.635577
 30
0.0
  0
SEQEND
  5
3E1
100
AcDbEntity
  8
0
390
0
  0
ENDBLK
  5
3E2
100
AcDbEntity
  8
0
390
0
100
AcDbBlockEnd
  0
BLOCK
  5
3E5
100
AcDbEntity
  8
0
390
0
100
AcDbBlockBegin
  2
AID1068
 70
     0
 10
0.0
 20
0.0
 30
0.0
  3
DIMENS
  1

  0
MTEXT
  5
3E6
100
AcDbEntity
  8
1
390
0
 62
     2
100
AcDbMText
 10
206.418698
 20
118.144668
 30
0.0
 40
6.0
 41
9.490909
 71
     7
 72
     1
  1
Φ
210
0.0
220
0.0
230
1.0
 11
0.0
 21
1.0
 31
0.0
 73
     1
 44
1.0
  0
MTEXT
  5
3E7
100
AcDbEntity
  8
1
390
0
 62
     2
100
AcDbMText
 10
206.418698
 20
124.090123
 30
0.0
 40
6.0
 41
12.709091
 71
     7
 72
     1
  1
1.1
210
0.0
220
0.0
230
1.0
 11
0.0
 21
1.0
 31
0.0
 73
     1
 44
1.0
  0
MTEXT
  5
3E8
100
AcDbEntity
  8
1
390
0
 62
     2
100
AcDbMText
 10
202.731425
 20
134.181032
 30
0.0
 40
4.2
 41
18.403636
 71
     7
 72
     1
  1
%%p0.1
210
0.0
220
0.0
230
1.0
 11
0.0
 21
1.0
 31
0.0
 73
     1
 44
1.0
  0
LINE
  5
3E9
100
AcDbEntity
  8
1
390
0
  6
Continuous
 62
    11
100
AcDbLine
 10
207.564152
 20
102.835577
 30
0.0
 11
207.564152
 21
144.631941
 31
0.0
  0
POLYLINE
  5
3EA
100
AcDbEntity
  8
1
390
0
  6
Continuous
 62
    11
100
AcDb2dPolyline
 66
     1
 10
0.0
 20
0.0
 30
0.0
 40
1.0
 41
1.0
  0
VERTEX
  5
3EB
100
AcDbEntity
  8
1
390
0
 62
    11
100
AcDbVertex
100
AcDb2dVertex
 10
208.464152
 20
107.335577
 30
0.0
  0
VERTEX
  5
3EC
100
AcDbEntity
  8
1
390
0
 62
    11
100
AcDbVertex
100
AcDb2dVertex
 10
207.564152
 20
111.835577
 30
0.0
  0
VERTEX
  5
3ED
100
AcDbEntity
  8
1
390
0
 62
    11
100
AcDbVertex
100
AcDb2dVertex
 10
206.664152
 20
107.335577
 30
0.0
  0
SEQEND
  5
3EE
100
AcDbEntity
  8
0
390
0
  0
POLYLINE
  5
3EF
100
AcDbEntity
  8
1
390
0
  6
Continuous
 62
    11
100
AcDb2dPolyline
 66
     1
 10
0.0
 20
0.0
 30
0.0
 40
1.0
 41
1.0
  0
VERTEX
  5
3F0
100
AcDbEntity
  8
1
390
0
 62
    11
100
AcDbVertex
100
AcDb2dVertex
 10
206.664152
 20
117.435577
 30
0.0
  0
VERTEX
  5
3F1
100
AcDbEntity
  8
1
390
0
 62
    11
100
AcDbVertex
100
AcDb2dVertex
 10
207.564152
 20
112.935577
 30
0.0
  0
VERTEX
  5
3F2
100
AcDbEntity
  8
1
390
0
 62
    11
100
AcDbVertex
100
AcDb2dVertex
 10
208.464152
 20
117.435577
 30
0.0
  0
SEQEND
  5
3F3
100
AcDbEntity
  8
0
390
0
  0
ENDBLK
  5
3F4
100
AcDbEntity
  8
0
390
0
100
AcDbBlockEnd
  0
BLOCK
  5
3F7
100
AcDbEntity
  8
0
390
0
100
AcDbBlockBegin
  2
AID1076
 70
     0
 10
0.0
 20
0.0
 30
0.0
  3
DNote#note referencing elements
  1

  0
MTEXT
  5
3F8
100
AcDbEntity
  8
1
390
0
 62
     2
100
AcDbMText
 10
323.829545
 20
31.366341
 30
0.0
 40
5.0
 41
14.045455
 71
     7
 72
     1
  1
1：1
210
0.0
220
0.0
230
1.0
 73
     1
 44
1.0
  0
ENDBLK
  5
3F9
100
AcDbEntity
  8
0
390
0
100
AcDbBlockEnd
  0
BLOCK
  5
3FC
100
AcDbEntity
  8
0
390
0
100
AcDbBlockBegin
  2
AID1080
 70
     0
 10
0.0
 20
0.0
 30
0.0
  3
DNote#note referencing elements
  1

  0
MTEXT
  5
3FD
100
AcDbEntity
  8
1
390
0
 62
     2
100
AcDbMText
 10
361.184902
 20
39.731607
 30
0.0
 40
4.0
 41
76.909091
 71
     7
 72
     1
  1
ボタン形圧力センサ
210
0.0
220
0.0
230
1.0
 73
     1
 44
1.0
  0
ENDBLK
  5
3FE
100
AcDbEntity
  8
0
390
0
100
AcDbBlockEnd
  0
BLOCK
  5
401
100
AcDbEntity
  8
0
390
0
100
AcDbBlockBegin
  2
AID1084
 70
     0
 10
0.0
 20
0.0
 30
0.0
  3
DNote#note referencing elements
  1

  0
MTEXT
  5
402
100
AcDbEntity
  8
1
390
0
 62
     2
100
AcDbMText
 10
362.320074
 20
29.197946
 30
0.0
 40
4.0
 41
67.527273
 71
     7
 72
     1
  1
SCB04KN10X08H
210
0.0
220
0.0
230
1.0
 73
     1
 44
1.0
  0
ENDBLK
  5
403
100
AcDbEntity
  8
0
390
0
100
AcDbBlockEnd
  0
BLOCK
  5
406
100
AcDbEntity
  8
0
390
0
100
AcDbBlockBegin
  2
AID1088
 70
     0
 10
0.0
 20
0.0
 30
0.0
  3
DIMENS
  1

  0
MTEXT
  5
407
100
AcDbEntity
  8
1
390
0
 62
     2
100
AcDbMText
 10
125.873955
 20
95.836906
 30
0.0
 40
6.0
 41
12.872727
 71
     7
 72
     1
  1
C
210
0.0
220
0.0
230
1.0
 11
0.707107
 21
0.707107
 31
0.0
 73
     1
 44
1.0
  0
MTEXT
  5
408
100
AcDbEntity
  8
1
390
0
 62
     2
100
AcDbMText
 10
129.4802
 20
99.443151
 30
0.0
 40
6.0
 41
22.254545
 71
     7
 72
     1
  1
0.5
210
0.0
220
0.0
230
1.0
 11
0.707107
 21
0.707107
 31
0.0
 73
     1
 44
1.0
  0
LINE
  5
409
100
AcDbEntity
  8
1
390
0
  6
Continuous
 62
    11
100
AcDbLine
 10
141.085798
 20
109.390262
 30
0.0
 11
126.548921
 21
94.853385
 31
0.0
  0
POLYLINE
  5
40A
100
AcDbEntity
  8
1
390
0
  6
Continuous
 62
    11
100
AcDb2dPolyline
 66
     1
 10
0.0
 20
0.0
 30
0.0
 40
1.0
 41
1.0
  0
VERTEX
  5
40B
100
AcDbEntity
  8
1
390
0
 62
    11
100
AcDbVertex
100
AcDb2dVertex
 10
137.267421
 20
106.844677
 30
0.0
  0
VERTEX
  5
40C
100
AcDbEntity
  8
1
390
0
 62
    11
100
AcDbVertex
100
AcDb2dVertex
 10
141.085798
 20
109.390262
 30
0.0
  0
VERTEX
  5
40D
100
AcDbEntity
  8
1
390
0
 62
    11
100
AcDbVertex
100
AcDb2dVertex
 10
138.540213
 20
105.571885
 30
0.0
  0
SEQEND
  5
40E
100
AcDbEntity
  8
0
390
0
  0
ENDBLK
  5
40F
100
AcDbEntity
  8
0
390
0
100
AcDbBlockEnd
  0
ENDSEC
  0
SECTION
  2
ENTITIES
  0
LINE
  5
2C
100
AcDbEntity
  8
256
390
0
  6
Continuous
 62
     8
100
AcDbLine
 10
222.0
 20
34.5
 30
0.0
 11
271.0
 21
34.5
 31
0.0
  0
LINE
  5
2D
100
AcDbEntity
  8
256
390
0
  6
Continuous
 62
     8
100
AcDbLine
 10
390.25
 20
277.0
 30
0.0
 11
390.25
 21
287.0
 31
0.0
  0
LINE
  5
2E
100
AcDbEntity
  8
256
390
0
  6
Continuous
 62
     8
100
AcDbLine
 10
229.511017
 20
262.368011
 30
0.0
 11
234.511017
 21
262.368011
 31
0.0
  0
LINE
  5
2F
100
AcDbEntity
  8
256
390
0
  6
Continuous
 62
     8
100
AcDbLine
 10
222.0
 20
38.0
 30
0.0
 11
271.0
 21
38.0
 31
0.0
  0
LINE
  5
30
100
AcDbEntity
  8
256
390
0
  6
Continuous
 62
     8
100
AcDbLine
 10
237.0
 20
287.0
 30
0.0
 11
237.0
 21
257.0
 31
0.0
  0
LINE
  5
31
100
AcDbEntity
  8
256
390
0
  6
Continuous
 62
     8
100
AcDbLine
 10
303.8
 20
48.0
 30
0.0
 11
303.8
 21
10.0
 31
0.0
  0
LINE
  5
32
100
AcDbEntity
  8
256
390
0
  6
Continuous
 62
     8
100
AcDbLine
 10
385.25
 20
277.0
 30
0.0
 11
385.25
 21
287.0
 31
0.0
  0
LINE
  5
33
100
AcDbEntity
  8
256
390
0
  6
Continuous
 62
     8
100
AcDbLine
 10
287.4
 20
31.0
 30
0.0
 11
287.4
 21
10.0
 31
0.0
  0
LINE
  5
34
100
AcDbEntity
  8
256
390
0
  6
Continuous
 62
     8
100
AcDbLine
 10
253.750031
 20
44.0
 30
0.0
 11
253.750031
 21
10.0
 31
0.0
  0
LINE
  5
35
100
AcDbEntity
  8
256
390
0
  6
Continuous
 62
     8
100
AcDbLine
 10
410.0
 20
10.0
 30
0.0
 11
410.0
 21
287.0
 31
0.0
  0
LINE
  5
36
100
AcDbEntity
  8
256
390
0
  6
Continuous
 62
     8
100
AcDbLine
 10
335.25
 20
15.666667
 30
0.0
 11
335.25
 21
48.0
 31
0.0
  0
LINE
  5
37
100
AcDbEntity
  8
256
390
0
  6
Continuous
 62
     8
100
AcDbLine
 10
410.0
 20
287.0
 30
0.0
 11
10.0
 21
287.0
 31
0.0
  0
LINE
  5
38
100
AcDbEntity
  8
256
390
0
  6
Continuous
 62
     8
100
AcDbLine
 10
362.0
 20
287.0
 30
0.0
 11
362.0
 21
257.0
 31
0.0
  0
LINE
  5
39
100
AcDbEntity
  8
256
390
0
  6
Continuous
 62
     8
100
AcDbLine
 10
410.0
 20
267.0
 30
0.0
 11
227.0
 21
267.0
 31
0.0
  0
LINE
  5
3A
100
AcDbEntity
  8
256
390
0
  6
Continuous
 62
     8
100
AcDbLine
 10
410.0
 20
277.0
 30
0.0
 11
227.0
 21
277.0
 31
0.0
  0
LINE
  5
3B
100
AcDbEntity
  8
256
390
0
  6
Continuous
 62
     8
100
AcDbLine
 10
271.0
 20
41.0
 30
0.0
 11
335.25
 21
41.0
 31
0.0
  0
LINE
  5
3C
100
AcDbEntity
  8
256
390
0
  6
Continuous
 62
     8
100
AcDbLine
 10
222.0
 20
44.0
 30
0.0
 11
271.0
 21
44.0
 31
0.0
  0
LINE
  5
3D
100
AcDbEntity
  8
256
390
0
  6
Continuous
 62
     8
100
AcDbLine
 10
232.011017
 20
261.664886
 30
0.0
 11
229.511017
 21
257.368011
 31
0.0
  0
LINE
  5
3E
100
AcDbEntity
  8
256
390
0
  6
Continuous
 62
     8
100
AcDbLine
 10
248.000031
 20
38.0
 30
0.0
 11
222.0
 21
44.0
 31
0.0
  0
LINE
  5
3F
100
AcDbEntity
  8
256
390
0
  6
Continuous
 62
     8
100
AcDbLine
 10
357.0
 20
262.0
 30
0.0
 11
227.0
 21
262.0
 31
0.0
  0
LINE
  5
40
100
AcDbEntity
  8
256
390
0
  6
Continuous
 62
     8
100
AcDbLine
 10
222.0
 20
31.0
 30
0.0
 11
320.25
 21
31.0
 31
0.0
  0
LINE
  5
41
100
AcDbEntity
  8
256
390
0
  6
Continuous
 62
     8
100
AcDbLine
 10
234.511017
 20
267.368011
 30
0.0
 11
232.011017
 21
271.664886
 31
0.0
  0
LINE
  5
42
100
AcDbEntity
  8
256
390
0
  6
Continuous
 62
     8
100
AcDbLine
 10
385.25
 20
282.0
 30
0.0
 11
362.0
 21
282.0
 31
0.0
  0
LINE
  5
43
100
AcDbEntity
  8
256
390
0
  6
Continuous
 62
     8
100
AcDbLine
 10
10.0
 20
10.0
 30
0.0
 11
410.0
 21
10.0
 31
0.0
  0
LINE
  5
44
100
AcDbEntity
  8
256
390
0
  6
Continuous
 62
     8
100
AcDbLine
 10
222.0
 20
48.0
 30
0.0
 11
410.0
 21
48.0
 31
0.0
  0
LINE
  5
45
100
AcDbEntity
  8
256
390
0
  6
Continuous
 62
     8
100
AcDbLine
 10
227.000031
 20
10.0
 30
0.0
 11
410.0
 21
10.0
 31
0.0
  0
LINE
  5
46
100
AcDbEntity
  8
256
390
0
  6
Continuous
 62
     8
100
AcDbLine
 10
342.0
 20
287.0
 30
0.0
 11
342.0
 21
257.0
 31
0.0
  0
LINE
  5
47
100
AcDbEntity
  8
256
390
0
  6
Continuous
 62
     8
100
AcDbLine
 10
222.0
 20
13.5
 30
0.0
 11
271.000031
 21
13.5
 31
0.0
  0
LINE
  5
48
100
AcDbEntity
  8
256
390
0
  6
Continuous
 62
     8
100
AcDbLine
 10
222.0
 20
20.5
 30
0.0
 11
271.0
 21
20.5
 31
0.0
  0
LINE
  5
49
100
AcDbEntity
  8
256
390
0
  6
Continuous
 62
     8
100
AcDbLine
 10
222.0
 20
27.5
 30
0.0
 11
271.0
 21
27.5
 31
0.0
  0
LINE
  5
4A
100
AcDbEntity
  8
256
390
0
  6
Continuous
 62
     8
100
AcDbLine
 10
248.000031
 20
44.0
 30
0.0
 11
248.000031
 21
10.0
 31
0.0
  0
LINE
  5
4B
100
AcDbEntity
  8
256
390
0
  6
Continuous
 62
     8
100
AcDbLine
 10
222.0
 20
48.0
 30
0.0
 11
222.0
 21
10.0
 31
0.0
  0
LINE
  5
4C
100
AcDbEntity
  8
256
390
0
  6
Continuous
 62
     8
100
AcDbLine
 10
232.011017
 20
276.664886
 30
0.0
 11
229.511017
 21
272.368011
 31
0.0
  0
LINE
  5
4D
100
AcDbEntity
  8
256
390
0
  6
Continuous
 62
     8
100
AcDbLine
 10
357.0
 20
282.0
 30
0.0
 11
227.0
 21
282.0
 31
0.0
  0
LINE
  5
4E
100
AcDbEntity
  8
256
390
0
  6
Continuous
 62
     8
100
AcDbLine
 10
229.511017
 20
267.368011
 30
0.0
 11
234.511017
 21
267.368011
 31
0.0
  0
LINE
  5
4F
100
AcDbEntity
  8
256
390
0
  6
Continuous
 62
     8
100
AcDbLine
 10
222.0
 20
24.0
 30
0.0
 11
271.0
 21
24.0
 31
0.0
  0
LINE
  5
50
100
AcDbEntity
  8
256
390
0
  6
Continuous
 62
     8
100
AcDbLine
 10
232.011017
 20
281.664886
 30
0.0
 11
229.511017
 21
277.368011
 31
0.0
  0
LINE
  5
51
100
AcDbEntity
  8
256
390
0
  6
Continuous
 62
     8
100
AcDbLine
 10
265.250031
 20
44.0
 30
0.0
 11
265.250031
 21
10.0
 31
0.0
  0
LINE
  5
52
100
AcDbEntity
  8
256
390
0
  6
Continuous
 62
     8
100
AcDbLine
 10
229.511017
 20
277.368011
 30
0.0
 11
234.511017
 21
277.368011
 31
0.0
  0
LINE
  5
53
100
AcDbEntity
  8
256
390
0
  6
Continuous
 62
     8
100
AcDbLine
 10
320.25
 20
10.0
 30
0.0
 11
320.25
 21
48.0
 31
0.0
  0
LINE
  5
54
100
AcDbEntity
  8
256
390
0
  6
Continuous
 62
     8
100
AcDbLine
 10
232.011017
 20
271.664886
 30
0.0
 11
229.511017
 21
267.368011
 31
0.0
  0
LINE
  5
55
100
AcDbEntity
  8
256
390
0
  6
Continuous
 62
     8
100
AcDbLine
 10
234.511017
 20
277.368011
 30
0.0
 11
232.011017
 21
281.664886
 31
0.0
  0
LINE
  5
56
100
AcDbEntity
  8
256
390
0
  6
Continuous
 62
     8
100
AcDbLine
 10
222.0
 20
17.0
 30
0.0
 11
271.0
 21
17.0
 31
0.0
  0
LINE
  5
57
100
AcDbEntity
  8
256
390
0
  6
Continuous
 62
     8
100
AcDbLine
 10
271.0
 20
48.0
 30
0.0
 11
271.0
 21
10.0
 31
0.0
  0
LINE
  5
58
100
AcDbEntity
  8
256
390
0
  6
Continuous
 62
     8
100
AcDbLine
 10
357.0
 20
287.0
 30
0.0
 11
357.0
 21
257.0
 31
0.0
  0
LINE
  5
59
100
AcDbEntity
  8
256
390
0
  6
Continuous
 62
     8
100
AcDbLine
 10
335.25
 20
35.0
 30
0.0
 11
410.0
 21
35.0
 31
0.0
  0
LINE
  5
5A
100
AcDbEntity
  8
256
390
0
  6
Continuous
 62
     8
100
AcDbLine
 10
227.0
 20
287.0
 30
0.0
 11
227.0
 21
257.0
 31
0.0
  0
LINE
  5
5B
100
AcDbEntity
  8
256
390
0
  6
Continuous
 62
     8
100
AcDbLine
 10
327.0
 20
287.0
 30
0.0
 11
327.0
 21
257.0
 31
0.0
  0
LINE
  5
5C
100
AcDbEntity
  8
256
390
0
  6
Continuous
 62
     8
100
AcDbLine
 10
229.511017
 20
272.368011
 30
0.0
 11
234.511017
 21
272.368011
 31
0.0
  0
LINE
  5
5D
100
AcDbEntity
  8
256
390
0
  6
Continuous
 62
     8
100
AcDbLine
 10
259.500031
 20
44.0
 30
0.0
 11
259.500031
 21
10.0
 31
0.0
  0
LINE
  5
5E
100
AcDbEntity
  8
256
390
0
  6
Continuous
 62
     8
100
AcDbLine
 10
320.25
 20
15.666667
 30
0.0
 11
410.0
 21
15.666667
 31
0.0
  0
LINE
  5
5F
100
AcDbEntity
  8
256
390
0
  6
Continuous
 62
     8
100
AcDbLine
 10
229.511017
 20
257.368011
 30
0.0
 11
234.511017
 21
257.368011
 31
0.0
  0
LINE
  5
60
100
AcDbEntity
  8
256
390
0
  6
Continuous
 62
     8
100
AcDbLine
 10
232.011017
 20
266.664886
 30
0.0
 11
229.511017
 21
262.368011
 31
0.0
  0
LINE
  5
61
100
AcDbEntity
  8
256
390
0
  6
Continuous
 62
     8
100
AcDbLine
 10
410.0
 20
257.0
 30
0.0
 11
227.0
 21
257.0
 31
0.0
  0
LINE
  5
62
100
AcDbEntity
  8
256
390
0
  6
Continuous
 62
     8
100
AcDbLine
 10
234.511017
 20
257.368011
 30
0.0
 11
232.011017
 21
261.664886
 31
0.0
  0
LINE
  5
63
100
AcDbEntity
  8
256
390
0
  6
Continuous
 62
     8
100
AcDbLine
 10
271.0
 20
26.5
 30
0.0
 11
410.0
 21
26.5
 31
0.0
  0
LINE
  5
64
100
AcDbEntity
  8
256
390
0
  6
Continuous
 62
     8
100
AcDbLine
 10
10.0
 20
10.0
 30
0.0
 11
10.0
 21
287.0
 31
0.0
  0
LINE
  5
65
100
AcDbEntity
  8
256
390
0
  6
Continuous
 62
     8
100
AcDbLine
 10
234.511017
 20
262.368011
 30
0.0
 11
232.011017
 21
266.664886
 31
0.0
  0
LINE
  5
66
100
AcDbEntity
  8
256
390
0
  6
Continuous
 62
     8
100
AcDbLine
 10
350.25
 20
15.666667
 30
0.0
 11
350.25
 21
48.0
 31
0.0
  0
LINE
  5
67
100
AcDbEntity
  8
256
390
0
  6
Continuous
 62
     8
100
AcDbLine
 10
307.164695
 20
32.573373
 30
0.0
 11
314.235801
 21
39.644442
 31
0.0
  0
LINE
  5
68
100
AcDbEntity
  8
256
390
0
  6
Continuous
 62
     8
100
AcDbLine
 10
357.0
 20
272.0
 30
0.0
 11
227.0
 21
272.0
 31
0.0
  0
LINE
  5
69
100
AcDbEntity
  8
256
390
0
  6
Continuous
 62
     8
100
AcDbLine
 10
234.511017
 20
272.368011
 30
0.0
 11
232.011017
 21
276.664886
 31
0.0
  0
MTEXT
  5
6A
100
AcDbEntity
  8
256
390
0
 62
     8
100
AcDbMText
 10
262.375031
 20
28.244792
 30
0.0
 40
1.75
 41
4.55
 71
     8
 72
     1
  1
0.5  
210
0.0
220
0.0
230
1.0
 73
     1
 44
1.0
  0
MTEXT
  5
6B
100
AcDbEntity
  8
256
390
0
 62
     8
100
AcDbMText
 10
250.875031
 20
21.244792
 30
0.0
 40
1.75
 41
4.55
 71
     8
 72
     1
  1
0.2  
210
0.0
220
0.0
230
1.0
 73
     1
 44
1.0
  0
MTEXT
  5
6C
100
AcDbEntity
  8
256
390
0
 62
     8
100
AcDbMText
 10
250.875031
 20
28.244792
 30
0.0
 40
1.75
 41
3.993182
 71
     8
 72
     1
  1
0.1  
210
0.0
220
0.0
230
1.0
 73
     1
 44
1.0
  0
MTEXT
  5
6D
100
AcDbEntity
  8
256
390
0
 62
     8
100
AcDbMText
 10
250.875031
 20
17.744792
 30
0.0
 40
1.75
 41
4.55
 71
     8
 72
     1
  1
0.3  
210
0.0
220
0.0
230
1.0
 73
     1
 44
1.0
  0
MTEXT
  5
6E
100
AcDbEntity
  8
256
390
0
 62
     8
100
AcDbMText
 10
287.02719
 20
42.856306
 30
0.0
 40
3.386667
 41
24.56873
 71
     8
 72
     1
  1
材    質  
210
0.0
220
0.0
230
1.0
 73
     1
 44
1.0
  0
MTEXT
  5
6F
100
AcDbEntity
  8
256
390
0
 62
     8
100
AcDbMText
 10
256.625031
 20
35.244792
 30
0.0
 40
1.75
 41
3.993182
 71
     8
 72
     1
  1
0.1  
210
0.0
220
0.0
230
1.0
 73
     1
 44
1.0
  0
MTEXT
  5
70
100
AcDbEntity
  8
256
390
0
 62
     8
100
AcDbMText
 10
268.125015
 20
14.244792
 30
0.0
 40
1.75
 41
1.590909
 71
     8
 72
     1
  1
6  
210
0.0
220
0.0
230
1.0
 73
     1
 44
1.0
  0
MTEXT
  5
71
100
AcDbEntity
  8
256
390
0
 62
     8
100
AcDbMText
 10
268.125015
 20
21.244792
 30
0.0
 40
1.75
 41
4.486364
 71
     8
 72
     1
  1
2.5  
210
0.0
220
0.0
230
1.0
 73
     1
 44
1.0
  0
MTEXT
  5
72
100
AcDbEntity
  8
256
390
0
 62
     8
100
AcDbMText
 10
312.52208
 20
42.980576
 30
0.0
 40
3.386667
 41
17.518305
 71
     8
 72
     1
  1
個 数  
210
0.0
220
0.0
230
1.0
 73
     1
 44
1.0
  0
MTEXT
  5
73
100
AcDbEntity
  8
256
390
0
 62
     8
100
AcDbMText
 10
360.130196
 20
257.742347
 30
0.0
 40
2.822222
 41
5.926666
 71
     8
 72
     1
  1
理  
210
0.0
220
0.0
230
1.0
 73
     1
 44
1.0
  0
MTEXT
  5
74
100
AcDbEntity
  8
256
390
0
 62
     8
100
AcDbMText
 10
257.063488
 20
41.133356
 30
0.0
 40
1.7952
 41
7.6704
 71
     8
 72
     1
  1
中級  
210
0.0
220
0.0
230
1.0
 73
     1
 44
1.0
  0
MTEXT
  5
75
100
AcDbEntity
  8
256
390
0
 62
     8
100
AcDbMText
 10
268.763424
 20
39.076539
 30
0.0
 40
2.0
 41
7.581818
 71
     8
 72
     1
  1
v %%p  
210
0.0
220
0.0
230
1.0
 73
     1
 44
1.0
  0
MTEXT
  5
76
100
AcDbEntity
  8
256
390
0
 62
     8
100
AcDbMText
 10
246.361108
 20
10.744792
 30
0.0
 40
1.75
 41
35.111364
 71
     9
 72
     1
  1
2000を超え4000以下  
210
0.0
220
0.0
230
1.0
 73
     1
 44
1.0
  0
MTEXT
  5
77
100
AcDbEntity
  8
256
390
0
 62
     8
100
AcDbMText
 10
315.229673
 20
32.880846
 30
0.0
 40
3.386667
 41
10.375516
 71
     8
 72
     1
  1
1台  
210
0.0
220
0.0
230
1.0
 73
     1
 44
1.0
  0
MTEXT
  5
78
100
AcDbEntity
  8
256
390
0
 62
     8
100
AcDbMText
 10
246.383663
 20
21.244792
 30
0.0
 40
1.75
 41
32.056818
 71
     9
 72
     1
  1
 120を超え 400以下  
210
0.0
220
0.0
230
1.0
 73
     1
 44
1.0
  0
MTEXT
  5
79
100
AcDbEntity
  8
256
390
0
 62
     8
100
AcDbMText
 10
388.380196
 20
278.047566
 30
0.0
 40
3.386667
 41
6.958061
 71
     8
 72
     1
  1
取  
210
0.0
220
0.0
230
1.0
 73
     1
 44
1.0
  0
MTEXT
  5
7A
100
AcDbEntity
  8
256
390
0
 62
     8
100
AcDbMText
 10
388.380196
 20
282.575181
 30
0.0
 40
3.386667
 41
6.68097
 71
     8
 72
     1
  1
面  
210
0.0
220
0.0
230
1.0
 73
     1
 44
1.0
  0
MTEXT
  5
7B
100
AcDbEntity
  8
256
390
0
 62
     8
100
AcDbMText
 10
230.223858
 20
38.623908
 30
0.0
 40
1.5
 41
24.272727
 71
     8
 72
     1
  1
寸法の区分(mm)  
210
0.0
220
0.0
230
1.0
 73
     1
 44
1.0
  0
MTEXT
  5
7C
100
AcDbEntity
  8
256
390
0
 62
     8
100
AcDbMText
 10
343.211504
 20
19.692223
 30
0.0
 40
3.386667
 41
16.902547
 71
     8
 72
     1
  1
図 番  
210
0.0
220
0.0
230
1.0
 73
     1
 44
1.0
  0
MTEXT
  5
7D
100
AcDbEntity
  8
256
390
0
 62
     8
100
AcDbMText
 10
262.375031
 20
31.744792
 30
0.0
 40
1.75
 41
4.55
 71
     8
 72
     1
  1
0.3  
210
0.0
220
0.0
230
1.0
 73
     1
 44
1.0
  0
MTEXT
  5
7E
100
AcDbEntity
  8
256
390
0
 62
     8
100
AcDbMText
 10
360.130196
 20
268.089407
 30
0.0
 40
3.386667
 41
7.112001
 71
     8
 72
     1
  1
理  
210
0.0
220
0.0
230
1.0
 73
     1
 44
1.0
  0
MTEXT
  5
7F
100
AcDbEntity
  8
256
390
0
 62
     8
100
AcDbMText
 10
246.369552
 20
14.244792
 30
0.0
 40
1.75
 41
34.888636
 71
     9
 72
     1
  1
1000を超え2000以下  
210
0.0
220
0.0
230
1.0
 73
     1
 44
1.0
  0
MTEXT
  5
80
100
AcDbEntity
  8
256
390
0
 62
     8
100
AcDbMText
 10
268.125015
 20
24.744792
 30
0.0
 40
1.75
 41
4.263636
 71
     8
 72
     1
  1
1.5  
210
0.0
220
0.0
230
1.0
 73
     1
 44
1.0
  0
MTEXT
  5
81
100
AcDbEntity
  8
256
390
0
 62
     8
100
AcDbMText
 10
262.375031
 20
35.244792
 30
0.0
 40
1.75
 41
4.55
 71
     8
 72
     1
  1
0.2  
210
0.0
220
0.0
230
1.0
 73
     1
 44
1.0
  0
MTEXT
  5
82
100
AcDbEntity
  8
256
390
0
 62
     8
100
AcDbMText
 10
351.983257
 20
283.013492
 30
0.0
 40
3.386667
 41
21.551517
 71
     8
 72
     1
  1
年月日     
210
0.0
220
0.0
230
1.0
 73
     1
 44
1.0
  0
MTEXT
  5
83
100
AcDbEntity
  8
256
390
0
 62
     8
100
AcDbMText
 10
250.875031
 20
31.744792
 30
0.0
 40
1.75
 41
6.586364
 71
     8
 72
     1
  1
0.05  
210
0.0
220
0.0
230
1.0
 73
     1
 44
1.0
  0
MTEXT
  5
84
100
AcDbEntity
  8
256
390
0
 62
     8
100
AcDbMText
 10
250.875031
 20
35.244792
 30
0.0
 40
1.75
 41
6.586364
 71
     8
 72
     1
  1
0.05  
210
0.0
220
0.0
230
1.0
 73
     1
 44
1.0
  0
MTEXT
  5
85
100
AcDbEntity
  8
256
390
0
 62
     8
100
AcDbMText
 10
262.375031
 20
10.744792
 30
0.0
 40
1.75
 41
1.765909
 71
     8
 72
     1
  1
4  
210
0.0
220
0.0
230
1.0
 73
     1
 44
1.0
  0
MTEXT
  5
86
100
AcDbEntity
  8
256
390
0
 62
     8
100
AcDbMText
 10
343.259623
 20
40.051182
 30
0.0
 40
3.386667
 41
17.210426
 71
     8
 72
     1
  1
名 称  
210
0.0
220
0.0
230
1.0
 73
     1
 44
1.0
  0
MTEXT
  5
87
100
AcDbEntity
  8
256
390
0
 62
     8
100
AcDbMText
 10
280.042689
 20
27.073014
 30
0.0
 40
3.386667
 41
17.241214
 71
     8
 72
     1
  1
設 計  
210
0.0
220
0.0
230
1.0
 73
     1
 44
1.0
  0
MTEXT
  5
88
100
AcDbEntity
  8
256
390
0
 62
     8
100
AcDbMText
 10
268.125015
 20
17.744792
 30
0.0
 40
1.75
 41
1.765909
 71
     8
 72
     1
  1
4  
210
0.0
220
0.0
230
1.0
 73
     1
 44
1.0
  0
MTEXT
  5
89
100
AcDbEntity
  8
256
390
0
 62
     8
100
AcDbMText
 10
256.625031
 20
28.244792
 30
0.0
 40
1.75
 41
4.55
 71
     8
 72
     1
  1
0.2  
210
0.0
220
0.0
230
1.0
 73
     1
 44
1.0
  0
MTEXT
  5
8A
100
AcDbEntity
  8
256
390
0
 62
     8
100
AcDbMText
 10
246.368174
 20
17.744792
 30
0.0
 40
1.75
 41
33.138636
 71
     9
 72
     1
  1
 400を超え1000以下  
210
0.0
220
0.0
230
1.0
 73
     1
 44
1.0
  0
MTEXT
  5
8B
100
AcDbEntity
  8
256
390
0
 62
     8
100
AcDbMText
 10
250.875031
 20
14.244792
 30
0.0
 40
1.75
 41
4.55
 71
     8
 72
     1
  1
0.5  
210
0.0
220
0.0
230
1.0
 73
     1
 44
1.0
  0
MTEXT
  5
8C
100
AcDbEntity
  8
256
390
0
 62
     8
100
AcDbMText
 10
257.26344
 20
39.076539
 30
0.0
 40
2.0
 41
8.563636
 71
     8
 72
     1
  1
m %%p  
210
0.0
220
0.0
230
1.0
 73
     1
 44
1.0
  0
MTEXT
  5
8D
100
AcDbEntity
  8
256
390
0
 62
     8
100
AcDbMText
 10
246.444454
 20
35.244792
 30
0.0
 40
1.75
 41
29.543182
 71
     9
 72
     1
  1
 0.5を超え   3以下  
210
0.0
220
0.0
230
1.0
 73
     1
 44
1.0
  0
MTEXT
  5
8E
100
AcDbEntity
  8
256
390
0
 62
     8
100
AcDbMText
 10
246.445896
 20
31.744792
 30
0.0
 40
1.75
 41
26.615909
 71
     9
 72
     1
  1
   3を超え   6以下  
210
0.0
220
0.0
230
1.0
 73
     1
 44
1.0
  0
MTEXT
  5
8F
100
AcDbEntity
  8
256
390
0
 62
     8
100
AcDbMText
 10
343.228244
 20
29.512776
 30
0.0
 40
2.54
 41
22.998545
 71
     8
 72
     1
  1
部品番号  
210
0.0
220
0.0
230
1.0
 73
     1
 44
1.0
  0
MTEXT
  5
90
100
AcDbEntity
  8
256
390
0
 62
     8
100
AcDbMText
 10
251.19527
 20
41.133356
 30
0.0
 40
1.7952
 41
8.04576
 71
     8
 72
     1
  1
精級  
210
0.0
220
0.0
230
1.0
 73
     1
 44
1.0
  0
MTEXT
  5
91
100
AcDbEntity
  8
256
390
0
 62
     8
100
AcDbMText
 10
246.399214
 20
24.744792
 30
0.0
 40
1.75
 41
30.243182
 71
     9
 72
     1
  1
  30を超え 120以下  
210
0.0
220
0.0
230
1.0
 73
     1
 44
1.0
  0
MTEXT
  5
92
100
AcDbEntity
  8
256
390
0
 62
     8
100
AcDbMText
 10
262.375031
 20
24.744792
 30
0.0
 40
1.75
 41
4.565909
 71
     8
 72
     1
  1
0.8  
210
0.0
220
0.0
230
1.0
 73
     1
 44
1.0
  0
MTEXT
  5
93
100
AcDbEntity
  8
256
390
0
 62
     8
100
AcDbMText
 10
242.4153
 20
40.925781
 30
0.0
 40
1.5
 41
13.636364
 71
     8
 72
     1
  1
公差等級  
210
0.0
220
0.0
230
1.0
 73
     1
 44
1.0
  0
MTEXT
  5
94
100
AcDbEntity
  8
256
390
0
 62
     8
100
AcDbMText
 10
246.430153
 20
28.244792
 30
0.0
 40
1.75
 41
27.395455
 71
     9
 72
     1
  1
   6を超え  30以下  
210
0.0
220
0.0
230
1.0
 73
     1
 44
1.0
  0
MTEXT
  5
95
100
AcDbEntity
  8
256
390
0
 62
     8
100
AcDbMText
 10
285.330511
 20
282.942152
 30
0.0
 40
3.386667
 41
59.482188
 71
     8
 72
     1
  1
訂    正    内    容  
210
0.0
220
0.0
230
1.0
 73
     1
 44
1.0
  0
MTEXT
  5
96
100
AcDbEntity
  8
256
390
0
 62
     8
100
AcDbMText
 10
256.625031
 20
24.744792
 30
0.0
 40
1.75
 41
4.55
 71
     8
 72
     1
  1
0.3  
210
0.0
220
0.0
230
1.0
 73
     1
 44
1.0
  0
MTEXT
  5
97
100
AcDbEntity
  8
256
390
0
 62
     8
100
AcDbMText
 10
262.375031
 20
17.744792
 30
0.0
 40
1.75
 41
1.622727
 71
     8
 72
     1
  1
2  
210
0.0
220
0.0
230
1.0
 73
     1
 44
1.0
  0
MTEXT
  5
98
100
AcDbEntity
  8
256
390
0
 62
     8
100
AcDbMText
 10
262.375031
 20
14.244792
 30
0.0
 40
1.75
 41
1.622727
 71
     8
 72
     1
  1
3  
210
0.0
220
0.0
230
1.0
 73
     1
 44
1.0
  0
MTEXT
  5
99
100
AcDbEntity
  8
256
390
0
 62
     8
100
AcDbMText
 10
328.687321
 20
19.668163
 30
0.0
 40
3.386667
 41
22.536729
 71
     8
 72
     1
  1
三角法  
210
0.0
220
0.0
230
1.0
 73
     1
 44
1.0
  0
MTEXT
  5
9A
100
AcDbEntity
  8
256
390
0
 62
     8
100
AcDbMText
 10
365.92539
 20
11.0735
 30
0.0
 40
3.386667
 41
99.506434
 71
     8
 72
     1
  1
双 葉 電 子 工 業 株 式 会 社  
210
0.0
220
0.0
230
1.0
 73
     1
 44
1.0
  0
MTEXT
  5
9B
100
AcDbEntity
  8
256
390
0
 62
     8
100
AcDbMText
 10
256.625031
 20
17.744792
 30
0.0
 40
1.75
 41
4.565909
 71
     8
 72
     1
  1
0.8  
210
0.0
220
0.0
230
1.0
 73
     1
 44
1.0
  0
MTEXT
  5
9C
100
AcDbEntity
  8
256
390
0
 62
     8
100
AcDbMText
 10
312.769883
 20
27.273035
 30
0.0
 40
3.386667
 41
17.518305
 71
     8
 72
     1
  1
承 認  
210
0.0
220
0.0
230
1.0
 73
     1
 44
1.0
  0
MTEXT
  5
9D
100
AcDbEntity
  8
256
390
0
 62
     8
100
AcDbMText
 10
268.125015
 20
28.244792
 30
0.0
 40
1.75
 41
0.843182
 71
     8
 72
     1
  1
1  
210
0.0
220
0.0
230
1.0
 73
     1
 44
1.0
  0
MTEXT
  5
9E
100
AcDbEntity
  8
256
390
0
 62
     8
100
AcDbMText
 10
247.07562
 20
45.235875
 30
0.0
 40
1.7
 41
74.846364
 71
     8
 72
     1
  1
削り加工寸法の普通許容差 JIS B 0405-1991  
210
0.0
220
0.0
230
1.0
 73
     1
 44
1.0
  0
MTEXT
  5
9F
100
AcDbEntity
  8
256
390
0
 62
     8
100
AcDbMText
 10
250.875031
 20
24.744792
 30
0.0
 40
1.75
 41
6.586364
 71
     8
 72
     1
  1
0.15  
210
0.0
220
0.0
230
1.0
 73
     1
 44
1.0
  0
MTEXT
  5
A0
100
AcDbEntity
  8
256
390
0
 62
     8
100
AcDbMText
 10
250.875031
 20
9.839584
 30
0.0
 40
2.54
 41
2.632364
 71
     8
 72
     1
  1
-  
210
0.0
220
0.0
230
1.0
 73
     1
 44
1.0
  0
MTEXT
  5
A1
100
AcDbEntity
  8
256
390
0
 62
     8
100
AcDbMText
 10
296.045235
 20
27.214792
 30
0.0
 40
3.386667
 41
17.025699
 71
     8
 72
     1
  1
検 図  
210
0.0
220
0.0
230
1.0
 73
     1
 44
1.0
  0
MTEXT
  5
A2
100
AcDbEntity
  8
256
390
0
 62
     8
100
AcDbMText
 10
268.125015
 20
34.339584
 30
0.0
 40
2.54
 41
2.632364
 71
     8
 72
     1
  1
-  
210
0.0
220
0.0
230
1.0
 73
     1
 44
1.0
  0
MTEXT
  5
A3
100
AcDbEntity
  8
256
390
0
 62
     8
100
AcDbMText
 10
256.625031
 20
31.744792
 30
0.0
 40
1.75
 41
3.993182
 71
     8
 72
     1
  1
0.1  
210
0.0
220
0.0
230
1.0
 73
     1
 44
1.0
  0
MTEXT
  5
A4
100
AcDbEntity
  8
256
390
0
 62
     8
100
AcDbMText
 10
263.01344
 20
39.076539
 30
0.0
 40
2.0
 41
7.527273
 71
     8
 72
     1
  1
c %%p  
210
0.0
220
0.0
230
1.0
 73
     1
 44
1.0
  0
MTEXT
  5
A5
100
AcDbEntity
  8
256
390
0
 62
     8
100
AcDbMText
 10
360.130196
 20
278.047566
 30
0.0
 40
3.386667
 41
6.68097
 71
     8
 72
     1
  1
上  
210
0.0
220
0.0
230
1.0
 73
     1
 44
1.0
  0
MTEXT
  5
A6
100
AcDbEntity
  8
256
390
0
 62
     8
100
AcDbMText
 10
232.748022
 20
282.92144
 30
0.0
 40
3.386667
 41
14.870547
 71
     8
 72
     1
  1
記号  
210
0.0
220
0.0
230
1.0
 73
     1
 44
1.0
  0
MTEXT
  5
A7
100
AcDbEntity
  8
256
390
0
 62
     8
100
AcDbMText
 10
256.625031
 20
21.244792
 30
0.0
 40
1.75
 41
4.55
 71
     8
 72
     1
  1
0.5  
210
0.0
220
0.0
230
1.0
 73
     1
 44
1.0
  0
MTEXT
  5
A8
100
AcDbEntity
  8
256
390
0
 62
     8
100
AcDbMText
 10
256.625031
 20
10.744792
 30
0.0
 40
1.75
 41
1.622727
 71
     8
 72
     1
  1
2  
210
0.0
220
0.0
230
1.0
 73
     1
 44
1.0
  0
MTEXT
  5
A9
100
AcDbEntity
  8
256
390
0
 62
     8
100
AcDbMText
 10
262.375031
 20
21.244792
 30
0.0
 40
1.75
 41
4.263636
 71
     8
 72
     1
  1
1.2  
210
0.0
220
0.0
230
1.0
 73
     1
 44
1.0
  0
MTEXT
  5
AA
100
AcDbEntity
  8
256
390
0
 62
     8
100
AcDbMText
 10
360.130196
 20
282.575181
 30
0.0
 40
3.386667
 41
7.050425
 71
     8
 72
     1
  1
仕  
210
0.0
220
0.0
230
1.0
 73
     1
 44
1.0
  0
MTEXT
  5
AB
100
AcDbEntity
  8
256
390
0
 62
     8
100
AcDbMText
 10
268.125015
 20
10.744792
 30
0.0
 40
1.75
 41
1.654545
 71
     8
 72
     1
  1
8  
210
0.0
220
0.0
230
1.0
 73
     1
 44
1.0
  0
MTEXT
  5
AC
100
AcDbEntity
  8
256
390
0
 62
     8
100
AcDbMText
 10
360.130196
 20
260.858133
 30
0.0
 40
2.822222
 41
5.875353
 71
     8
 72
     1
  1
処  
210
0.0
220
0.0
230
1.0
 73
     1
 44
1.0
  0
MTEXT
  5
AD
100
AcDbEntity
  8
256
390
0
 62
     8
100
AcDbMText
 10
336.870941
 20
283.013492
 30
0.0
 40
3.386667
 41
22.81382
 71
     8
 72
     1
  1
担当者     
210
0.0
220
0.0
230
1.0
 73
     1
 44
1.0
  0
MTEXT
  5
AE
100
AcDbEntity
  8
256
390
0
 62
     8
100
AcDbMText
 10
251.577735
 20
39.076539
 30
0.0
 40
2.0
 41
6.836364
 71
     8
 72
     1
  1
f %%p  
210
0.0
220
0.0
230
1.0
 73
     1
 44
1.0
  0
MTEXT
  5
AF
100
AcDbEntity
  8
256
390
0
 62
     8
100
AcDbMText
 10
360.130196
 20
263.973919
 30
0.0
 40
2.822222
 41
5.952323
 71
     8
 72
     1
  1
熱  
210
0.0
220
0.0
230
1.0
 73
     1
 44
1.0
  0
MTEXT
  5
B0
100
AcDbEntity
  8
256
390
0
 62
     8
100
AcDbMText
 10
268.125015
 20
31.744792
 30
0.0
 40
1.75
 41
4.55
 71
     8
 72
     1
  1
0.5  
210
0.0
220
0.0
230
1.0
 73
     1
 44
1.0
  0
MTEXT
  5
B1
100
AcDbEntity
  8
256
390
0
 62
     8
100
AcDbMText
 10
328.494219
 20
43.012096
 30
0.0
 40
3.386667
 41
17.30279
 71
     8
 72
     1
  1
尺 度  
210
0.0
220
0.0
230
1.0
 73
     1
 44
1.0
  0
MTEXT
  5
B2
100
AcDbEntity
  8
256
390
0
 62
     8
100
AcDbMText
 10
262.660189
 20
41.133356
 30
0.0
 40
1.7952
 41
7.9968
 71
     8
 72
     1
  1
粗級  
210
0.0
220
0.0
230
1.0
 73
     1
 44
1.0
  0
MTEXT
  5
B3
100
AcDbEntity
  8
256
390
0
 62
     8
100
AcDbMText
 10
225.086682
 20
40.357732
 30
0.0
 40
1.5
 41
6.640909
 71
     8
 72
     1
  1
基準  
210
0.0
220
0.0
230
1.0
 73
     1
 44
1.0
  0
MTEXT
  5
B4
100
AcDbEntity
  8
256
390
0
 62
     8
100
AcDbMText
 10
268.384088
 20
41.201556
 30
0.0
 40
1.584
 41
10.8
 71
     8
 72
     1
  1
極粗級  
210
0.0
220
0.0
230
1.0
 73
     1
 44
1.0
  0
MTEXT
  5
B5
100
AcDbEntity
  8
256
390
0
 62
     8
100
AcDbMText
 10
256.625031
 20
14.244792
 30
0.0
 40
1.75
 41
4.263636
 71
     8
 72
     1
  1
1.2  
210
0.0
220
0.0
230
1.0
 73
     1
 44
1.0
  0
MTEXT
  5
B6
100
AcDbEntity
  8
256
390
0
 62
     8
100
AcDbMText
 10
360.130196
 20
272.53334
 30
0.0
 40
3.386667
 41
7.050425
 71
     8
 72
     1
  1
処  
210
0.0
220
0.0
230
1.0
 73
     1
 44
1.0
  0
INSERT
  5
BB
100
AcDbEntity
  8
256
390
0
100
AcDbBlockReference
  2
AID287
 10
0.0
 20
0.0
 30
0.0
  0
CIRCLE
  5
BD
100
AcDbEntity
  8
1
390
0
  6
Continuous
 62
     7
100
AcDbCircle
 10
145.890482
 20
190.150423
 30
0.0
 40
1.3
210
0.0
220
0.0
230
1.0
  0
ARC
  5
BE
100
AcDbEntity
  8
1
390
0
  6
Continuous
 62
     7
100
AcDbCircle
 10
145.890482
 20
190.150423
 30
0.0
 40
2.0
210
0.0
220
0.0
230
1.0
100
AcDbArc
 50
0.0
 51
270.0
  0
ARC
  5
BF
100
AcDbEntity
  8
1
390
0
  6
Continuous
 62
     7
100
AcDbCircle
 10
145.890482
 20
190.150423
 30
0.0
 40
2.0
210
0.0
220
0.0
230
1.0
100
AcDbArc
 50
270.0
 51
360.0
  0
CIRCLE
  5
C0
100
AcDbEntity
  8
1
390
0
  6
Continuous
 62
     7
100
AcDbCircle
 10
145.890482
 20
190.150423
 30
0.0
 40
4.5
210
0.0
220
0.0
230
1.0
  0
ARC
  5
C1
100
AcDbEntity
  8
1
390
0
  6
Continuous
 62
     7
100
AcDbCircle
 10
145.890482
 20
190.150423
 30
0.0
 40
5.05
210
0.0
220
0.0
230
1.0
100
AcDbArc
 50
8.069301
 51
33.935817
  0
LINE
  5
C2
100
AcDbEntity
  8
1
390
0
  6
Continuous
 62
     7
100
AcDbLine
 10
150.890482
 20
190.859295
 30
0.0
 11
150.890482
 21
189.441551
 31
0.0
  0
ARC
  5
C3
100
AcDbEntity
  8
1
390
0
  6
Continuous
 62
     7
100
AcDbCircle
 10
145.890482
 20
190.150423
 30
0.0
 40
5.05
210
0.0
220
0.0
230
1.0
100
AcDbArc
 50
326.064183
 51
351.930699
  0
POLYLINE
  5
C4
100
AcDbEntity
  8
1
390
0
  6
Continuous
 62
     7
100
AcDb2dPolyline
 66
     1
 10
0.0
 20
0.0
 30
0.0
 40
1.0
 41
1.0
  0
VERTEX
  5
C5
100
AcDbEntity
  8
1
390
0
 62
     7
100
AcDbVertex
100
AcDb2dVertex
 10
150.080282
 20
187.33119
 30
0.0
  0
VERTEX
  5
C6
100
AcDbEntity
  8
1
390
0
 62
     7
100
AcDbVertex
100
AcDb2dVertex
 10
149.988245
 20
187.245704
 30
0.0
  0
VERTEX
  5
C7
100
AcDbEntity
  8
1
390
0
 62
     7
100
AcDbVertex
100
AcDb2dVertex
 10
149.910273
 20
187.164583
 30
0.0
  0
VERTEX
  5
C8
100
AcDbEntity
  8
1
390
0
 62
     7
100
AcDbVertex
100
AcDb2dVertex
 10
149.814603
 20
187.051831
 30
0.0
  0
SEQEND
  5
C9
100
AcDbEntity
  8
0
390
0
  0
ARC
  5
CA
100
AcDbEntity
  8
1
390
0
  6
Continuous
 62
     7
100
AcDbCircle
 10
145.890482
 20
190.150423
 30
0.0
 40
5.0
210
0.0
220
0.0
230
1.0
100
AcDbArc
 50
38.295567
 51
321.704433
  0
POLYLINE
  5
CB
100
AcDbEntity
  8
1
390
0
  6
Continuous
 62
     7
100
AcDb2dPolyline
 66
     1
 10
0.0
 20
0.0
 30
0.0
 40
1.0
 41
1.0
  0
VERTEX
  5
CC
100
AcDbEntity
  8
1
390
0
 62
     7
100
AcDbVertex
100
AcDb2dVertex
 10
149.814603
 20
193.249014
 30
0.0
  0
VERTEX
  5
CD
100
AcDbEntity
  8
1
390
0
 62
     7
100
AcDbVertex
100
AcDb2dVertex
 10
149.907886
 20
193.138887
 30
0.0
  0
VERTEX
  5
CE
100
AcDbEntity
  8
1
390
0
 62
     7
100
AcDbVertex
100
AcDb2dVertex
 10
149.986024
 20
193.057335
 30
0.0
  0
VERTEX
  5
CF
100
AcDbEntity
  8
1
390
0
 62
     7
100
AcDbVertex
100
AcDb2dVertex
 10
150.080282
 20
192.969655
 30
0.0
  0
SEQEND
  5
D0
100
AcDbEntity
  8
0
390
0
  0
LINE
  5
D1
100
AcDbEntity
  8
1
390
0
  6
Continuous
 62
     7
100
AcDbLine
 10
151.122786
 20
187.822725
 30
0.0
 11
151.005187
 21
187.799972
 31
0.0
  0
POLYLINE
  5
D2
100
AcDbEntity
  8
1
390
0
  6
Continuous
 62
     7
100
AcDb2dPolyline
 66
     1
 10
0.0
 20
0.0
 30
0.0
 40
1.0
 41
1.0
  0
VERTEX
  5
D3
100
AcDbEntity
  8
1
390
0
 62
     7
100
AcDbVertex
100
AcDb2dVertex
 10
150.890482
 20
191.210613
 30
0.0
  0
VERTEX
  5
D4
100
AcDbEntity
  8
1
390
0
 62
     7
100
AcDbVertex
100
AcDb2dVertex
 10
150.890497
 20
191.122241
 30
0.0
  0
VERTEX
  5
D5
100
AcDbEntity
  8
1
390
0
 62
     7
100
AcDbVertex
100
AcDb2dVertex
 10
150.890489
 20
191.078504
 30
0.0
  0
VERTEX
  5
D6
100
AcDbEntity
  8
1
390
0
 62
     7
100
AcDbVertex
100
AcDb2dVertex
 10
150.890482
 20
191.035292
 30
0.0
  0
SEQEND
  5
D7
100
AcDbEntity
  8
0
390
0
  0
POLYLINE
  5
D8
100
AcDbEntity
  8
1
390
0
  6
Continuous
 62
     7
100
AcDb2dPolyline
 66
     1
 10
0.0
 20
0.0
 30
0.0
 40
1.0
 41
1.0
  0
VERTEX
  5
D9
100
AcDbEntity
  8
1
390
0
 62
     7
100
AcDbVertex
100
AcDb2dVertex
 10
151.005187
 20
192.500874
 30
0.0
  0
VERTEX
  5
DA
100
AcDbEntity
  8
1
390
0
 62
     7
100
AcDbVertex
100
AcDb2dVertex
 10
150.994095
 20
192.466184
 30
0.0
  0
VERTEX
  5
DB
100
AcDbEntity
  8
1
390
0
 62
     7
100
AcDbVertex
100
AcDb2dVertex
 10
150.980861
 20
192.424588
 30
0.0
  0
VERTEX
  5
DC
100
AcDbEntity
  8
1
390
0
 62
     7
100
AcDbVertex
100
AcDb2dVertex
 10
150.965972
 20
192.376738
 30
0.0
  0
VERTEX
  5
DD
100
AcDbEntity
  8
1
390
0
 62
     7
100
AcDbVertex
100
AcDb2dVertex
 10
150.941618
 20
192.293237
 30
0.0
  0
VERTEX
  5
DE
100
AcDbEntity
  8
1
390
0
 62
     7
100
AcDbVertex
100
AcDb2dVertex
 10
150.918385
 20
192.197653
 30
0.0
  0
VERTEX
  5
DF
100
AcDbEntity
  8
1
390
0
 62
     7
100
AcDbVertex
100
AcDb2dVertex
 10
150.907152
 20
192.138056
 30
0.0
  0
VERTEX
  5
E0
100
AcDbEntity
  8
1
390
0
 62
     7
100
AcDbVertex
100
AcDb2dVertex
 10
150.898304
 20
192.074481
 30
0.0
  0
VERTEX
  5
E1
100
AcDbEntity
  8
1
390
0
 62
     7
100
AcDbVertex
100
AcDb2dVertex
 10
150.89253
 20
192.0063
 30
0.0
  0
VERTEX
  5
E2
100
AcDbEntity
  8
1
390
0
 62
     7
100
AcDbVertex
100
AcDb2dVertex
 10
150.890482
 20
191.933565
 30
0.0
  0
SEQEND
  5
E3
100
AcDbEntity
  8
0
390
0
  0
POLYLINE
  5
E4
100
AcDbEntity
  8
1
390
0
  6
Continuous
 62
     7
100
AcDb2dPolyline
 66
     1
 10
0.0
 20
0.0
 30
0.0
 40
1.0
 41
1.0
  0
VERTEX
  5
E5
100
AcDbEntity
  8
1
390
0
 62
     7
100
AcDbVertex
100
AcDb2dVertex
 10
150.890482
 20
188.367281
 30
0.0
  0
VERTEX
  5
E6
100
AcDbEntity
  8
1
390
0
 62
     7
100
AcDbVertex
100
AcDb2dVertex
 10
150.893204
 20
188.283994
 30
0.0
  0
VERTEX
  5
E7
100
AcDbEntity
  8
1
390
0
 62
     7
100
AcDbVertex
100
AcDb2dVertex
 10
150.900724
 20
188.206638
 30
0.0
  0
VERTEX
  5
E8
100
AcDbEntity
  8
1
390
0
 62
     7
100
AcDbVertex
100
AcDb2dVertex
 10
150.91207
 20
188.134871
 30
0.0
  0
VERTEX
  5
E9
100
AcDbEntity
  8
1
390
0
 62
     7
100
AcDbVertex
100
AcDb2dVertex
 10
150.934248
 20
188.035483
 30
0.0
  0
VERTEX
  5
EA
100
AcDbEntity
  8
1
390
0
 62
     7
100
AcDbVertex
100
AcDb2dVertex
 10
150.958716
 20
187.948073
 30
0.0
  0
VERTEX
  5
EB
100
AcDbEntity
  8
1
390
0
 62
     7
100
AcDbVertex
100
AcDb2dVertex
 10
150.972144
 20
187.904114
 30
0.0
  0
VERTEX
  5
EC
100
AcDbEntity
  8
1
390
0
 62
     7
100
AcDbVertex
100
AcDb2dVertex
 10
150.984603
 20
187.864567
 30
0.0
  0
VERTEX
  5
ED
100
AcDbEntity
  8
1
390
0
 62
     7
100
AcDbVertex
100
AcDb2dVertex
 10
150.995726
 20
187.829648
 30
0.0
  0
VERTEX
  5
EE
100
AcDbEntity
  8
1
390
0
 62
     7
100
AcDbVertex
100
AcDb2dVertex
 10
151.005187
 20
187.799972
 30
0.0
  0
SEQEND
  5
EF
100
AcDbEntity
  8
0
390
0
  0
LINE
  5
F0
100
AcDbEntity
  8
1
390
0
  6
Continuous
 62
     7
100
AcDbLine
 10
150.890482
 20
189.265554
 30
0.0
 11
150.890482
 21
189.090233
 31
0.0
  0
POLYLINE
  5
F1
100
AcDbEntity
  8
1
390
0
  6
Continuous
 62
     7
100
AcDb2dPolyline
 66
     1
 10
0.0
 20
0.0
 30
0.0
 40
1.0
 41
1.0
  0
VERTEX
  5
F2
100
AcDbEntity
  8
1
390
0
 62
     7
100
AcDbVertex
100
AcDb2dVertex
 10
151.005187
 20
192.500874
 30
0.0
  0
VERTEX
  5
F3
100
AcDbEntity
  8
1
390
0
 62
     7
100
AcDbVertex
100
AcDb2dVertex
 10
151.108754
 20
192.480458
 30
0.0
  0
VERTEX
  5
F4
100
AcDbEntity
  8
1
390
0
 62
     7
100
AcDbVertex
100
AcDb2dVertex
 10
151.122786
 20
192.478121
 30
0.0
  0
SEQEND
  5
F5
100
AcDbEntity
  8
0
390
0
  0
ARC
  5
F6
100
AcDbEntity
  8
1
390
0
  6
Continuous
 62
     7
100
AcDbCircle
 10
152.096777
 20
192.919718
 30
0.0
 40
1.687251
210
0.0
220
0.0
230
1.0
100
AcDbArc
 50
199.29242
 51
224.361152
  0
LINE
  5
F7
100
AcDbEntity
  8
1
390
0
  6
Continuous
 62
     7
100
AcDbLine
 10
150.890482
 20
191.210613
 30
0.0
 11
150.890482
 21
191.740027
 31
0.0
  0
ARC
  5
F8
100
AcDbEntity
  8
1
390
0
  6
Continuous
 62
     7
100
AcDbCircle
 10
151.46303
 20
194.550829
 30
0.0
 40
2.100501
210
0.0
220
0.0
230
1.0
100
AcDbArc
 50
228.830063
 51
239.012998
  0
LINE
  5
F9
100
AcDbEntity
  8
1
390
0
  6
Continuous
 62
     7
100
AcDbLine
 10
150.890482
 20
188.560818
 30
0.0
 11
150.890482
 21
189.090233
 31
0.0
  0
ARC
  5
FA
100
AcDbEntity
  8
1
390
0
  6
Continuous
 62
     7
100
AcDbCircle
 10
153.662731
 20
186.726239
 30
0.0
 40
3.383137
210
0.0
220
0.0
230
1.0
100
AcDbArc
 50
159.003753
 51
165.894404
  0
ARC
  5
FB
100
AcDbEntity
  8
1
390
0
  6
Continuous
 62
     7
100
AcDbCircle
 10
151.464001
 20
185.748685
 30
0.0
 40
2.102142
210
0.0
220
0.0
230
1.0
100
AcDbArc
 50
120.990988
 51
131.16595
  0
POLYLINE
  5
FC
100
AcDbEntity
  8
1
390
0
  6
Continuous
 62
     7
100
AcDb2dPolyline
 66
     1
 10
0.0
 20
0.0
 30
0.0
 40
1.0
 41
1.0
  0
VERTEX
  5
FD
100
AcDbEntity
  8
1
390
0
 62
     7
100
AcDbVertex
100
AcDb2dVertex
 10
150.504274
 20
192.362267
 30
0.0
  0
VERTEX
  5
FE
100
AcDbEntity
  8
1
390
0
 62
     7
100
AcDbVertex
100
AcDb2dVertex
 10
150.468932
 20
192.458679
 30
0.0
  0
VERTEX
  5
FF
100
AcDbEntity
  8
1
390
0
 62
     7
100
AcDbVertex
100
AcDb2dVertex
 10
150.4201
 20
192.60945
 30
0.0
  0
VERTEX
  5
100
100
AcDbEntity
  8
1
390
0
 62
     7
100
AcDbVertex
100
AcDb2dVertex
 10
150.381601
 20
192.750103
 30
0.0
  0
SEQEND
  5
101
100
AcDbEntity
  8
0
390
0
  0
LINE
  5
103
100
AcDbEntity
  8
1
390
0
  6
DOT
 62
     9
100
AcDbLine
 10
150.347323
 20
192.771137
 30
0.0
 11
150.378791
 21
192.751794
 31
0.0
  0
ARC
  5
104
100
AcDbEntity
  8
1
390
0
  6
Continuous
 62
     7
100
AcDbCircle
 10
151.462734
 20
194.550423
 30
0.0
 40
2.1
210
0.0
220
0.0
230
1.0
100
AcDbArc
 50
238.924754
 51
257.415483
  0
LINE
  5
105
100
AcDbEntity
  8
1
390
0
  6
Continuous
 62
     7
100
AcDbLine
 10
150.890482
 20
191.933565
 30
0.0
 11
150.890482
 21
191.740027
 31
0.0
  0
POLYLINE
  5
106
100
AcDbEntity
  8
1
390
0
  6
Continuous
 62
     7
100
AcDb2dPolyline
 66
     1
 10
0.0
 20
0.0
 30
0.0
 40
1.0
 41
1.0
  0
VERTEX
  5
107
100
AcDbEntity
  8
1
390
0
 62
     7
100
AcDbVertex
100
AcDb2dVertex
 10
150.504221
 20
187.93844
 30
0.0
  0
VERTEX
  5
108
100
AcDbEntity
  8
1
390
0
 62
     7
100
AcDbVertex
100
AcDb2dVertex
 10
150.516637
 20
187.970314
 30
0.0
  0
VERTEX
  5
109
100
AcDbEntity
  8
1
390
0
 62
     7
100
AcDbVertex
100
AcDb2dVertex
 10
150.541092
 20
188.029941
 30
0.0
  0
VERTEX
  5
10A
100
AcDbEntity
  8
1
390
0
 62
     7
100
AcDbVertex
100
AcDb2dVertex
 10
150.556052
 20
188.064555
 30
0.0
  0
VERTEX
  5
10B
100
AcDbEntity
  8
1
390
0
 62
     7
100
AcDbVertex
100
AcDb2dVertex
 10
150.571584
 20
188.098985
 30
0.0
  0
VERTEX
  5
10C
100
AcDbEntity
  8
1
390
0
 62
     7
100
AcDbVertex
100
AcDb2dVertex
 10
150.587695
 20
188.133109
 30
0.0
  0
VERTEX
  5
10D
100
AcDbEntity
  8
1
390
0
 62
     7
100
AcDbVertex
100
AcDb2dVertex
 10
150.604395
 20
188.166808
 30
0.0
  0
VERTEX
  5
10E
100
AcDbEntity
  8
1
390
0
 62
     7
100
AcDbVertex
100
AcDb2dVertex
 10
150.621693
 20
188.199962
 30
0.0
  0
VERTEX
  5
10F
100
AcDbEntity
  8
1
390
0
 62
     7
100
AcDbVertex
100
AcDb2dVertex
 10
150.645272
 20
188.242372
 30
0.0
  0
VERTEX
  5
110
100
AcDbEntity
  8
1
390
0
 62
     7
100
AcDbVertex
100
AcDb2dVertex
 10
150.669994
 20
188.283718
 30
0.0
  0
VERTEX
  5
111
100
AcDbEntity
  8
1
390
0
 62
     7
100
AcDbVertex
100
AcDb2dVertex
 10
150.695843
 20
188.323935
 30
0.0
  0
VERTEX
  5
112
100
AcDbEntity
  8
1
390
0
 62
     7
100
AcDbVertex
100
AcDb2dVertex
 10
150.722804
 20
188.362958
 30
0.0
  0
VERTEX
  5
113
100
AcDbEntity
  8
1
390
0
 62
     7
100
AcDbVertex
100
AcDb2dVertex
 10
150.761594
 20
188.414639
 30
0.0
  0
VERTEX
  5
114
100
AcDbEntity
  8
1
390
0
 62
     7
100
AcDbVertex
100
AcDb2dVertex
 10
150.802463
 20
188.464552
 30
0.0
  0
VERTEX
  5
115
100
AcDbEntity
  8
1
390
0
 62
     7
100
AcDbVertex
100
AcDb2dVertex
 10
150.84556
 20
188.513266
 30
0.0
  0
VERTEX
  5
116
100
AcDbEntity
  8
1
390
0
 62
     7
100
AcDbVertex
100
AcDb2dVertex
 10
150.890482
 20
188.560818
 30
0.0
  0
SEQEND
  5
117
100
AcDbEntity
  8
0
390
0
  0
LINE
  5
118
100
AcDbEntity
  8
1
390
0
  6
Continuous
 62
     7
100
AcDbLine
 10
150.890482
 20
188.560818
 30
0.0
 11
150.890482
 21
188.367281
 31
0.0
  0
ARC
  5
119
100
AcDbEntity
  8
1
390
0
  6
Continuous
 62
     7
100
AcDbCircle
 10
151.462525
 20
185.750948
 30
0.0
 40
2.099442
210
0.0
220
0.0
230
1.0
100
AcDbArc
 50
102.582051
 51
120.995045
  0
LINE
  5
11A
100
AcDbEntity
  8
1
390
0
  6
DOT
 62
     9
100
AcDbLine
 10
150.381388
 20
187.550614
 30
0.0
 11
150.347323
 21
187.529709
 31
0.0
  0
LINE
  5
11B
100
AcDbEntity
  8
1
390
0
  6
Continuous
 62
     7
100
AcDbLine
 10
156.890482
 20
191.850423
 30
0.0
 11
156.890482
 21
188.450423
 31
0.0
  0
LINE
  5
11C
100
AcDbEntity
  8
1
390
0
  6
Continuous
 62
     7
100
AcDbLine
 10
155.937854
 20
187.900423
 30
0.0
 11
155.937854
 21
192.400423
 31
0.0
  0
LINE
  5
11D
100
AcDbEntity
  8
1
390
0
  6
Continuous
 62
     7
100
AcDbLine
 10
161.890482
 20
188.450423
 30
0.0
 11
161.890482
 21
191.850423
 31
0.0
  0
CIRCLE
  5
11E
100
AcDbEntity
  8
1
390
0
  6
DOT
 62
     9
100
AcDbCircle
 10
145.890482
 20
190.150423
 30
0.0
 40
3.4
210
0.0
220
0.0
230
1.0
  0
ARC
  5
11F
100
AcDbEntity
  8
1
390
0
  6
Continuous
 62
     7
100
AcDbCircle
 10
151.390482
 20
192.900423
 30
0.0
 40
0.5
210
0.0
220
0.0
230
1.0
100
AcDbArc
 50
237.603934
 51
270.0
  0
ARC
  5
120
100
AcDbEntity
  8
1
390
0
  6
Continuous
 62
     7
100
AcDbCircle
 10
151.390482
 20
187.400423
 30
0.0
 40
0.5
210
0.0
220
0.0
230
1.0
100
AcDbArc
 50
90.0
 51
122.396066
  0
LINE
  5
121
100
AcDbEntity
  8
1
390
0
  6
DOT
 62
     9
100
AcDbLine
 10
150.347371
 20
192.771013
 30
0.0
 11
150.504145
 21
192.362603
 31
0.0
  0
LINE
  5
122
100
AcDbEntity
  8
1
390
0
  6
DOT
 62
     9
100
AcDbLine
 10
150.504096
 20
187.938116
 30
0.0
 11
150.347264
 21
187.529553
 31
0.0
  0
LINE
  5
123
100
AcDbEntity
  8
1
390
0
  6
Continuous
 62
     7
100
AcDbLine
 10
155.937854
 20
187.900423
 30
0.0
 11
156.890482
 21
188.450423
 31
0.0
  0
LINE
  5
124
100
AcDbEntity
  8
1
390
0
  6
Continuous
 62
     7
100
AcDbLine
 10
156.890482
 20
191.850423
 30
0.0
 11
155.937854
 21
192.400423
 31
0.0
  0
LINE
  5
125
100
AcDbEntity
  8
1
390
0
  6
Continuous
 62
     7
100
AcDbLine
 10
155.937854
 20
192.400423
 30
0.0
 11
151.390482
 21
192.400423
 31
0.0
  0
LINE
  5
126
100
AcDbEntity
  8
1
390
0
  6
Continuous
 62
     7
100
AcDbLine
 10
151.390482
 20
187.900423
 30
0.0
 11
155.937854
 21
187.900423
 31
0.0
  0
LINE
  5
127
100
AcDbEntity
  8
1
390
0
  6
Continuous
 62
     7
100
AcDbLine
 10
161.890482
 20
191.850423
 30
0.0
 11
156.890482
 21
191.850423
 31
0.0
  0
LINE
  5
128
100
AcDbEntity
  8
1
390
0
  6
Continuous
 62
     7
100
AcDbLine
 10
156.890482
 20
188.450423
 30
0.0
 11
161.890482
 21
188.450423
 31
0.0
  0
LINE
  5
129
100
AcDbEntity
  8
1
390
0
  6
Continuous
 62
     7
100
AcDbLine
 10
182.360398
 20
190.700423
 30
0.0
 11
161.890482
 21
190.700423
 31
0.0
  0
LINE
  5
12A
100
AcDbEntity
  8
1
390
0
  6
Continuous
 62
     7
100
AcDbLine
 10
161.890482
 20
189.600423
 30
0.0
 11
181.827064
 21
189.600423
 31
0.0
  0
LINE
  5
12B
100
AcDbEntity
  8
1
390
0
  6
Continuous
 62
     7
100
AcDbLine
 10
237.626575
 20
186.650423
 30
0.0
 11
237.626575
 21
193.650423
 31
0.0
  0
LINE
  5
12C
100
AcDbEntity
  8
1
390
0
  6
Continuous
 62
     7
100
AcDbLine
 10
244.626575
 20
186.675423
 30
0.0
 11
244.626575
 21
193.625423
 31
0.0
  0
LINE
  5
12D
100
AcDbEntity
  8
1
390
0
  6
Continuous
 62
     7
100
AcDbLine
 10
227.626575
 20
186.650423
 30
0.0
 11
237.626575
 21
186.650423
 31
0.0
  0
LINE
  5
12E
100
AcDbEntity
  8
1
390
0
  6
Continuous
 62
     7
100
AcDbLine
 10
237.626575
 20
193.650423
 30
0.0
 11
227.626575
 21
193.650423
 31
0.0
  0
LINE
  5
12F
100
AcDbEntity
  8
1
390
0
  6
Continuous
 62
     7
100
AcDbLine
 10
237.626575
 20
186.675423
 30
0.0
 11
244.626575
 21
186.675423
 31
0.0
  0
LINE
  5
130
100
AcDbEntity
  8
1
390
0
  6
Continuous
 62
     7
100
AcDbLine
 10
244.626575
 20
193.625423
 30
0.0
 11
237.626575
 21
193.625423
 31
0.0
  0
LINE
  5
131
100
AcDbEntity
  8
1
390
0
  6
Continuous
 62
     7
100
AcDbLine
 10
227.626575
 20
190.700423
 30
0.0
 11
187.360398
 21
190.700423
 31
0.0
  0
LINE
  5
132
100
AcDbEntity
  8
1
390
0
  6
Continuous
 62
     7
100
AcDbLine
 10
186.827064
 20
189.600423
 30
0.0
 11
227.626575
 21
189.600423
 31
0.0
  0
LINE
  5
133
100
AcDbEntity
  8
1
390
0
  6
Continuous
 62
     8
100
AcDbLine
 10
181.517303
 20
188.96154
 30
0.0
 11
182.725526
 21
191.453501
 31
0.0
  0
LINE
  5
134
100
AcDbEntity
  8
1
390
0
  6
Continuous
 62
     8
100
AcDbLine
 10
186.517303
 20
188.96154
 30
0.0
 11
187.725526
 21
191.453501
 31
0.0
  0
LINE
  5
135
100
AcDbEntity
  8
1
390
0
  6
Continuous
 62
     7
100
AcDbLine
 10
140.890482
 20
109.585577
 30
0.0
 11
149.814603
 21
109.585577
 31
0.0
  0
LINE
  5
136
100
AcDbEntity
  8
1
390
0
  6
Continuous
 62
     7
100
AcDbLine
 10
149.814603
 20
116.085577
 30
0.0
 11
140.890482
 21
116.085577
 31
0.0
  0
LINE
  5
137
100
AcDbEntity
  8
1
390
0
  6
Continuous
 62
     7
100
AcDbLine
 10
141.390482
 20
109.085577
 30
0.0
 11
150.390482
 21
109.085577
 31
0.0
  0
LINE
  5
138
100
AcDbEntity
  8
1
390
0
  6
Continuous
 62
     7
100
AcDbLine
 10
150.080282
 20
109.635577
 30
0.0
 11
150.890482
 21
109.635577
 31
0.0
  0
LINE
  5
139
100
AcDbEntity
  8
1
390
0
  6
DOT
 62
     9
100
AcDbLine
 10
150.080282
 20
109.635577
 30
0.0
 11
150.890482
 21
109.635577
 31
0.0
  0
POLYLINE
  5
13A
100
AcDbEntity
  8
1
390
0
  6
DOT
 62
     9
100
AcDb2dPolyline
 66
     1
 10
0.0
 20
0.0
 30
0.0
 40
1.0
 41
1.0
  0
VERTEX
  5
13B
100
AcDbEntity
  8
1
390
0
 62
     9
100
AcDbVertex
100
AcDb2dVertex
 10
150.080282
 20
109.635577
 30
0.0
  0
VERTEX
  5
13C
100
AcDbEntity
  8
1
390
0
 62
     9
100
AcDbVertex
100
AcDb2dVertex
 10
149.977108
 20
109.605765
 30
0.0
  0
VERTEX
  5
13D
100
AcDbEntity
  8
1
390
0
 62
     9
100
AcDbVertex
100
AcDb2dVertex
 10
149.877764
 20
109.588889
 30
0.0
  0
VERTEX
  5
13E
100
AcDbEntity
  8
1
390
0
 62
     9
100
AcDbVertex
100
AcDb2dVertex
 10
149.814603
 20
109.585577
 30
0.0
  0
SEQEND
  5
13F
100
AcDbEntity
  8
0
390
0
  0
POLYLINE
  5
140
100
AcDbEntity
  8
1
390
0
  6
Continuous
 62
     7
100
AcDb2dPolyline
 66
     1
 10
0.0
 20
0.0
 30
0.0
 40
1.0
 41
1.0
  0
VERTEX
  5
141
100
AcDbEntity
  8
1
390
0
 62
     7
100
AcDbVertex
100
AcDb2dVertex
 10
149.814603
 20
109.585577
 30
0.0
  0
VERTEX
  5
142
100
AcDbEntity
  8
1
390
0
 62
     7
100
AcDbVertex
100
AcDb2dVertex
 10
149.940456
 20
109.598045
 30
0.0
  0
VERTEX
  5
143
100
AcDbEntity
  8
1
390
0
 62
     7
100
AcDbVertex
100
AcDb2dVertex
 10
150.044401
 20
109.623952
 30
0.0
  0
VERTEX
  5
144
100
AcDbEntity
  8
1
390
0
 62
     7
100
AcDbVertex
100
AcDb2dVertex
 10
150.080282
 20
109.635577
 30
0.0
  0
SEQEND
  5
145
100
AcDbEntity
  8
0
390
0
  0
LINE
  5
146
100
AcDbEntity
  8
1
390
0
  6
Continuous
 62
     7
100
AcDbLine
 10
141.390482
 20
116.585577
 30
0.0
 11
145.890482
 21
116.585577
 31
0.0
  0
LINE
  5
147
100
AcDbEntity
  8
1
390
0
  6
Continuous
 62
     7
100
AcDbLine
 10
145.890482
 20
116.585577
 30
0.0
 11
150.390482
 21
116.585577
 31
0.0
  0
LINE
  5
148
100
AcDbEntity
  8
1
390
0
  6
DOT
 62
     9
100
AcDbLine
 10
150.890482
 20
116.035577
 30
0.0
 11
150.080282
 21
116.035577
 31
0.0
  0
LINE
  5
149
100
AcDbEntity
  8
1
390
0
  6
Continuous
 62
     7
100
AcDbLine
 10
150.890482
 20
116.035577
 30
0.0
 11
150.080282
 21
116.035577
 31
0.0
  0
POLYLINE
  5
14A
100
AcDbEntity
  8
1
390
0
  6
Continuous
 62
     7
100
AcDb2dPolyline
 66
     1
 10
0.0
 20
0.0
 30
0.0
 40
1.0
 41
1.0
  0
VERTEX
  5
14B
100
AcDbEntity
  8
1
390
0
 62
     7
100
AcDbVertex
100
AcDb2dVertex
 10
150.080282
 20
116.035577
 30
0.0
  0
VERTEX
  5
14C
100
AcDbEntity
  8
1
390
0
 62
     7
100
AcDbVertex
100
AcDb2dVertex
 10
149.977108
 20
116.06539
 30
0.0
  0
VERTEX
  5
14D
100
AcDbEntity
  8
1
390
0
 62
     7
100
AcDbVertex
100
AcDb2dVertex
 10
149.877764
 20
116.082265
 30
0.0
  0
VERTEX
  5
14E
100
AcDbEntity
  8
1
390
0
 62
     7
100
AcDbVertex
100
AcDb2dVertex
 10
149.814603
 20
116.085577
 30
0.0
  0
SEQEND
  5
14F
100
AcDbEntity
  8
0
390
0
  0
POLYLINE
  5
150
100
AcDbEntity
  8
1
390
0
  6
DOT
 62
     9
100
AcDb2dPolyline
 66
     1
 10
0.0
 20
0.0
 30
0.0
 40
1.0
 41
1.0
  0
VERTEX
  5
151
100
AcDbEntity
  8
1
390
0
 62
     9
100
AcDbVertex
100
AcDb2dVertex
 10
149.814603
 20
116.085577
 30
0.0
  0
VERTEX
  5
152
100
AcDbEntity
  8
1
390
0
 62
     9
100
AcDbVertex
100
AcDb2dVertex
 10
149.940456
 20
116.07311
 30
0.0
  0
VERTEX
  5
153
100
AcDbEntity
  8
1
390
0
 62
     9
100
AcDbVertex
100
AcDb2dVertex
 10
150.044401
 20
116.047202
 30
0.0
  0
VERTEX
  5
154
100
AcDbEntity
  8
1
390
0
 62
     9
100
AcDbVertex
100
AcDb2dVertex
 10
150.080282
 20
116.035577
 30
0.0
  0
SEQEND
  5
155
100
AcDbEntity
  8
0
390
0
  0
LINE
  5
156
100
AcDbEntity
  8
1
390
0
  6
DOT
 62
     9
100
AcDbLine
 10
142.490482
 20
109.185577
 30
0.0
 11
149.290482
 21
109.185577
 31
0.0
  0
POLYLINE
  5
157
100
AcDbEntity
  8
1
390
0
  6
Continuous
 62
     7
100
AcDb2dPolyline
 66
     1
 10
0.0
 20
0.0
 30
0.0
 40
1.0
 41
1.0
  0
VERTEX
  5
158
100
AcDbEntity
  8
1
390
0
 62
     7
100
AcDbVertex
100
AcDb2dVertex
 10
150.080282
 20
115.135577
 30
0.0
  0
VERTEX
  5
159
100
AcDbEntity
  8
1
390
0
 62
     7
100
AcDbVertex
100
AcDb2dVertex
 10
150.080356
 20
115.131131
 30
0.0
  0
VERTEX
  5
15A
100
AcDbEntity
  8
1
390
0
 62
     7
100
AcDbVertex
100
AcDb2dVertex
 10
150.080574
 20
115.126687
 30
0.0
  0
VERTEX
  5
15B
100
AcDbEntity
  8
1
390
0
 62
     7
100
AcDbVertex
100
AcDb2dVertex
 10
150.080934
 20
115.122257
 30
0.0
  0
VERTEX
  5
15C
100
AcDbEntity
  8
1
390
0
 62
     7
100
AcDbVertex
100
AcDb2dVertex
 10
150.081432
 20
115.117853
 30
0.0
  0
VERTEX
  5
15D
100
AcDbEntity
  8
1
390
0
 62
     7
100
AcDbVertex
100
AcDb2dVertex
 10
150.082066
 20
115.113485
 30
0.0
  0
VERTEX
  5
15E
100
AcDbEntity
  8
1
390
0
 62
     7
100
AcDbVertex
100
AcDb2dVertex
 10
150.083091
 20
115.107846
 30
0.0
  0
VERTEX
  5
15F
100
AcDbEntity
  8
1
390
0
 62
     7
100
AcDbVertex
100
AcDb2dVertex
 10
150.084328
 20
115.102275
 30
0.0
  0
VERTEX
  5
160
100
AcDbEntity
  8
1
390
0
 62
     7
100
AcDbVertex
100
AcDb2dVertex
 10
150.085763
 20
115.096786
 30
0.0
  0
VERTEX
  5
161
100
AcDbEntity
  8
1
390
0
 62
     7
100
AcDbVertex
100
AcDb2dVertex
 10
150.087382
 20
115.091393
 30
0.0
  0
VERTEX
  5
162
100
AcDbEntity
  8
1
390
0
 62
     7
100
AcDbVertex
100
AcDb2dVertex
 10
150.090569
 20
115.082306
 30
0.0
  0
VERTEX
  5
163
100
AcDbEntity
  8
1
390
0
 62
     7
100
AcDbVertex
100
AcDb2dVertex
 10
150.094206
 20
115.073489
 30
0.0
  0
VERTEX
  5
164
100
AcDbEntity
  8
1
390
0
 62
     7
100
AcDbVertex
100
AcDb2dVertex
 10
150.098239
 20
115.064942
 30
0.0
  0
VERTEX
  5
165
100
AcDbEntity
  8
1
390
0
 62
     7
100
AcDbVertex
100
AcDb2dVertex
 10
150.102613
 20
115.056666
 30
0.0
  0
VERTEX
  5
166
100
AcDbEntity
  8
1
390
0
 62
     7
100
AcDbVertex
100
AcDb2dVertex
 10
150.107274
 20
115.048661
 30
0.0
  0
VERTEX
  5
167
100
AcDbEntity
  8
1
390
0
 62
     7
100
AcDbVertex
100
AcDb2dVertex
 10
150.112167
 20
115.040926
 30
0.0
  0
VERTEX
  5
168
100
AcDbEntity
  8
1
390
0
 62
     7
100
AcDbVertex
100
AcDb2dVertex
 10
150.126815
 20
115.020408
 30
0.0
  0
VERTEX
  5
169
100
AcDbEntity
  8
1
390
0
 62
     7
100
AcDbVertex
100
AcDb2dVertex
 10
150.142703
 20
115.001262
 30
0.0
  0
VERTEX
  5
16A
100
AcDbEntity
  8
1
390
0
 62
     7
100
AcDbVertex
100
AcDb2dVertex
 10
150.159635
 20
114.983326
 30
0.0
  0
VERTEX
  5
16B
100
AcDbEntity
  8
1
390
0
 62
     7
100
AcDbVertex
100
AcDb2dVertex
 10
150.177415
 20
114.966441
 30
0.0
  0
VERTEX
  5
16C
100
AcDbEntity
  8
1
390
0
 62
     7
100
AcDbVertex
100
AcDb2dVertex
 10
150.195843
 20
114.950444
 30
0.0
  0
VERTEX
  5
16D
100
AcDbEntity
  8
1
390
0
 62
     7
100
AcDbVertex
100
AcDb2dVertex
 10
150.214724
 20
114.935176
 30
0.0
  0
VERTEX
  5
16E
100
AcDbEntity
  8
1
390
0
 62
     7
100
AcDbVertex
100
AcDb2dVertex
 10
150.253994
 20
114.906214
 30
0.0
  0
VERTEX
  5
16F
100
AcDbEntity
  8
1
390
0
 62
     7
100
AcDbVertex
100
AcDb2dVertex
 10
150.295017
 20
114.879477
 30
0.0
  0
VERTEX
  5
170
100
AcDbEntity
  8
1
390
0
 62
     7
100
AcDbVertex
100
AcDb2dVertex
 10
150.337613
 20
114.854853
 30
0.0
  0
VERTEX
  5
171
100
AcDbEntity
  8
1
390
0
 62
     7
100
AcDbVertex
100
AcDb2dVertex
 10
150.381601
 20
114.832232
 30
0.0
  0
SEQEND
  5
172
100
AcDbEntity
  8
0
390
0
  0
POLYLINE
  5
173
100
AcDbEntity
  8
1
390
0
  6
Continuous
 62
     7
100
AcDb2dPolyline
 66
     1
 10
0.0
 20
0.0
 30
0.0
 40
1.0
 41
1.0
  0
VERTEX
  5
174
100
AcDbEntity
  8
1
390
0
 62
     7
100
AcDbVertex
100
AcDb2dVertex
 10
151.005187
 20
113.00748
 30
0.0
  0
VERTEX
  5
175
100
AcDbEntity
  8
1
390
0
 62
     7
100
AcDbVertex
100
AcDb2dVertex
 10
150.907738
 20
113.045041
 30
0.0
  0
VERTEX
  5
176
100
AcDbEntity
  8
1
390
0
 62
     7
100
AcDbVertex
100
AcDb2dVertex
 10
150.816172
 20
113.101099
 30
0.0
  0
VERTEX
  5
177
100
AcDbEntity
  8
1
390
0
 62
     7
100
AcDbVertex
100
AcDb2dVertex
 10
150.73762
 20
113.168053
 30
0.0
 42
-0.213643
  0
VERTEX
  5
178
100
AcDbEntity
  8
1
390
0
 62
     7
100
AcDbVertex
100
AcDb2dVertex
 10
150.381601
 20
114.832232
 30
0.0
  0
SEQEND
  5
179
100
AcDbEntity
  8
0
390
0
  0
POLYLINE
  5
17A
100
AcDbEntity
  8
1
390
0
  6
Continuous
 62
     7
100
AcDb2dPolyline
 66
     1
 10
0.0
 20
0.0
 30
0.0
 40
1.0
 41
1.0
  0
VERTEX
  5
17B
100
AcDbEntity
  8
1
390
0
 62
     7
100
AcDbVertex
100
AcDb2dVertex
 10
151.005187
 20
111.763675
 30
0.0
 42
0.087038
  0
VERTEX
  5
17C
100
AcDbEntity
  8
1
390
0
 62
     7
100
AcDbVertex
100
AcDb2dVertex
 10
151.121485
 20
112.439024
 30
0.0
  0
VERTEX
  5
17D
100
AcDbEntity
  8
1
390
0
 62
     7
100
AcDbVertex
100
AcDb2dVertex
 10
151.105933
 20
112.582419
 30
0.0
  0
VERTEX
  5
17E
100
AcDbEntity
  8
1
390
0
 62
     7
100
AcDbVertex
100
AcDb2dVertex
 10
151.077582
 20
112.72397
 30
0.0
  0
VERTEX
  5
17F
100
AcDbEntity
  8
1
390
0
 62
     7
100
AcDbVertex
100
AcDb2dVertex
 10
151.005187
 20
113.00748
 30
0.0
  0
SEQEND
  5
180
100
AcDbEntity
  8
0
390
0
  0
POLYLINE
  5
181
100
AcDbEntity
  8
1
390
0
  6
Continuous
 62
     7
100
AcDb2dPolyline
 66
     1
 10
0.0
 20
0.0
 30
0.0
 40
1.0
 41
1.0
  0
VERTEX
  5
182
100
AcDbEntity
  8
1
390
0
 62
     7
100
AcDbVertex
100
AcDb2dVertex
 10
150.381601
 20
109.938922
 30
0.0
 42
-0.172998
  0
VERTEX
  5
183
100
AcDbEntity
  8
1
390
0
 62
     7
100
AcDbVertex
100
AcDb2dVertex
 10
150.627847
 20
111.472955
 30
0.0
  0
VERTEX
  5
184
100
AcDbEntity
  8
1
390
0
 62
     7
100
AcDbVertex
100
AcDb2dVertex
 10
150.699568
 20
111.563365
 30
0.0
  0
VERTEX
  5
185
100
AcDbEntity
  8
1
390
0
 62
     7
100
AcDbVertex
100
AcDb2dVertex
 10
150.780666
 20
111.642109
 30
0.0
  0
VERTEX
  5
186
100
AcDbEntity
  8
1
390
0
 62
     7
100
AcDbVertex
100
AcDb2dVertex
 10
150.872901
 20
111.707337
 30
0.0
  0
VERTEX
  5
187
100
AcDbEntity
  8
1
390
0
 62
     7
100
AcDbVertex
100
AcDb2dVertex
 10
150.977585
 20
111.755133
 30
0.0
  0
VERTEX
  5
188
100
AcDbEntity
  8
1
390
0
 62
     7
100
AcDbVertex
100
AcDb2dVertex
 10
151.005187
 20
111.763675
 30
0.0
  0
SEQEND
  5
189
100
AcDbEntity
  8
0
390
0
  0
POLYLINE
  5
18A
100
AcDbEntity
  8
1
390
0
  6
Continuous
 62
     7
100
AcDb2dPolyline
 66
     1
 10
0.0
 20
0.0
 30
0.0
 40
1.0
 41
1.0
  0
VERTEX
  5
18B
100
AcDbEntity
  8
1
390
0
 62
     7
100
AcDbVertex
100
AcDb2dVertex
 10
150.381601
 20
109.938922
 30
0.0
  0
VERTEX
  5
18C
100
AcDbEntity
  8
1
390
0
 62
     7
100
AcDbVertex
100
AcDb2dVertex
 10
150.342009
 20
109.918706
 30
0.0
  0
VERTEX
  5
18D
100
AcDbEntity
  8
1
390
0
 62
     7
100
AcDbVertex
100
AcDb2dVertex
 10
150.303503
 20
109.896892
 30
0.0
  0
VERTEX
  5
18E
100
AcDbEntity
  8
1
390
0
 62
     7
100
AcDbVertex
100
AcDb2dVertex
 10
150.266237
 20
109.87337
 30
0.0
  0
VERTEX
  5
18F
100
AcDbEntity
  8
1
390
0
 62
     7
100
AcDbVertex
100
AcDb2dVertex
 10
150.230359
 20
109.848031
 30
0.0
  0
VERTEX
  5
190
100
AcDbEntity
  8
1
390
0
 62
     7
100
AcDbVertex
100
AcDb2dVertex
 10
150.196023
 20
109.820764
 30
0.0
  0
VERTEX
  5
191
100
AcDbEntity
  8
1
390
0
 62
     7
100
AcDbVertex
100
AcDb2dVertex
 10
150.176321
 20
109.80345
 30
0.0
  0
VERTEX
  5
192
100
AcDbEntity
  8
1
390
0
 62
     7
100
AcDbVertex
100
AcDb2dVertex
 10
150.157355
 20
109.785144
 30
0.0
  0
VERTEX
  5
193
100
AcDbEntity
  8
1
390
0
 62
     7
100
AcDbVertex
100
AcDb2dVertex
 10
150.139306
 20
109.765674
 30
0.0
  0
VERTEX
  5
194
100
AcDbEntity
  8
1
390
0
 62
     7
100
AcDbVertex
100
AcDb2dVertex
 10
150.130686
 20
109.755437
 30
0.0
  0
VERTEX
  5
195
100
AcDbEntity
  8
1
390
0
 62
     7
100
AcDbVertex
100
AcDb2dVertex
 10
150.122395
 20
109.744798
 30
0.0
  0
VERTEX
  5
196
100
AcDbEntity
  8
1
390
0
 62
     7
100
AcDbVertex
100
AcDb2dVertex
 10
150.114497
 20
109.733718
 30
0.0
  0
VERTEX
  5
197
100
AcDbEntity
  8
1
390
0
 62
     7
100
AcDbVertex
100
AcDb2dVertex
 10
150.108748
 20
109.724889
 30
0.0
  0
VERTEX
  5
198
100
AcDbEntity
  8
1
390
0
 62
     7
100
AcDbVertex
100
AcDb2dVertex
 10
150.10331
 20
109.715729
 30
0.0
  0
VERTEX
  5
199
100
AcDbEntity
  8
1
390
0
 62
     7
100
AcDbVertex
100
AcDb2dVertex
 10
150.098252
 20
109.706224
 30
0.0
  0
VERTEX
  5
19A
100
AcDbEntity
  8
1
390
0
 62
     7
100
AcDbVertex
100
AcDb2dVertex
 10
150.093642
 20
109.696363
 30
0.0
  0
VERTEX
  5
19B
100
AcDbEntity
  8
1
390
0
 62
     7
100
AcDbVertex
100
AcDb2dVertex
 10
150.091134
 20
109.690292
 30
0.0
  0
VERTEX
  5
19C
100
AcDbEntity
  8
1
390
0
 62
     7
100
AcDbVertex
100
AcDb2dVertex
 10
150.088827
 20
109.684064
 30
0.0
  0
VERTEX
  5
19D
100
AcDbEntity
  8
1
390
0
 62
     7
100
AcDbVertex
100
AcDb2dVertex
 10
150.086745
 20
109.677693
 30
0.0
  0
VERTEX
  5
19E
100
AcDbEntity
  8
1
390
0
 62
     7
100
AcDbVertex
100
AcDb2dVertex
 10
150.084913
 20
109.671195
 30
0.0
  0
VERTEX
  5
19F
100
AcDbEntity
  8
1
390
0
 62
     7
100
AcDbVertex
100
AcDb2dVertex
 10
150.083357
 20
109.664588
 30
0.0
  0
VERTEX
  5
1A0
100
AcDbEntity
  8
1
390
0
 62
     7
100
AcDbVertex
100
AcDb2dVertex
 10
150.082101
 20
109.657886
 30
0.0
  0
VERTEX
  5
1A1
100
AcDbEntity
  8
1
390
0
 62
     7
100
AcDbVertex
100
AcDb2dVertex
 10
150.081455
 20
109.653476
 30
0.0
  0
VERTEX
  5
1A2
100
AcDbEntity
  8
1
390
0
 62
     7
100
AcDbVertex
100
AcDb2dVertex
 10
150.080947
 20
109.649029
 30
0.0
  0
VERTEX
  5
1A3
100
AcDbEntity
  8
1
390
0
 62
     7
100
AcDbVertex
100
AcDb2dVertex
 10
150.08058
 20
109.644556
 30
0.0
  0
VERTEX
  5
1A4
100
AcDbEntity
  8
1
390
0
 62
     7
100
AcDbVertex
100
AcDb2dVertex
 10
150.080357
 20
109.640068
 30
0.0
  0
VERTEX
  5
1A5
100
AcDbEntity
  8
1
390
0
 62
     7
100
AcDbVertex
100
AcDb2dVertex
 10
150.080282
 20
109.635577
 30
0.0
  0
SEQEND
  5
1A6
100
AcDbEntity
  8
0
390
0
  0
LINE
  5
1A7
100
AcDbEntity
  8
1
390
0
  6
Continuous
 62
     7
100
AcDbLine
 10
150.080282
 20
116.035577
 30
0.0
 11
150.080282
 21
115.135577
 31
0.0
  0
LINE
  5
1A8
100
AcDbEntity
  8
1
390
0
  6
Continuous
 62
     7
100
AcDbLine
 10
150.890482
 20
114.989326
 30
0.0
 11
150.890482
 21
115.135577
 31
0.0
  0
LINE
  5
1A9
100
AcDbEntity
  8
1
390
0
  6
Continuous
 62
     7
100
AcDbLine
 10
150.890482
 20
114.989326
 30
0.0
 11
150.890482
 21
114.922997
 31
0.0
  0
LINE
  5
1AA
100
AcDbEntity
  8
1
390
0
  6
Continuous
 62
     7
100
AcDbLine
 10
150.890482
 20
114.791151
 30
0.0
 11
150.890482
 21
114.922997
 31
0.0
  0
POLYLINE
  5
1AB
100
AcDbEntity
  8
1
390
0
  6
Continuous
 62
     7
100
AcDb2dPolyline
 66
     1
 10
0.0
 20
0.0
 30
0.0
 40
1.0
 41
1.0
  0
VERTEX
  5
1AC
100
AcDbEntity
  8
1
390
0
 62
     7
100
AcDbVertex
100
AcDb2dVertex
 10
150.381601
 20
114.832232
 30
0.0
  0
VERTEX
  5
1AD
100
AcDbEntity
  8
1
390
0
 62
     7
100
AcDbVertex
100
AcDb2dVertex
 10
150.414021
 20
114.86162
 30
0.0
  0
VERTEX
  5
1AE
100
AcDbEntity
  8
1
390
0
 62
     7
100
AcDbVertex
100
AcDb2dVertex
 10
150.451224
 20
114.888657
 30
0.0
  0
VERTEX
  5
1AF
100
AcDbEntity
  8
1
390
0
 62
     7
100
AcDbVertex
100
AcDb2dVertex
 10
150.47177
 20
114.900591
 30
0.0
  0
VERTEX
  5
1B0
100
AcDbEntity
  8
1
390
0
 62
     7
100
AcDbVertex
100
AcDb2dVertex
 10
150.493552
 20
114.910696
 30
0.0
  0
VERTEX
  5
1B1
100
AcDbEntity
  8
1
390
0
 62
     7
100
AcDbVertex
100
AcDb2dVertex
 10
150.516637
 20
114.918343
 30
0.0
  0
VERTEX
  5
1B2
100
AcDbEntity
  8
1
390
0
 62
     7
100
AcDbVertex
100
AcDb2dVertex
 10
150.541092
 20
114.922901
 30
0.0
  0
VERTEX
  5
1B3
100
AcDbEntity
  8
1
390
0
 62
     7
100
AcDbVertex
100
AcDb2dVertex
 10
150.556052
 20
114.923841
 30
0.0
  0
VERTEX
  5
1B4
100
AcDbEntity
  8
1
390
0
 62
     7
100
AcDbVertex
100
AcDb2dVertex
 10
150.571584
 20
114.923373
 30
0.0
  0
VERTEX
  5
1B5
100
AcDbEntity
  8
1
390
0
 62
     7
100
AcDbVertex
100
AcDb2dVertex
 10
150.587695
 20
114.921469
 30
0.0
  0
VERTEX
  5
1B6
100
AcDbEntity
  8
1
390
0
 62
     7
100
AcDbVertex
100
AcDb2dVertex
 10
150.604395
 20
114.9181
 30
0.0
  0
VERTEX
  5
1B7
100
AcDbEntity
  8
1
390
0
 62
     7
100
AcDbVertex
100
AcDb2dVertex
 10
150.621693
 20
114.913239
 30
0.0
  0
VERTEX
  5
1B8
100
AcDbEntity
  8
1
390
0
 62
     7
100
AcDbVertex
100
AcDb2dVertex
 10
150.645272
 20
114.904712
 30
0.0
  0
VERTEX
  5
1B9
100
AcDbEntity
  8
1
390
0
 62
     7
100
AcDbVertex
100
AcDb2dVertex
 10
150.669994
 20
114.894101
 30
0.0
  0
VERTEX
  5
1BA
100
AcDbEntity
  8
1
390
0
 62
     7
100
AcDbVertex
100
AcDb2dVertex
 10
150.695843
 20
114.88185
 30
0.0
  0
VERTEX
  5
1BB
100
AcDbEntity
  8
1
390
0
 62
     7
100
AcDbVertex
100
AcDb2dVertex
 10
150.722804
 20
114.868399
 30
0.0
  0
VERTEX
  5
1BC
100
AcDbEntity
  8
1
390
0
 62
     7
100
AcDbVertex
100
AcDb2dVertex
 10
150.761594
 20
114.848817
 30
0.0
  0
VERTEX
  5
1BD
100
AcDbEntity
  8
1
390
0
 62
     7
100
AcDbVertex
100
AcDb2dVertex
 10
150.802463
 20
114.828863
 30
0.0
  0
VERTEX
  5
1BE
100
AcDbEntity
  8
1
390
0
 62
     7
100
AcDbVertex
100
AcDb2dVertex
 10
150.84556
 20
114.80936
 30
0.0
  0
VERTEX
  5
1BF
100
AcDbEntity
  8
1
390
0
 62
     7
100
AcDbVertex
100
AcDb2dVertex
 10
150.890482
 20
114.791151
 30
0.0
  0
SEQEND
  5
1C0
100
AcDbEntity
  8
0
390
0
  0
LINE
  5
1C1
100
AcDbEntity
  8
1
390
0
  6
Continuous
 62
     7
100
AcDbLine
 10
150.890482
 20
109.848158
 30
0.0
 11
150.890482
 21
109.781829
 31
0.0
  0
LINE
  5
1C2
100
AcDbEntity
  8
1
390
0
  6
Continuous
 62
     7
100
AcDbLine
 10
150.890482
 20
109.635577
 30
0.0
 11
150.890482
 21
109.781829
 31
0.0
  0
POLYLINE
  5
1C3
100
AcDbEntity
  8
1
390
0
  6
Continuous
 62
     7
100
AcDb2dPolyline
 66
     1
 10
0.0
 20
0.0
 30
0.0
 40
1.0
 41
1.0
  0
VERTEX
  5
1C4
100
AcDbEntity
  8
1
390
0
 62
     7
100
AcDbVertex
100
AcDb2dVertex
 10
150.890482
 20
109.980004
 30
0.0
  0
VERTEX
  5
1C5
100
AcDbEntity
  8
1
390
0
 62
     7
100
AcDbVertex
100
AcDb2dVertex
 10
150.831806
 20
109.955683
 30
0.0
  0
VERTEX
  5
1C6
100
AcDbEntity
  8
1
390
0
 62
     7
100
AcDbVertex
100
AcDb2dVertex
 10
150.776327
 20
109.929564
 30
0.0
  0
VERTEX
  5
1C7
100
AcDbEntity
  8
1
390
0
 62
     7
100
AcDbVertex
100
AcDb2dVertex
 10
150.72443
 20
109.903578
 30
0.0
  0
VERTEX
  5
1C8
100
AcDbEntity
  8
1
390
0
 62
     7
100
AcDbVertex
100
AcDb2dVertex
 10
150.699238
 20
109.891013
 30
0.0
  0
VERTEX
  5
1C9
100
AcDbEntity
  8
1
390
0
 62
     7
100
AcDbVertex
100
AcDb2dVertex
 10
150.674989
 20
109.879473
 30
0.0
  0
VERTEX
  5
1CA
100
AcDbEntity
  8
1
390
0
 62
     7
100
AcDbVertex
100
AcDb2dVertex
 10
150.651693
 20
109.86926
 30
0.0
  0
VERTEX
  5
1CB
100
AcDbEntity
  8
1
390
0
 62
     7
100
AcDbVertex
100
AcDb2dVertex
 10
150.629359
 20
109.860674
 30
0.0
  0
VERTEX
  5
1CC
100
AcDbEntity
  8
1
390
0
 62
     7
100
AcDbVertex
100
AcDb2dVertex
 10
150.607995
 20
109.854016
 30
0.0
  0
VERTEX
  5
1CD
100
AcDbEntity
  8
1
390
0
 62
     7
100
AcDbVertex
100
AcDb2dVertex
 10
150.587611
 20
109.849587
 30
0.0
  0
VERTEX
  5
1CE
100
AcDbEntity
  8
1
390
0
 62
     7
100
AcDbVertex
100
AcDb2dVertex
 10
150.567689
 20
109.847501
 30
0.0
  0
VERTEX
  5
1CF
100
AcDbEntity
  8
1
390
0
 62
     7
100
AcDbVertex
100
AcDb2dVertex
 10
150.548618
 20
109.847672
 30
0.0
  0
VERTEX
  5
1D0
100
AcDbEntity
  8
1
390
0
 62
     7
100
AcDbVertex
100
AcDb2dVertex
 10
150.530364
 20
109.849875
 30
0.0
  0
VERTEX
  5
1D1
100
AcDbEntity
  8
1
390
0
 62
     7
100
AcDbVertex
100
AcDb2dVertex
 10
150.512893
 20
109.853885
 30
0.0
  0
VERTEX
  5
1D2
100
AcDbEntity
  8
1
390
0
 62
     7
100
AcDbVertex
100
AcDb2dVertex
 10
150.496174
 20
109.859476
 30
0.0
  0
VERTEX
  5
1D3
100
AcDbEntity
  8
1
390
0
 62
     7
100
AcDbVertex
100
AcDb2dVertex
 10
150.468932
 20
109.872063
 30
0.0
  0
VERTEX
  5
1D4
100
AcDbEntity
  8
1
390
0
 62
     7
100
AcDbVertex
100
AcDb2dVertex
 10
150.443584
 20
109.887445
 30
0.0
  0
VERTEX
  5
1D5
100
AcDbEntity
  8
1
390
0
 62
     7
100
AcDbVertex
100
AcDb2dVertex
 10
150.4201
 20
109.904677
 30
0.0
  0
VERTEX
  5
1D6
100
AcDbEntity
  8
1
390
0
 62
     7
100
AcDbVertex
100
AcDb2dVertex
 10
150.381601
 20
109.938922
 30
0.0
  0
SEQEND
  5
1D7
100
AcDbEntity
  8
0
390
0
  0
LINE
  5
1D8
100
AcDbEntity
  8
1
390
0
  6
Continuous
 62
     7
100
AcDbLine
 10
150.890482
 20
109.848158
 30
0.0
 11
150.890482
 21
109.980004
 31
0.0
  0
LINE
  5
1D9
100
AcDbEntity
  8
1
390
0
  6
Continuous
 62
     7
100
AcDbLine
 10
150.890482
 20
115.135577
 30
0.0
 11
150.890482
 21
116.035577
 31
0.0
  0
ARC
  5
1DA
100
AcDbEntity
  8
1
390
0
  6
Continuous
 62
     7
100
AcDbCircle
 10
188.53214
 20
108.098373
 30
0.0
 40
37.705525
210
0.0
220
0.0
230
1.0
100
AcDbArc
 50
174.421548
 51
176.664712
  0
LINE
  5
1DB
100
AcDbEntity
  8
1
390
0
  6
Continuous
 62
     7
100
AcDbLine
 10
150.890482
 20
110.292039
 30
0.0
 11
150.890482
 21
109.980004
 31
0.0
  0
LINE
  5
1DC
100
AcDbEntity
  8
1
390
0
  6
Continuous
 62
     7
100
AcDbLine
 10
150.890482
 20
114.791151
 30
0.0
 11
150.890482
 21
114.479116
 31
0.0
  0
ARC
  5
1DD
100
AcDbEntity
  8
1
390
0
  6
Continuous
 62
     7
100
AcDbCircle
 10
180.970732
 20
116.083412
 30
0.0
 40
30.123002
210
0.0
220
0.0
230
1.0
100
AcDbArc
 50
183.052914
 51
185.860826
  0
LINE
  5
1DE
100
AcDbEntity
  8
1
390
0
  6
Continuous
 62
     7
100
AcDbLine
 10
156.890482
 20
114.085577
 30
0.0
 11
156.890482
 21
110.685577
 31
0.0
  0
LINE
  5
1DF
100
AcDbEntity
  8
1
390
0
  6
Continuous
 62
     7
100
AcDbLine
 10
155.937854
 20
110.135577
 30
0.0
 11
155.937854
 21
114.635577
 31
0.0
  0
LINE
  5
1E0
100
AcDbEntity
  8
1
390
0
  6
Continuous
 62
     7
100
AcDbLine
 10
144.590482
 20
117.085577
 30
0.0
 11
145.890482
 21
117.085577
 31
0.0
  0
LINE
  5
1E1
100
AcDbEntity
  8
1
390
0
  6
Continuous
 62
     7
100
AcDbLine
 10
145.890482
 20
117.085577
 30
0.0
 11
147.190482
 21
117.085577
 31
0.0
  0
LINE
  5
1E2
100
AcDbEntity
  8
1
390
0
  6
Continuous
 62
     7
100
AcDbLine
 10
161.890482
 20
110.685577
 30
0.0
 11
161.890482
 21
114.085577
 31
0.0
  0
LINE
  5
1E3
100
AcDbEntity
  8
1
390
0
  6
Continuous
 62
     7
100
AcDbLine
 10
140.890482
 20
116.085577
 30
0.0
 11
140.890482
 21
109.585577
 31
0.0
  0
LINE
  5
1E4
100
AcDbEntity
  8
1
390
0
  6
Continuous
 62
     7
100
AcDbLine
 10
140.890482
 20
109.585577
 30
0.0
 11
141.390482
 21
109.085577
 31
0.0
  0
LINE
  5
1E5
100
AcDbEntity
  8
1
390
0
  6
Continuous
 62
     7
100
AcDbLine
 10
150.390482
 20
109.085577
 30
0.0
 11
150.890482
 21
109.585577
 31
0.0
  0
LINE
  5
1E6
100
AcDbEntity
  8
1
390
0
  6
Continuous
 62
     7
100
AcDbLine
 10
150.890482
 20
116.085577
 30
0.0
 11
150.390482
 21
116.585577
 31
0.0
  0
LINE
  5
1E7
100
AcDbEntity
  8
1
390
0
  6
Continuous
 62
     7
100
AcDbLine
 10
141.390482
 20
116.585577
 30
0.0
 11
140.890482
 21
116.085577
 31
0.0
  0
ARC
  5
1E8
100
AcDbEntity
  8
1
390
0
  6
Continuous
 62
     7
100
AcDbCircle
 10
151.390482
 20
115.135577
 30
0.0
 40
0.5
210
0.0
220
0.0
230
1.0
100
AcDbArc
 50
180.0
 51
270.0
  0
ARC
  5
1E9
100
AcDbEntity
  8
1
390
0
  6
DOT
 62
     9
100
AcDbCircle
 10
151.390482
 20
109.635577
 30
0.0
 40
0.5
210
0.0
220
0.0
230
1.0
100
AcDbArc
 50
163.892759
 51
180.0
  0
ARC
  5
1EA
100
AcDbEntity
  8
1
390
0
  6
Continuous
 62
     7
100
AcDbCircle
 10
151.390482
 20
109.635577
 30
0.0
 40
0.5
210
0.0
220
0.0
230
1.0
100
AcDbArc
 50
90.0
 51
163.892759
  0
LINE
  5
1EB
100
AcDbEntity
  8
1
390
0
  6
Continuous
 62
     7
100
AcDbLine
 10
155.937854
 20
110.135577
 30
0.0
 11
156.890482
 21
110.685577
 31
0.0
  0
LINE
  5
1EC
100
AcDbEntity
  8
1
390
0
  6
Continuous
 62
     7
100
AcDbLine
 10
156.890482
 20
114.085577
 30
0.0
 11
155.937854
 21
114.635577
 31
0.0
  0
LINE
  5
1ED
100
AcDbEntity
  8
1
390
0
  6
Continuous
 62
     7
100
AcDbLine
 10
155.937854
 20
114.635577
 30
0.0
 11
151.390482
 21
114.635577
 31
0.0
  0
LINE
  5
1EE
100
AcDbEntity
  8
1
390
0
  6
Continuous
 62
     7
100
AcDbLine
 10
151.390482
 20
110.135577
 30
0.0
 11
155.937854
 21
110.135577
 31
0.0
  0
ARC
  5
1EF
100
AcDbEntity
  8
1
390
0
  6
Continuous
 62
     7
100
AcDbCircle
 10
143.790482
 20
116.685577
 30
0.0
 40
0.1
210
0.0
220
0.0
230
1.0
100
AcDbArc
 50
270.0
 51
360.0
  0
ARC
  5
1F0
100
AcDbEntity
  8
1
390
0
  6
Continuous
 62
     7
100
AcDbCircle
 10
147.990482
 20
116.685577
 30
0.0
 40
0.1
210
0.0
220
0.0
230
1.0
100
AcDbArc
 50
180.0
 51
270.0
  0
ARC
  5
1F1
100
AcDbEntity
  8
1
390
0
  6
Continuous
 62
     7
100
AcDbCircle
 10
143.990482
 20
116.886404
 30
0.0
 40
0.1
210
0.0
220
0.0
230
1.0
100
AcDbArc
 50
101.064807
 51
180.0
  0
ARC
  5
1F2
100
AcDbEntity
  8
1
390
0
  6
Continuous
 62
     7
100
AcDbCircle
 10
147.790482
 20
116.886404
 30
0.0
 40
0.1
210
0.0
220
0.0
230
1.0
100
AcDbArc
 50
0.0
 51
78.935193
  0
LINE
  5
1F3
100
AcDbEntity
  8
1
390
0
  6
Continuous
 62
     7
100
AcDbLine
 10
143.890482
 20
116.886404
 30
0.0
 11
143.890482
 21
116.685577
 31
0.0
  0
LINE
  5
1F4
100
AcDbEntity
  8
1
390
0
  6
Continuous
 62
     7
100
AcDbLine
 10
147.890482
 20
116.685577
 30
0.0
 11
147.890482
 21
116.886404
 31
0.0
  0
ARC
  5
1F5
100
AcDbEntity
  8
1
390
0
  6
Continuous
 62
     7
100
AcDbCircle
 10
145.890482
 20
107.170437
 30
0.0
 40
10.0
210
0.0
220
0.0
230
1.0
100
AcDbArc
 50
97.469592
 51
101.064807
  0
ARC
  5
1F6
100
AcDbEntity
  8
1
390
0
  6
Continuous
 62
     7
100
AcDbCircle
 10
145.890482
 20
107.170437
 30
0.0
 40
10.0
210
0.0
220
0.0
230
1.0
100
AcDbArc
 50
78.935193
 51
82.530408
  0
LINE
  5
1F7
100
AcDbEntity
  8
1
390
0
  6
Continuous
 62
     7
100
AcDbLine
 10
161.890482
 20
114.085577
 30
0.0
 11
156.890482
 21
114.085577
 31
0.0
  0
LINE
  5
1F8
100
AcDbEntity
  8
1
390
0
  6
Continuous
 62
     7
100
AcDbLine
 10
156.890482
 20
110.685577
 30
0.0
 11
161.890482
 21
110.685577
 31
0.0
  0
LINE
  5
1F9
100
AcDbEntity
  8
1
390
0
  6
Continuous
 62
     7
100
AcDbLine
 10
182.064167
 20
112.935577
 30
0.0
 11
161.890482
 21
112.935577
 31
0.0
  0
LINE
  5
1FA
100
AcDbEntity
  8
1
390
0
  6
Continuous
 62
     7
100
AcDbLine
 10
161.890482
 20
111.835577
 30
0.0
 11
181.517303
 21
111.835577
 31
0.0
  0
LINE
  5
1FB
100
AcDbEntity
  8
1
390
0
  6
Continuous
 62
     7
100
AcDbLine
 10
237.626575
 20
108.885577
 30
0.0
 11
237.626575
 21
115.885577
 31
0.0
  0
LINE
  5
1FC
100
AcDbEntity
  8
1
390
0
  6
Continuous
 62
     7
100
AcDbLine
 10
244.626575
 20
108.910577
 30
0.0
 11
244.626575
 21
115.860577
 31
0.0
  0
LINE
  5
1FD
100
AcDbEntity
  8
1
390
0
  6
Continuous
 62
     7
100
AcDbLine
 10
227.626575
 20
108.885577
 30
0.0
 11
237.626575
 21
108.885577
 31
0.0
  0
LINE
  5
1FE
100
AcDbEntity
  8
1
390
0
  6
Continuous
 62
     7
100
AcDbLine
 10
237.626575
 20
115.885577
 30
0.0
 11
227.626575
 21
115.885577
 31
0.0
  0
LINE
  5
1FF
100
AcDbEntity
  8
1
390
0
  6
Continuous
 62
     7
100
AcDbLine
 10
237.626575
 20
108.910577
 30
0.0
 11
244.626575
 21
108.910577
 31
0.0
  0
LINE
  5
200
100
AcDbEntity
  8
1
390
0
  6
Continuous
 62
     7
100
AcDbLine
 10
244.626575
 20
115.860577
 30
0.0
 11
237.626575
 21
115.860577
 31
0.0
  0
LINE
  5
201
100
AcDbEntity
  8
1
390
0
  6
Continuous
 62
     7
100
AcDbLine
 10
227.626575
 20
112.935577
 30
0.0
 11
187.064167
 21
112.935577
 31
0.0
  0
LINE
  5
202
100
AcDbEntity
  8
1
390
0
  6
Continuous
 62
     7
100
AcDbLine
 10
186.517303
 20
111.835577
 30
0.0
 11
227.626575
 21
111.835577
 31
0.0
  0
LINE
  5
203
100
AcDbEntity
  8
1
390
0
  6
Continuous
 62
     8
100
AcDbLine
 10
180.942663
 20
111.038833
 30
0.0
 11
182.725526
 21
114.054101
 31
0.0
  0
LINE
  5
204
100
AcDbEntity
  8
1
390
0
  6
Continuous
 62
     8
100
AcDbLine
 10
185.829279
 20
110.847073
 30
0.0
 11
187.725526
 21
114.054101
 31
0.0
  0
POINT
  5
205
100
AcDbEntity
  8
1
390
0
 62
     8
100
AcDbPoint
 10
181.119241
 20
110.934426
 30
0.0
  0
POINT
  5
206
100
AcDbEntity
  8
1
390
0
 62
     8
100
AcDbPoint
 10
185.681543
 20
110.934426
 30
0.0
  0
LINE
  5
208
100
AcDbEntity
  8
1
390
0
  6
CENTER
 62
     1
100
AcDbLine
 10
140.690482
 20
190.150423
 30
0.0
 11
246.107464
 21
190.150423
 31
0.0
  0
LINE
  5
209
100
AcDbEntity
  8
1
390
0
  6
CENTER
 62
     1
100
AcDbLine
 10
145.890482
 20
184.950423
 30
0.0
 11
145.890482
 21
195.350423
 31
0.0
  0
POINT
  5
20A
100
AcDbEntity
  8
1
390
0
 62
     8
100
AcDbPoint
 10
246.107464
 20
178.09736
 30
0.0
  0
LINE
  5
20B
100
AcDbEntity
  8
1
390
0
  6
CENTER
 62
     1
100
AcDbLine
 10
145.890482
 20
116.285577
 30
0.0
 11
145.890482
 21
109.385577
 31
0.0
  0
LINE
  5
20C
100
AcDbEntity
  8
1
390
0
  6
CENTER
 62
     1
100
AcDbLine
 10
245.484866
 20
112.385577
 30
0.0
 11
149.441636
 21
112.385577
 31
0.0
  0
POINT
  5
20D
100
AcDbEntity
  8
1
390
0
 62
     8
100
AcDbPoint
 10
245.484866
 20
117.876814
 30
0.0
  0
POINT
  5
20E
100
AcDbEntity
  8
1
390
0
 62
     8
100
AcDbPoint
 10
149.441636
 20
103.822094
 30
0.0
  0
LINE
  5
20F
100
AcDbEntity
  8
1
390
0
  6
Continuous
 62
     7
100
AcDbLine
 10
71.35879
 20
194.650423
 30
0.0
 11
71.35879
 21
185.650423
 31
0.0
  0
LINE
  5
210
100
AcDbEntity
  8
1
390
0
  6
Continuous
 62
     7
100
AcDbLine
 10
70.85879
 20
185.150423
 30
0.0
 11
70.85879
 21
195.150423
 31
0.0
  0
LINE
  5
211
100
AcDbEntity
  8
1
390
0
  6
DOT
 62
     9
100
AcDbLine
 10
70.80879
 20
190.859295
 30
0.0
 11
70.80879
 21
192.969655
 31
0.0
  0
ARC
  5
212
100
AcDbEntity
  8
1
390
0
  6
DOT
 62
     9
100
AcDbCircle
 10
65.808785
 20
190.150423
 30
0.0
 40
5.050005
210
0.0
220
0.0
230
0.9999999999999999
100
AcDbArc
 50
351.930707
 51
8.069293
  0
LINE
  5
213
100
AcDbEntity
  8
1
390
0
  6
DOT
 62
     9
100
AcDbLine
 10
70.80879
 20
187.33119
 30
0.0
 11
70.80879
 21
189.441551
 31
0.0
  0
POLYLINE
  5
214
100
AcDbEntity
  8
1
390
0
  6
DOT
 62
     9
100
AcDb2dPolyline
 66
     1
 10
0.0
 20
0.0
 30
0.0
 40
1.0
 41
1.0
  0
VERTEX
  5
215
100
AcDbEntity
  8
1
390
0
 62
     9
100
AcDbVertex
100
AcDb2dVertex
 10
70.80879
 20
187.33119
 30
0.0
  0
VERTEX
  5
216
100
AcDbEntity
  8
1
390
0
 62
     9
100
AcDbVertex
100
AcDb2dVertex
 10
70.838602
 20
187.234644
 30
0.0
  0
VERTEX
  5
217
100
AcDbEntity
  8
1
390
0
 62
     9
100
AcDbVertex
100
AcDb2dVertex
 10
70.855478
 20
187.128054
 30
0.0
  0
VERTEX
  5
218
100
AcDbEntity
  8
1
390
0
 62
     9
100
AcDbVertex
100
AcDb2dVertex
 10
70.85879
 20
187.051831
 30
0.0
  0
SEQEND
  5
219
100
AcDbEntity
  8
0
390
0
  0
POLYLINE
  5
21A
100
AcDbEntity
  8
1
390
0
  6
DOT
 62
     9
100
AcDb2dPolyline
 66
     1
 10
0.0
 20
0.0
 30
0.0
 40
1.0
 41
1.0
  0
VERTEX
  5
21B
100
AcDbEntity
  8
1
390
0
 62
     9
100
AcDbVertex
100
AcDb2dVertex
 10
70.85879
 20
193.249014
 30
0.0
  0
VERTEX
  5
21C
100
AcDbEntity
  8
1
390
0
 62
     9
100
AcDbVertex
100
AcDb2dVertex
 10
70.851768
 20
193.139009
 30
0.0
  0
VERTEX
  5
21D
100
AcDbEntity
  8
1
390
0
 62
     9
100
AcDbVertex
100
AcDb2dVertex
 10
70.830592
 20
193.034922
 30
0.0
  0
VERTEX
  5
21E
100
AcDbEntity
  8
1
390
0
 62
     9
100
AcDbVertex
100
AcDb2dVertex
 10
70.80879
 20
192.969655
 30
0.0
  0
SEQEND
  5
21F
100
AcDbEntity
  8
0
390
0
  0
LINE
  5
220
100
AcDbEntity
  8
1
390
0
  6
Continuous
 62
     7
100
AcDbLine
 10
64.35879
 20
195.150423
 30
0.0
 11
64.35879
 21
185.150423
 31
0.0
  0
LINE
  5
221
100
AcDbEntity
  8
1
390
0
  6
Continuous
 62
     7
100
AcDbLine
 10
63.85879
 20
194.650423
 30
0.0
 11
63.85879
 21
185.650423
 31
0.0
  0
LINE
  5
222
100
AcDbEntity
  8
1
390
0
  6
DOT
 62
     9
100
AcDbLine
 10
64.40879
 20
189.441551
 30
0.0
 11
64.40879
 21
187.33119
 31
0.0
  0
ARC
  5
223
100
AcDbEntity
  8
1
390
0
  6
DOT
 62
     9
100
AcDbCircle
 10
69.408795
 20
190.150423
 30
0.0
 40
5.050005
210
0.0
220
0.0
230
1.0
100
AcDbArc
 50
171.930707
 51
188.069293
  0
LINE
  5
224
100
AcDbEntity
  8
1
390
0
  6
DOT
 62
     9
100
AcDbLine
 10
64.40879
 20
192.969655
 30
0.0
 11
64.40879
 21
190.859295
 31
0.0
  0
POLYLINE
  5
225
100
AcDbEntity
  8
1
390
0
  6
DOT
 62
     9
100
AcDb2dPolyline
 66
     1
 10
0.0
 20
0.0
 30
0.0
 40
1.0
 41
1.0
  0
VERTEX
  5
226
100
AcDbEntity
  8
1
390
0
 62
     9
100
AcDbVertex
100
AcDb2dVertex
 10
64.40879
 20
192.969655
 30
0.0
  0
VERTEX
  5
227
100
AcDbEntity
  8
1
390
0
 62
     9
100
AcDbVertex
100
AcDb2dVertex
 10
64.378977
 20
193.066202
 30
0.0
  0
VERTEX
  5
228
100
AcDbEntity
  8
1
390
0
 62
     9
100
AcDbVertex
100
AcDb2dVertex
 10
64.362102
 20
193.172792
 30
0.0
  0
VERTEX
  5
229
100
AcDbEntity
  8
1
390
0
 62
     9
100
AcDbVertex
100
AcDb2dVertex
 10
64.35879
 20
193.249014
 30
0.0
  0
SEQEND
  5
22A
100
AcDbEntity
  8
0
390
0
  0
POLYLINE
  5
22B
100
AcDbEntity
  8
1
390
0
  6
DOT
 62
     9
100
AcDb2dPolyline
 66
     1
 10
0.0
 20
0.0
 30
0.0
 40
1.0
 41
1.0
  0
VERTEX
  5
22C
100
AcDbEntity
  8
1
390
0
 62
     9
100
AcDbVertex
100
AcDb2dVertex
 10
64.35879
 20
187.051831
 30
0.0
  0
VERTEX
  5
22D
100
AcDbEntity
  8
1
390
0
 62
     9
100
AcDbVertex
100
AcDb2dVertex
 10
64.365811
 20
187.161836
 30
0.0
  0
VERTEX
  5
22E
100
AcDbEntity
  8
1
390
0
 62
     9
100
AcDbVertex
100
AcDb2dVertex
 10
64.386988
 20
187.265924
 30
0.0
  0
VERTEX
  5
22F
100
AcDbEntity
  8
1
390
0
 62
     9
100
AcDbVertex
100
AcDb2dVertex
 10
64.40879
 20
187.33119
 30
0.0
  0
SEQEND
  5
230
100
AcDbEntity
  8
0
390
0
  0
LINE
  5
231
100
AcDbEntity
  8
1
390
0
  6
DOT
 62
     9
100
AcDbLine
 10
63.95879
 20
193.550423
 30
0.0
 11
63.95879
 21
186.750423
 31
0.0
  0
LINE
  5
232
100
AcDbEntity
  8
1
390
0
  6
Continuous
 62
     7
100
AcDbLine
 10
71.85879
 20
191.450423
 30
0.0
 11
71.85879
 21
188.850423
 31
0.0
  0
POLYLINE
  5
233
100
AcDbEntity
  8
1
390
0
  6
DOT
 62
     9
100
AcDb2dPolyline
 66
     1
 10
0.0
 20
0.0
 30
0.0
 40
1.0
 41
1.0
  0
VERTEX
  5
234
100
AcDbEntity
  8
1
390
0
 62
     9
100
AcDbVertex
100
AcDb2dVertex
 10
69.90879
 20
187.33119
 30
0.0
  0
VERTEX
  5
235
100
AcDbEntity
  8
1
390
0
 62
     9
100
AcDbVertex
100
AcDb2dVertex
 10
69.904343
 20
187.331255
 30
0.0
  0
VERTEX
  5
236
100
AcDbEntity
  8
1
390
0
 62
     9
100
AcDbVertex
100
AcDb2dVertex
 10
69.8999
 20
187.331445
 30
0.0
  0
VERTEX
  5
237
100
AcDbEntity
  8
1
390
0
 62
     9
100
AcDbVertex
100
AcDb2dVertex
 10
69.89547
 20
187.33176
 30
0.0
  0
VERTEX
  5
238
100
AcDbEntity
  8
1
390
0
 62
     9
100
AcDbVertex
100
AcDb2dVertex
 10
69.891065
 20
187.332195
 30
0.0
  0
VERTEX
  5
239
100
AcDbEntity
  8
1
390
0
 62
     9
100
AcDbVertex
100
AcDb2dVertex
 10
69.886698
 20
187.332749
 30
0.0
  0
VERTEX
  5
23A
100
AcDbEntity
  8
1
390
0
 62
     9
100
AcDbVertex
100
AcDb2dVertex
 10
69.881058
 20
187.333642
 30
0.0
  0
VERTEX
  5
23B
100
AcDbEntity
  8
1
390
0
 62
     9
100
AcDbVertex
100
AcDb2dVertex
 10
69.875487
 20
187.33472
 30
0.0
  0
VERTEX
  5
23C
100
AcDbEntity
  8
1
390
0
 62
     9
100
AcDbVertex
100
AcDb2dVertex
 10
69.869998
 20
187.335967
 30
0.0
  0
VERTEX
  5
23D
100
AcDbEntity
  8
1
390
0
 62
     9
100
AcDbVertex
100
AcDb2dVertex
 10
69.864606
 20
187.337371
 30
0.0
  0
VERTEX
  5
23E
100
AcDbEntity
  8
1
390
0
 62
     9
100
AcDbVertex
100
AcDb2dVertex
 10
69.855518
 20
187.340127
 30
0.0
  0
VERTEX
  5
23F
100
AcDbEntity
  8
1
390
0
 62
     9
100
AcDbVertex
100
AcDb2dVertex
 10
69.846701
 20
187.343259
 30
0.0
  0
VERTEX
  5
240
100
AcDbEntity
  8
1
390
0
 62
     9
100
AcDbVertex
100
AcDb2dVertex
 10
69.838155
 20
187.346714
 30
0.0
  0
VERTEX
  5
241
100
AcDbEntity
  8
1
390
0
 62
     9
100
AcDbVertex
100
AcDb2dVertex
 10
69.829879
 20
187.350443
 30
0.0
  0
VERTEX
  5
242
100
AcDbEntity
  8
1
390
0
 62
     9
100
AcDbVertex
100
AcDb2dVertex
 10
69.821874
 20
187.354394
 30
0.0
  0
VERTEX
  5
243
100
AcDbEntity
  8
1
390
0
 62
     9
100
AcDbVertex
100
AcDb2dVertex
 10
69.814139
 20
187.358517
 30
0.0
  0
VERTEX
  5
244
100
AcDbEntity
  8
1
390
0
 62
     9
100
AcDbVertex
100
AcDb2dVertex
 10
69.793621
 20
187.370693
 30
0.0
  0
VERTEX
  5
245
100
AcDbEntity
  8
1
390
0
 62
     9
100
AcDbVertex
100
AcDb2dVertex
 10
69.774474
 20
187.383643
 30
0.0
  0
VERTEX
  5
246
100
AcDbEntity
  8
1
390
0
 62
     9
100
AcDbVertex
100
AcDb2dVertex
 10
69.756539
 20
187.397174
 30
0.0
  0
VERTEX
  5
247
100
AcDbEntity
  8
1
390
0
 62
     9
100
AcDbVertex
100
AcDb2dVertex
 10
69.739653
 20
187.411097
 30
0.0
  0
VERTEX
  5
248
100
AcDbEntity
  8
1
390
0
 62
     9
100
AcDbVertex
100
AcDb2dVertex
 10
69.723657
 20
187.425219
 30
0.0
  0
VERTEX
  5
249
100
AcDbEntity
  8
1
390
0
 62
     9
100
AcDbVertex
100
AcDb2dVertex
 10
69.708389
 20
187.439349
 30
0.0
  0
VERTEX
  5
24A
100
AcDbEntity
  8
1
390
0
 62
     9
100
AcDbVertex
100
AcDb2dVertex
 10
69.679427
 20
187.467662
 30
0.0
  0
VERTEX
  5
24B
100
AcDbEntity
  8
1
390
0
 62
     9
100
AcDbVertex
100
AcDb2dVertex
 10
69.652689
 20
187.495809
 30
0.0
  0
VERTEX
  5
24C
100
AcDbEntity
  8
1
390
0
 62
     9
100
AcDbVertex
100
AcDb2dVertex
 10
69.628065
 20
187.523575
 30
0.0
  0
VERTEX
  5
24D
100
AcDbEntity
  8
1
390
0
 62
     9
100
AcDbVertex
100
AcDb2dVertex
 10
69.605445
 20
187.550742
 30
0.0
  0
SEQEND
  5
24E
100
AcDbEntity
  8
0
390
0
  0
POLYLINE
  5
24F
100
AcDbEntity
  8
1
390
0
  6
DOT
 62
     9
100
AcDb2dPolyline
 66
     1
 10
0.0
 20
0.0
 30
0.0
 40
1.0
 41
1.0
  0
VERTEX
  5
250
100
AcDbEntity
  8
1
390
0
 62
     9
100
AcDbVertex
100
AcDb2dVertex
 10
64.40879
 20
192.969655
 30
0.0
  0
VERTEX
  5
251
100
AcDbEntity
  8
1
390
0
 62
     9
100
AcDbVertex
100
AcDb2dVertex
 10
64.413236
 20
192.969591
 30
0.0
  0
VERTEX
  5
252
100
AcDbEntity
  8
1
390
0
 62
     9
100
AcDbVertex
100
AcDb2dVertex
 10
64.41768
 20
192.9694
 30
0.0
  0
VERTEX
  5
253
100
AcDbEntity
  8
1
390
0
 62
     9
100
AcDbVertex
100
AcDb2dVertex
 10
64.42211
 20
192.969086
 30
0.0
  0
VERTEX
  5
254
100
AcDbEntity
  8
1
390
0
 62
     9
100
AcDbVertex
100
AcDb2dVertex
 10
64.426514
 20
192.96865
 30
0.0
  0
VERTEX
  5
255
100
AcDbEntity
  8
1
390
0
 62
     9
100
AcDbVertex
100
AcDb2dVertex
 10
64.430882
 20
192.968097
 30
0.0
  0
VERTEX
  5
256
100
AcDbEntity
  8
1
390
0
 62
     9
100
AcDbVertex
100
AcDb2dVertex
 10
64.436521
 20
192.967203
 30
0.0
  0
VERTEX
  5
257
100
AcDbEntity
  8
1
390
0
 62
     9
100
AcDbVertex
100
AcDb2dVertex
 10
64.442092
 20
192.966126
 30
0.0
  0
VERTEX
  5
258
100
AcDbEntity
  8
1
390
0
 62
     9
100
AcDbVertex
100
AcDb2dVertex
 10
64.447581
 20
192.964879
 30
0.0
  0
VERTEX
  5
259
100
AcDbEntity
  8
1
390
0
 62
     9
100
AcDbVertex
100
AcDb2dVertex
 10
64.452974
 20
192.963475
 30
0.0
  0
VERTEX
  5
25A
100
AcDbEntity
  8
1
390
0
 62
     9
100
AcDbVertex
100
AcDb2dVertex
 10
64.462061
 20
192.960718
 30
0.0
  0
VERTEX
  5
25B
100
AcDbEntity
  8
1
390
0
 62
     9
100
AcDbVertex
100
AcDb2dVertex
 10
64.470878
 20
192.957587
 30
0.0
  0
VERTEX
  5
25C
100
AcDbEntity
  8
1
390
0
 62
     9
100
AcDbVertex
100
AcDb2dVertex
 10
64.479425
 20
192.954132
 30
0.0
  0
VERTEX
  5
25D
100
AcDbEntity
  8
1
390
0
 62
     9
100
AcDbVertex
100
AcDb2dVertex
 10
64.487701
 20
192.950403
 30
0.0
  0
VERTEX
  5
25E
100
AcDbEntity
  8
1
390
0
 62
     9
100
AcDbVertex
100
AcDb2dVertex
 10
64.495706
 20
192.946451
 30
0.0
  0
VERTEX
  5
25F
100
AcDbEntity
  8
1
390
0
 62
     9
100
AcDbVertex
100
AcDb2dVertex
 10
64.503441
 20
192.942328
 30
0.0
  0
VERTEX
  5
260
100
AcDbEntity
  8
1
390
0
 62
     9
100
AcDbVertex
100
AcDb2dVertex
 10
64.523959
 20
192.930152
 30
0.0
  0
VERTEX
  5
261
100
AcDbEntity
  8
1
390
0
 62
     9
100
AcDbVertex
100
AcDb2dVertex
 10
64.543105
 20
192.917203
 30
0.0
  0
VERTEX
  5
262
100
AcDbEntity
  8
1
390
0
 62
     9
100
AcDbVertex
100
AcDb2dVertex
 10
64.561041
 20
192.903672
 30
0.0
  0
VERTEX
  5
263
100
AcDbEntity
  8
1
390
0
 62
     9
100
AcDbVertex
100
AcDb2dVertex
 10
64.577926
 20
192.889749
 30
0.0
  0
VERTEX
  5
264
100
AcDbEntity
  8
1
390
0
 62
     9
100
AcDbVertex
100
AcDb2dVertex
 10
64.593923
 20
192.875627
 30
0.0
  0
VERTEX
  5
265
100
AcDbEntity
  8
1
390
0
 62
     9
100
AcDbVertex
100
AcDb2dVertex
 10
64.609191
 20
192.861497
 30
0.0
  0
VERTEX
  5
266
100
AcDbEntity
  8
1
390
0
 62
     9
100
AcDbVertex
100
AcDb2dVertex
 10
64.638153
 20
192.833183
 30
0.0
  0
VERTEX
  5
267
100
AcDbEntity
  8
1
390
0
 62
     9
100
AcDbVertex
100
AcDb2dVertex
 10
64.664891
 20
192.805036
 30
0.0
  0
VERTEX
  5
268
100
AcDbEntity
  8
1
390
0
 62
     9
100
AcDbVertex
100
AcDb2dVertex
 10
64.689514
 20
192.777271
 30
0.0
  0
VERTEX
  5
269
100
AcDbEntity
  8
1
390
0
 62
     9
100
AcDbVertex
100
AcDb2dVertex
 10
64.712135
 20
192.750103
 30
0.0
  0
SEQEND
  5
26A
100
AcDbEntity
  8
0
390
0
  0
POLYLINE
  5
26B
100
AcDbEntity
  8
1
390
0
  6
DOT
 62
     9
100
AcDb2dPolyline
 66
     1
 10
0.0
 20
0.0
 30
0.0
 40
1.0
 41
1.0
  0
VERTEX
  5
26C
100
AcDbEntity
  8
1
390
0
 62
     9
100
AcDbVertex
100
AcDb2dVertex
 10
64.712135
 20
187.550742
 30
0.0
  0
VERTEX
  5
26D
100
AcDbEntity
  8
1
390
0
 62
     9
100
AcDbVertex
100
AcDb2dVertex
 10
64.691919
 20
187.526353
 30
0.0
  0
VERTEX
  5
26E
100
AcDbEntity
  8
1
390
0
 62
     9
100
AcDbVertex
100
AcDb2dVertex
 10
64.670105
 20
187.501445
 30
0.0
  0
VERTEX
  5
26F
100
AcDbEntity
  8
1
390
0
 62
     9
100
AcDbVertex
100
AcDb2dVertex
 10
64.646583
 20
187.476195
 30
0.0
  0
VERTEX
  5
270
100
AcDbEntity
  8
1
390
0
 62
     9
100
AcDbVertex
100
AcDb2dVertex
 10
64.621243
 20
187.450778
 30
0.0
  0
VERTEX
  5
271
100
AcDbEntity
  8
1
390
0
 62
     9
100
AcDbVertex
100
AcDb2dVertex
 10
64.593977
 20
187.425368
 30
0.0
  0
VERTEX
  5
272
100
AcDbEntity
  8
1
390
0
 62
     9
100
AcDbVertex
100
AcDb2dVertex
 10
64.576662
 20
187.410283
 30
0.0
  0
VERTEX
  5
273
100
AcDbEntity
  8
1
390
0
 62
     9
100
AcDbVertex
100
AcDb2dVertex
 10
64.558356
 20
187.395408
 30
0.0
  0
VERTEX
  5
274
100
AcDbEntity
  8
1
390
0
 62
     9
100
AcDbVertex
100
AcDb2dVertex
 10
64.538887
 20
187.380925
 30
0.0
  0
VERTEX
  5
275
100
AcDbEntity
  8
1
390
0
 62
     9
100
AcDbVertex
100
AcDb2dVertex
 10
64.52865
 20
187.37389
 30
0.0
  0
VERTEX
  5
276
100
AcDbEntity
  8
1
390
0
 62
     9
100
AcDbVertex
100
AcDb2dVertex
 10
64.518011
 20
187.367052
 30
0.0
  0
VERTEX
  5
277
100
AcDbEntity
  8
1
390
0
 62
     9
100
AcDbVertex
100
AcDb2dVertex
 10
64.50693
 20
187.360471
 30
0.0
  0
VERTEX
  5
278
100
AcDbEntity
  8
1
390
0
 62
     9
100
AcDbVertex
100
AcDb2dVertex
 10
64.498102
 20
187.355639
 30
0.0
  0
VERTEX
  5
279
100
AcDbEntity
  8
1
390
0
 62
     9
100
AcDbVertex
100
AcDb2dVertex
 10
64.488941
 20
187.351036
 30
0.0
  0
VERTEX
  5
27A
100
AcDbEntity
  8
1
390
0
 62
     9
100
AcDbVertex
100
AcDb2dVertex
 10
64.479437
 20
187.346727
 30
0.0
  0
VERTEX
  5
27B
100
AcDbEntity
  8
1
390
0
 62
     9
100
AcDbVertex
100
AcDb2dVertex
 10
64.469576
 20
187.342775
 30
0.0
  0
VERTEX
  5
27C
100
AcDbEntity
  8
1
390
0
 62
     9
100
AcDbVertex
100
AcDb2dVertex
 10
64.463505
 20
187.340615
 30
0.0
  0
VERTEX
  5
27D
100
AcDbEntity
  8
1
390
0
 62
     9
100
AcDbVertex
100
AcDb2dVertex
 10
64.457276
 20
187.338622
 30
0.0
  0
VERTEX
  5
27E
100
AcDbEntity
  8
1
390
0
 62
     9
100
AcDbVertex
100
AcDb2dVertex
 10
64.450905
 20
187.336819
 30
0.0
  0
VERTEX
  5
27F
100
AcDbEntity
  8
1
390
0
 62
     9
100
AcDbVertex
100
AcDb2dVertex
 10
64.444408
 20
187.335228
 30
0.0
  0
VERTEX
  5
280
100
AcDbEntity
  8
1
390
0
 62
     9
100
AcDbVertex
100
AcDb2dVertex
 10
64.4378
 20
187.333874
 30
0.0
  0
VERTEX
  5
281
100
AcDbEntity
  8
1
390
0
 62
     9
100
AcDbVertex
100
AcDb2dVertex
 10
64.431098
 20
187.332779
 30
0.0
  0
VERTEX
  5
282
100
AcDbEntity
  8
1
390
0
 62
     9
100
AcDbVertex
100
AcDb2dVertex
 10
64.426689
 20
187.332215
 30
0.0
  0
VERTEX
  5
283
100
AcDbEntity
  8
1
390
0
 62
     9
100
AcDbVertex
100
AcDb2dVertex
 10
64.422242
 20
187.331771
 30
0.0
  0
VERTEX
  5
284
100
AcDbEntity
  8
1
390
0
 62
     9
100
AcDbVertex
100
AcDb2dVertex
 10
64.417768
 20
187.331451
 30
0.0
  0
VERTEX
  5
285
100
AcDbEntity
  8
1
390
0
 62
     9
100
AcDbVertex
100
AcDb2dVertex
 10
64.41328
 20
187.331256
 30
0.0
  0
VERTEX
  5
286
100
AcDbEntity
  8
1
390
0
 62
     9
100
AcDbVertex
100
AcDb2dVertex
 10
64.40879
 20
187.33119
 30
0.0
  0
SEQEND
  5
287
100
AcDbEntity
  8
0
390
0
  0
POLYLINE
  5
288
100
AcDbEntity
  8
1
390
0
  6
DOT
 62
     9
100
AcDb2dPolyline
 66
     1
 10
0.0
 20
0.0
 30
0.0
 40
1.0
 41
1.0
  0
VERTEX
  5
289
100
AcDbEntity
  8
1
390
0
 62
     9
100
AcDbVertex
100
AcDb2dVertex
 10
69.605445
 20
192.750103
 30
0.0
  0
VERTEX
  5
28A
100
AcDbEntity
  8
1
390
0
 62
     9
100
AcDbVertex
100
AcDb2dVertex
 10
69.625661
 20
192.774493
 30
0.0
  0
VERTEX
  5
28B
100
AcDbEntity
  8
1
390
0
 62
     9
100
AcDbVertex
100
AcDb2dVertex
 10
69.647475
 20
192.799401
 30
0.0
  0
VERTEX
  5
28C
100
AcDbEntity
  8
1
390
0
 62
     9
100
AcDbVertex
100
AcDb2dVertex
 10
69.670997
 20
192.824651
 30
0.0
  0
VERTEX
  5
28D
100
AcDbEntity
  8
1
390
0
 62
     9
100
AcDbVertex
100
AcDb2dVertex
 10
69.696336
 20
192.850068
 30
0.0
  0
VERTEX
  5
28E
100
AcDbEntity
  8
1
390
0
 62
     9
100
AcDbVertex
100
AcDb2dVertex
 10
69.723603
 20
192.875477
 30
0.0
  0
VERTEX
  5
28F
100
AcDbEntity
  8
1
390
0
 62
     9
100
AcDbVertex
100
AcDb2dVertex
 10
69.740917
 20
192.890563
 30
0.0
  0
VERTEX
  5
290
100
AcDbEntity
  8
1
390
0
 62
     9
100
AcDbVertex
100
AcDb2dVertex
 10
69.759223
 20
192.905437
 30
0.0
  0
VERTEX
  5
291
100
AcDbEntity
  8
1
390
0
 62
     9
100
AcDbVertex
100
AcDb2dVertex
 10
69.778693
 20
192.919921
 30
0.0
  0
VERTEX
  5
292
100
AcDbEntity
  8
1
390
0
 62
     9
100
AcDbVertex
100
AcDb2dVertex
 10
69.78893
 20
192.926955
 30
0.0
  0
VERTEX
  5
293
100
AcDbEntity
  8
1
390
0
 62
     9
100
AcDbVertex
100
AcDb2dVertex
 10
69.799569
 20
192.933794
 30
0.0
  0
VERTEX
  5
294
100
AcDbEntity
  8
1
390
0
 62
     9
100
AcDbVertex
100
AcDb2dVertex
 10
69.810649
 20
192.940374
 30
0.0
  0
VERTEX
  5
295
100
AcDbEntity
  8
1
390
0
 62
     9
100
AcDbVertex
100
AcDb2dVertex
 10
69.819478
 20
192.945207
 30
0.0
  0
VERTEX
  5
296
100
AcDbEntity
  8
1
390
0
 62
     9
100
AcDbVertex
100
AcDb2dVertex
 10
69.828638
 20
192.94981
 30
0.0
  0
VERTEX
  5
297
100
AcDbEntity
  8
1
390
0
 62
     9
100
AcDbVertex
100
AcDb2dVertex
 10
69.838143
 20
192.954119
 30
0.0
  0
VERTEX
  5
298
100
AcDbEntity
  8
1
390
0
 62
     9
100
AcDbVertex
100
AcDb2dVertex
 10
69.848004
 20
192.95807
 30
0.0
  0
VERTEX
  5
299
100
AcDbEntity
  8
1
390
0
 62
     9
100
AcDbVertex
100
AcDb2dVertex
 10
69.854075
 20
192.96023
 30
0.0
  0
VERTEX
  5
29A
100
AcDbEntity
  8
1
390
0
 62
     9
100
AcDbVertex
100
AcDb2dVertex
 10
69.860304
 20
192.962224
 30
0.0
  0
VERTEX
  5
29B
100
AcDbEntity
  8
1
390
0
 62
     9
100
AcDbVertex
100
AcDb2dVertex
 10
69.866675
 20
192.964027
 30
0.0
  0
VERTEX
  5
29C
100
AcDbEntity
  8
1
390
0
 62
     9
100
AcDbVertex
100
AcDb2dVertex
 10
69.873172
 20
192.965617
 30
0.0
  0
VERTEX
  5
29D
100
AcDbEntity
  8
1
390
0
 62
     9
100
AcDbVertex
100
AcDb2dVertex
 10
69.879779
 20
192.966971
 30
0.0
  0
VERTEX
  5
29E
100
AcDbEntity
  8
1
390
0
 62
     9
100
AcDbVertex
100
AcDb2dVertex
 10
69.886481
 20
192.968067
 30
0.0
  0
VERTEX
  5
29F
100
AcDbEntity
  8
1
390
0
 62
     9
100
AcDbVertex
100
AcDb2dVertex
 10
69.890891
 20
192.968631
 30
0.0
  0
VERTEX
  5
2A0
100
AcDbEntity
  8
1
390
0
 62
     9
100
AcDbVertex
100
AcDb2dVertex
 10
69.895338
 20
192.969074
 30
0.0
  0
VERTEX
  5
2A1
100
AcDbEntity
  8
1
390
0
 62
     9
100
AcDbVertex
100
AcDb2dVertex
 10
69.899812
 20
192.969395
 30
0.0
  0
VERTEX
  5
2A2
100
AcDbEntity
  8
1
390
0
 62
     9
100
AcDbVertex
100
AcDb2dVertex
 10
69.904299
 20
192.96959
 30
0.0
  0
VERTEX
  5
2A3
100
AcDbEntity
  8
1
390
0
 62
     9
100
AcDbVertex
100
AcDb2dVertex
 10
69.90879
 20
192.969655
 30
0.0
  0
SEQEND
  5
2A4
100
AcDbEntity
  8
0
390
0
  0
LINE
  5
2A5
100
AcDbEntity
  8
1
390
0
  6
DOT
 62
     9
100
AcDbLine
 10
69.90879
 20
192.969655
 30
0.0
 11
70.80879
 21
192.969655
 31
0.0
  0
LINE
  5
2A6
100
AcDbEntity
  8
1
390
0
  6
DOT
 62
     9
100
AcDbLine
 10
70.80879
 20
187.33119
 30
0.0
 11
69.90879
 21
187.33119
 31
0.0
  0
POLYLINE
  5
2A7
100
AcDbEntity
  8
1
390
0
  6
DOT
 62
     9
100
AcDb2dPolyline
 66
     1
 10
0.0
 20
0.0
 30
0.0
 40
1.0
 41
1.0
  0
VERTEX
  5
2A8
100
AcDbEntity
  8
1
390
0
 62
     9
100
AcDbVertex
100
AcDb2dVertex
 10
69.564363
 20
191.740027
 30
0.0
  0
VERTEX
  5
2A9
100
AcDbEntity
  8
1
390
0
 62
     9
100
AcDbVertex
100
AcDb2dVertex
 10
69.614803
 20
191.867781
 30
0.0
  0
VERTEX
  5
2AA
100
AcDbEntity
  8
1
390
0
 62
     9
100
AcDbVertex
100
AcDb2dVertex
 10
69.653354
 20
191.971885
 30
0.0
  0
VERTEX
  5
2AB
100
AcDbEntity
  8
1
390
0
 62
     9
100
AcDbVertex
100
AcDb2dVertex
 10
69.683693
 20
192.086951
 30
0.0
  0
VERTEX
  5
2AC
100
AcDbEntity
  8
1
390
0
 62
     9
100
AcDbVertex
100
AcDb2dVertex
 10
69.696866
 20
192.210322
 30
0.0
 42
0.063555
  0
VERTEX
  5
2AD
100
AcDbEntity
  8
1
390
0
 62
     9
100
AcDbVertex
100
AcDb2dVertex
 10
69.605445
 20
192.750103
 30
0.0
  0
SEQEND
  5
2AE
100
AcDbEntity
  8
0
390
0
  0
POLYLINE
  5
2AF
100
AcDbEntity
  8
1
390
0
  6
DOT
 62
     9
100
AcDb2dPolyline
 66
     1
 10
0.0
 20
0.0
 30
0.0
 40
1.0
 41
1.0
  0
VERTEX
  5
2B0
100
AcDbEntity
  8
1
390
0
 62
     9
100
AcDbVertex
100
AcDb2dVertex
 10
69.605445
 20
192.750103
 30
0.0
 42
0.115037
  0
VERTEX
  5
2B1
100
AcDbEntity
  8
1
390
0
 62
     9
100
AcDbVertex
100
AcDb2dVertex
 10
67.856967
 20
192.544582
 30
0.0
  0
VERTEX
  5
2B2
100
AcDbEntity
  8
1
390
0
 62
     9
100
AcDbVertex
100
AcDb2dVertex
 10
67.780692
 20
192.500874
 30
0.0
  0
SEQEND
  5
2B3
100
AcDbEntity
  8
0
390
0
  0
POLYLINE
  5
2B4
100
AcDbEntity
  8
1
390
0
  6
DOT
 62
     9
100
AcDb2dPolyline
 66
     1
 10
0.0
 20
0.0
 30
0.0
 40
1.0
 41
1.0
  0
VERTEX
  5
2B5
100
AcDbEntity
  8
1
390
0
 62
     9
100
AcDbVertex
100
AcDb2dVertex
 10
64.753216
 20
188.560818
 30
0.0
  0
VERTEX
  5
2B6
100
AcDbEntity
  8
1
390
0
 62
     9
100
AcDbVertex
100
AcDb2dVertex
 10
64.702776
 20
188.433065
 30
0.0
  0
VERTEX
  5
2B7
100
AcDbEntity
  8
1
390
0
 62
     9
100
AcDbVertex
100
AcDb2dVertex
 10
64.664225
 20
188.32896
 30
0.0
  0
VERTEX
  5
2B8
100
AcDbEntity
  8
1
390
0
 62
     9
100
AcDbVertex
100
AcDb2dVertex
 10
64.633887
 20
188.213895
 30
0.0
  0
VERTEX
  5
2B9
100
AcDbEntity
  8
1
390
0
 62
     9
100
AcDbVertex
100
AcDb2dVertex
 10
64.620713
 20
188.090523
 30
0.0
 42
0.063555
  0
VERTEX
  5
2BA
100
AcDbEntity
  8
1
390
0
 62
     9
100
AcDbVertex
100
AcDb2dVertex
 10
64.712135
 20
187.550742
 30
0.0
  0
SEQEND
  5
2BB
100
AcDbEntity
  8
0
390
0
  0
POLYLINE
  5
2BC
100
AcDbEntity
  8
1
390
0
  6
DOT
 62
     9
100
AcDb2dPolyline
 66
     1
 10
0.0
 20
0.0
 30
0.0
 40
1.0
 41
1.0
  0
VERTEX
  5
2BD
100
AcDbEntity
  8
1
390
0
 62
     9
100
AcDbVertex
100
AcDb2dVertex
 10
64.712135
 20
187.550742
 30
0.0
 42
0.115037
  0
VERTEX
  5
2BE
100
AcDbEntity
  8
1
390
0
 62
     9
100
AcDbVertex
100
AcDb2dVertex
 10
66.460612
 20
187.756264
 30
0.0
  0
VERTEX
  5
2BF
100
AcDbEntity
  8
1
390
0
 62
     9
100
AcDbVertex
100
AcDb2dVertex
 10
66.536887
 20
187.799972
 30
0.0
  0
SEQEND
  5
2C0
100
AcDbEntity
  8
0
390
0
  0
POLYLINE
  5
2C1
100
AcDbEntity
  8
1
390
0
  6
DOT
 62
     9
100
AcDb2dPolyline
 66
     1
 10
0.0
 20
0.0
 30
0.0
 40
1.0
 41
1.0
  0
VERTEX
  5
2C2
100
AcDbEntity
  8
1
390
0
 62
     9
100
AcDbVertex
100
AcDb2dVertex
 10
64.712135
 20
192.750103
 30
0.0
 42
0.044859
  0
VERTEX
  5
2C3
100
AcDbEntity
  8
1
390
0
 62
     9
100
AcDbVertex
100
AcDb2dVertex
 10
64.621466
 20
192.270904
 30
0.0
  0
VERTEX
  5
2C4
100
AcDbEntity
  8
1
390
0
 62
     9
100
AcDbVertex
100
AcDb2dVertex
 10
64.622899
 20
192.167737
 30
0.0
  0
VERTEX
  5
2C5
100
AcDbEntity
  8
1
390
0
 62
     9
100
AcDbVertex
100
AcDb2dVertex
 10
64.639656
 20
192.058474
 30
0.0
  0
VERTEX
  5
2C6
100
AcDbEntity
  8
1
390
0
 62
     9
100
AcDbVertex
100
AcDb2dVertex
 10
64.675969
 20
191.937887
 30
0.0
  0
VERTEX
  5
2C7
100
AcDbEntity
  8
1
390
0
 62
     9
100
AcDbVertex
100
AcDb2dVertex
 10
64.715504
 20
191.836293
 30
0.0
  0
VERTEX
  5
2C8
100
AcDbEntity
  8
1
390
0
 62
     9
100
AcDbVertex
100
AcDb2dVertex
 10
64.753216
 20
191.740027
 30
0.0
  0
SEQEND
  5
2C9
100
AcDbEntity
  8
0
390
0
  0
POLYLINE
  5
2CA
100
AcDbEntity
  8
1
390
0
  6
DOT
 62
     9
100
AcDb2dPolyline
 66
     1
 10
0.0
 20
0.0
 30
0.0
 40
1.0
 41
1.0
  0
VERTEX
  5
2CB
100
AcDbEntity
  8
1
390
0
 62
     9
100
AcDbVertex
100
AcDb2dVertex
 10
66.536887
 20
192.500874
 30
0.0
  0
VERTEX
  5
2CC
100
AcDbEntity
  8
1
390
0
 62
     9
100
AcDbVertex
100
AcDb2dVertex
 10
66.443268
 20
192.552435
 30
0.0
 42
0.115366
  0
VERTEX
  5
2CD
100
AcDbEntity
  8
1
390
0
 62
     9
100
AcDbVertex
100
AcDb2dVertex
 10
64.712135
 20
192.750103
 30
0.0
  0
SEQEND
  5
2CE
100
AcDbEntity
  8
0
390
0
  0
POLYLINE
  5
2CF
100
AcDbEntity
  8
1
390
0
  6
DOT
 62
     9
100
AcDb2dPolyline
 66
     1
 10
0.0
 20
0.0
 30
0.0
 40
1.0
 41
1.0
  0
VERTEX
  5
2D0
100
AcDbEntity
  8
1
390
0
 62
     9
100
AcDbVertex
100
AcDb2dVertex
 10
69.605445
 20
187.550742
 30
0.0
 42
0.044859
  0
VERTEX
  5
2D1
100
AcDbEntity
  8
1
390
0
 62
     9
100
AcDbVertex
100
AcDb2dVertex
 10
69.696113
 20
188.029941
 30
0.0
  0
VERTEX
  5
2D2
100
AcDbEntity
  8
1
390
0
 62
     9
100
AcDbVertex
100
AcDb2dVertex
 10
69.694681
 20
188.133109
 30
0.0
  0
VERTEX
  5
2D3
100
AcDbEntity
  8
1
390
0
 62
     9
100
AcDbVertex
100
AcDb2dVertex
 10
69.677924
 20
188.242372
 30
0.0
  0
VERTEX
  5
2D4
100
AcDbEntity
  8
1
390
0
 62
     9
100
AcDbVertex
100
AcDb2dVertex
 10
69.641611
 20
188.362958
 30
0.0
  0
VERTEX
  5
2D5
100
AcDbEntity
  8
1
390
0
 62
     9
100
AcDbVertex
100
AcDb2dVertex
 10
69.602076
 20
188.464552
 30
0.0
  0
VERTEX
  5
2D6
100
AcDbEntity
  8
1
390
0
 62
     9
100
AcDbVertex
100
AcDb2dVertex
 10
69.564363
 20
188.560818
 30
0.0
  0
SEQEND
  5
2D7
100
AcDbEntity
  8
0
390
0
  0
POLYLINE
  5
2D8
100
AcDbEntity
  8
1
390
0
  6
DOT
 62
     9
100
AcDb2dPolyline
 66
     1
 10
0.0
 20
0.0
 30
0.0
 40
1.0
 41
1.0
  0
VERTEX
  5
2D9
100
AcDbEntity
  8
1
390
0
 62
     9
100
AcDbVertex
100
AcDb2dVertex
 10
67.780692
 20
187.799972
 30
0.0
  0
VERTEX
  5
2DA
100
AcDbEntity
  8
1
390
0
 62
     9
100
AcDbVertex
100
AcDb2dVertex
 10
67.874312
 20
187.748411
 30
0.0
 42
0.115366
  0
VERTEX
  5
2DB
100
AcDbEntity
  8
1
390
0
 62
     9
100
AcDbVertex
100
AcDb2dVertex
 10
69.605445
 20
187.550742
 30
0.0
  0
SEQEND
  5
2DC
100
AcDbEntity
  8
0
390
0
  0
ARC
  5
2DD
100
AcDbEntity
  8
1
390
0
  6
DOT
 62
     9
100
AcDbCircle
 10
67.15879
 20
190.150423
 30
0.0
 40
2.25
210
0.0
220
0.0
230
1.0
100
AcDbArc
 50
360.0
 51
180.0
  0
ARC
  5
2DE
100
AcDbEntity
  8
1
390
0
  6
DOT
 62
     9
100
AcDbCircle
 10
67.15879
 20
190.150423
 30
0.0
 40
2.25
210
0.0
220
0.0
230
1.0
100
AcDbArc
 50
180.0
 51
360.0
  0
ARC
  5
2DF
100
AcDbEntity
  8
1
390
0
  6
DOT
 62
     9
100
AcDbCircle
 10
66.838543
 20
192.436384
 30
0.0
 40
4.731169
210
0.0
220
0.0
230
1.0
100
AcDbArc
 50
281.486483
 51
300.676356
  0
ARC
  5
2E0
100
AcDbEntity
  8
1
390
0
  6
DOT
 62
     9
100
AcDbCircle
 10
67.479037
 20
187.864462
 30
0.0
 40
4.731169
210
0.0
220
0.0
230
1.0
100
AcDbArc
 50
101.486483
 51
120.676356
  0
ARC
  5
2E1
100
AcDbEntity
  8
1
390
0
  6
DOT
 62
     9
100
AcDbCircle
 10
67.474677
 20
192.425073
 30
0.0
 40
4.719217
210
0.0
220
0.0
230
1.0
100
AcDbArc
 50
239.299114
 51
258.538047
  0
ARC
  5
2E2
100
AcDbEntity
  8
1
390
0
  6
DOT
 62
     9
100
AcDbCircle
 10
66.842903
 20
187.875772
 30
0.0
 40
4.719217
210
0.0
220
0.0
230
0.9999999999999999
100
AcDbArc
 50
59.299114
 51
78.538047
  0
POLYLINE
  5
2E3
100
AcDbEntity
  8
1
390
0
  6
DOT
 62
     9
100
AcDb2dPolyline
 66
     1
 10
0.0
 20
0.0
 30
0.0
 40
1.0
 41
1.0
  0
VERTEX
  5
2E4
100
AcDbEntity
  8
1
390
0
 62
     9
100
AcDbVertex
100
AcDb2dVertex
 10
69.696209
 20
191.210613
 30
0.0
  0
VERTEX
  5
2E5
100
AcDbEntity
  8
1
390
0
 62
     9
100
AcDbVertex
100
AcDb2dVertex
 10
69.727223
 20
191.122241
 30
0.0
  0
VERTEX
  5
2E6
100
AcDbEntity
  8
1
390
0
 62
     9
100
AcDbVertex
100
AcDb2dVertex
 10
69.744233
 20
191.078524
 30
0.0
  0
VERTEX
  5
2E7
100
AcDbEntity
  8
1
390
0
 62
     9
100
AcDbVertex
100
AcDb2dVertex
 10
69.762538
 20
191.035292
 30
0.0
  0
SEQEND
  5
2E8
100
AcDbEntity
  8
0
390
0
  0
POLYLINE
  5
2E9
100
AcDbEntity
  8
1
390
0
  6
DOT
 62
     9
100
AcDb2dPolyline
 66
     1
 10
0.0
 20
0.0
 30
0.0
 40
1.0
 41
1.0
  0
VERTEX
  5
2EA
100
AcDbEntity
  8
1
390
0
 62
     9
100
AcDbVertex
100
AcDb2dVertex
 10
64.62137
 20
189.090233
 30
0.0
  0
VERTEX
  5
2EB
100
AcDbEntity
  8
1
390
0
 62
     9
100
AcDbVertex
100
AcDb2dVertex
 10
64.590356
 20
189.178604
 30
0.0
  0
VERTEX
  5
2EC
100
AcDbEntity
  8
1
390
0
 62
     9
100
AcDbVertex
100
AcDb2dVertex
 10
64.573347
 20
189.222322
 30
0.0
  0
VERTEX
  5
2ED
100
AcDbEntity
  8
1
390
0
 62
     9
100
AcDbVertex
100
AcDb2dVertex
 10
64.555041
 20
189.265554
 30
0.0
  0
SEQEND
  5
2EE
100
AcDbEntity
  8
0
390
0
  0
LINE
  5
2EF
100
AcDbEntity
  8
1
390
0
  6
DOT
 62
     9
100
AcDbLine
 10
64.555041
 20
191.035292
 30
0.0
 11
64.62137
 21
191.210613
 31
0.0
  0
LINE
  5
2F0
100
AcDbEntity
  8
1
390
0
  6
DOT
 62
     9
100
AcDbLine
 10
69.762538
 20
189.265554
 30
0.0
 11
69.696209
 21
189.090233
 31
0.0
  0
ARC
  5
2F1
100
AcDbEntity
  8
1
390
0
  6
DOT
 62
     9
100
AcDbCircle
 10
67.15879
 20
201.027797
 30
0.0
 40
8.549571
210
0.0
220
0.0
230
1.0
100
AcDbArc
 50
265.828577
 51
274.171423
  0
ARC
  5
2F2
100
AcDbEntity
  8
1
390
0
  6
DOT
 62
     9
100
AcDbCircle
 10
67.15879
 20
179.273049
 30
0.0
 40
8.549571
210
0.0
220
0.0
230
1.0
100
AcDbArc
 50
85.828577
 51
94.171423
  0
LINE
  5
2F3
100
AcDbEntity
  8
1
390
0
  6
DOT
 62
     9
100
AcDbLine
 10
69.90879
 20
189.441551
 30
0.0
 11
70.80879
 21
189.441551
 31
0.0
  0
LINE
  5
2F4
100
AcDbEntity
  8
1
390
0
  6
DOT
 62
     9
100
AcDbLine
 10
70.80879
 20
190.859295
 30
0.0
 11
69.90879
 21
190.859295
 31
0.0
  0
POLYLINE
  5
2F5
100
AcDbEntity
  8
1
390
0
  6
DOT
 62
     9
100
AcDb2dPolyline
 66
     1
 10
0.0
 20
0.0
 30
0.0
 40
1.0
 41
1.0
  0
VERTEX
  5
2F6
100
AcDbEntity
  8
1
390
0
 62
     9
100
AcDbVertex
100
AcDb2dVertex
 10
69.90879
 20
190.859295
 30
0.0
  0
VERTEX
  5
2F7
100
AcDbEntity
  8
1
390
0
 62
     9
100
AcDbVertex
100
AcDb2dVertex
 10
69.824923
 20
190.920043
 30
0.0
  0
VERTEX
  5
2F8
100
AcDbEntity
  8
1
390
0
 62
     9
100
AcDbVertex
100
AcDb2dVertex
 10
69.775003
 20
191.00804
 30
0.0
  0
VERTEX
  5
2F9
100
AcDbEntity
  8
1
390
0
 62
     9
100
AcDbVertex
100
AcDb2dVertex
 10
69.762538
 20
191.035292
 30
0.0
  0
SEQEND
  5
2FA
100
AcDbEntity
  8
0
390
0
  0
POLYLINE
  5
2FB
100
AcDbEntity
  8
1
390
0
  6
DOT
 62
     9
100
AcDb2dPolyline
 66
     1
 10
0.0
 20
0.0
 30
0.0
 40
1.0
 41
1.0
  0
VERTEX
  5
2FC
100
AcDbEntity
  8
1
390
0
 62
     9
100
AcDbVertex
100
AcDb2dVertex
 10
69.762538
 20
189.265554
 30
0.0
  0
VERTEX
  5
2FD
100
AcDbEntity
  8
1
390
0
 62
     9
100
AcDbVertex
100
AcDb2dVertex
 10
69.817268
 20
189.369633
 30
0.0
  0
VERTEX
  5
2FE
100
AcDbEntity
  8
1
390
0
 62
     9
100
AcDbVertex
100
AcDb2dVertex
 10
69.893018
 20
189.439338
 30
0.0
  0
VERTEX
  5
2FF
100
AcDbEntity
  8
1
390
0
 62
     9
100
AcDbVertex
100
AcDb2dVertex
 10
69.90879
 20
189.441551
 30
0.0
  0
SEQEND
  5
300
100
AcDbEntity
  8
0
390
0
  0
LINE
  5
301
100
AcDbEntity
  8
1
390
0
  6
DOT
 62
     9
100
AcDbLine
 10
65.065251
 20
188.367281
 30
0.0
 11
64.753216
 21
188.560818
 31
0.0
  0
ARC
  5
302
100
AcDbEntity
  8
1
390
0
  6
DOT
 62
     9
100
AcDbCircle
 10
60.833826
 20
187.865854
 30
0.0
 40
3.980527
210
0.0
220
0.0
230
1.0
100
AcDbArc
 50
10.054855
 51
17.914174
  0
LINE
  5
303
100
AcDbEntity
  8
1
390
0
  6
DOT
 62
     9
100
AcDbLine
 10
69.564363
 20
188.560818
 30
0.0
 11
69.252328
 21
188.367281
 31
0.0
  0
ARC
  5
304
100
AcDbEntity
  8
1
390
0
  6
DOT
 62
     9
100
AcDbCircle
 10
73.484694
 20
187.86562
 30
0.0
 40
3.981494
210
0.0
220
0.0
230
1.0
100
AcDbArc
 50
162.086781
 51
169.944189
  0
LINE
  5
305
100
AcDbEntity
  8
1
390
0
  6
DOT
 62
     9
100
AcDbLine
 10
69.252328
 20
191.933565
 30
0.0
 11
69.564363
 21
191.740027
 31
0.0
  0
ARC
  5
306
100
AcDbEntity
  8
1
390
0
  6
DOT
 62
     9
100
AcDbCircle
 10
73.483753
 20
192.434991
 30
0.0
 40
3.980527
210
0.0
220
0.0
230
1.0
100
AcDbArc
 50
190.054855
 51
197.914174
  0
LINE
  5
307
100
AcDbEntity
  8
1
390
0
  6
DOT
 62
     9
100
AcDbLine
 10
64.753216
 20
191.740027
 30
0.0
 11
65.065251
 21
191.933565
 31
0.0
  0
ARC
  5
308
100
AcDbEntity
  8
1
390
0
  6
DOT
 62
     9
100
AcDbCircle
 10
60.832886
 20
192.435226
 30
0.0
 40
3.981494
210
0.0
220
0.0
230
1.0
100
AcDbArc
 50
342.086781
 51
349.944189
  0
POLYLINE
  5
309
100
AcDbEntity
  8
1
390
0
  6
DOT
 62
     9
100
AcDb2dPolyline
 66
     1
 10
0.0
 20
0.0
 30
0.0
 40
1.0
 41
1.0
  0
VERTEX
  5
30A
100
AcDbEntity
  8
1
390
0
 62
     9
100
AcDbVertex
100
AcDb2dVertex
 10
64.40879
 20
189.441551
 30
0.0
  0
VERTEX
  5
30B
100
AcDbEntity
  8
1
390
0
 62
     9
100
AcDbVertex
100
AcDb2dVertex
 10
64.492656
 20
189.380803
 30
0.0
  0
VERTEX
  5
30C
100
AcDbEntity
  8
1
390
0
 62
     9
100
AcDbVertex
100
AcDb2dVertex
 10
64.542577
 20
189.292806
 30
0.0
  0
VERTEX
  5
30D
100
AcDbEntity
  8
1
390
0
 62
     9
100
AcDbVertex
100
AcDb2dVertex
 10
64.555041
 20
189.265554
 30
0.0
  0
SEQEND
  5
30E
100
AcDbEntity
  8
0
390
0
  0
POLYLINE
  5
30F
100
AcDbEntity
  8
1
390
0
  6
DOT
 62
     9
100
AcDb2dPolyline
 66
     1
 10
0.0
 20
0.0
 30
0.0
 40
1.0
 41
1.0
  0
VERTEX
  5
310
100
AcDbEntity
  8
1
390
0
 62
     9
100
AcDbVertex
100
AcDb2dVertex
 10
64.555041
 20
191.035292
 30
0.0
  0
VERTEX
  5
311
100
AcDbEntity
  8
1
390
0
 62
     9
100
AcDbVertex
100
AcDb2dVertex
 10
64.500312
 20
190.931212
 30
0.0
  0
VERTEX
  5
312
100
AcDbEntity
  8
1
390
0
 62
     9
100
AcDbVertex
100
AcDb2dVertex
 10
64.424561
 20
190.861508
 30
0.0
  0
VERTEX
  5
313
100
AcDbEntity
  8
1
390
0
 62
     9
100
AcDbVertex
100
AcDb2dVertex
 10
64.40879
 20
190.859295
 30
0.0
  0
SEQEND
  5
314
100
AcDbEntity
  8
0
390
0
  0
CIRCLE
  5
315
100
AcDbEntity
  8
1
390
0
  6
DOT
 62
     9
100
AcDbCircle
 10
67.15879
 20
190.150423
 30
0.0
 40
1.7
210
0.0
220
0.0
230
1.0
  0
CIRCLE
  5
316
100
AcDbEntity
  8
1
390
0
  6
DOT
 62
     9
100
AcDbCircle
 10
67.15879
 20
190.150423
 30
0.0
 40
0.55
210
0.0
220
0.0
230
1.0
  0
CIRCLE
  5
317
100
AcDbEntity
  8
1
390
0
  6
DOT
 62
     9
100
AcDbCircle
 10
67.15879
 20
190.150423
 30
0.0
 40
3.475
210
0.0
220
0.0
230
1.0
  0
LINE
  5
318
100
AcDbEntity
  8
1
390
0
  6
Continuous
 62
     7
100
AcDbLine
 10
70.85879
 20
185.150423
 30
0.0
 11
71.35879
 21
185.650423
 31
0.0
  0
LINE
  5
319
100
AcDbEntity
  8
1
390
0
  6
Continuous
 62
     7
100
AcDbLine
 10
71.35879
 20
194.650423
 30
0.0
 11
70.85879
 21
195.150423
 31
0.0
  0
LINE
  5
31A
100
AcDbEntity
  8
1
390
0
  6
Continuous
 62
     7
100
AcDbLine
 10
70.85879
 20
195.150423
 30
0.0
 11
64.35879
 21
195.150423
 31
0.0
  0
LINE
  5
31B
100
AcDbEntity
  8
1
390
0
  6
Continuous
 62
     7
100
AcDbLine
 10
64.35879
 20
185.150423
 30
0.0
 11
70.85879
 21
185.150423
 31
0.0
  0
LINE
  5
31C
100
AcDbEntity
  8
1
390
0
  6
Continuous
 62
     7
100
AcDbLine
 10
64.35879
 20
195.150423
 30
0.0
 11
63.85879
 21
194.650423
 31
0.0
  0
LINE
  5
31D
100
AcDbEntity
  8
1
390
0
  6
Continuous
 62
     7
100
AcDbLine
 10
63.85879
 20
185.650423
 30
0.0
 11
64.35879
 21
185.150423
 31
0.0
  0
ARC
  5
31E
100
AcDbEntity
  8
1
390
0
  6
Continuous
 62
     7
100
AcDbCircle
 10
71.45879
 20
192.250423
 30
0.0
 40
0.1
210
0.0
220
0.0
230
1.0
100
AcDbArc
 50
180.0
 51
270.0
  0
ARC
  5
31F
100
AcDbEntity
  8
1
390
0
  6
Continuous
 62
     7
100
AcDbCircle
 10
71.45879
 20
188.050423
 30
0.0
 40
0.1
210
0.0
220
0.0
230
1.0
100
AcDbArc
 50
90.0
 51
180.0
  0
LINE
  5
320
100
AcDbEntity
  8
1
390
0
  6
Continuous
 62
     7
100
AcDbLine
 10
71.659616
 20
192.150423
 30
0.0
 11
71.45879
 21
192.150423
 31
0.0
  0
LINE
  5
321
100
AcDbEntity
  8
1
390
0
  6
Continuous
 62
     7
100
AcDbLine
 10
71.45879
 20
188.150423
 30
0.0
 11
71.659616
 21
188.150423
 31
0.0
  0
ARC
  5
322
100
AcDbEntity
  8
1
390
0
  6
Continuous
 62
     7
100
AcDbCircle
 10
71.659616
 20
192.050423
 30
0.0
 40
0.1
210
0.0
220
0.0
230
1.0
100
AcDbArc
 50
11.064807
 51
90.0
  0
ARC
  5
323
100
AcDbEntity
  8
1
390
0
  6
Continuous
 62
     7
100
AcDbCircle
 10
71.659616
 20
188.250423
 30
0.0
 40
0.1
210
0.0
220
0.0
230
1.0
100
AcDbArc
 50
270.0
 51
348.935193
  0
ARC
  5
324
100
AcDbEntity
  8
1
390
0
  6
Continuous
 62
     7
100
AcDbCircle
 10
61.94365
 20
190.150423
 30
0.0
 40
10.0
210
0.0
220
0.0
230
1.0
100
AcDbArc
 50
348.935193
 51
352.530408
  0
ARC
  5
325
100
AcDbEntity
  8
1
390
0
  6
Continuous
 62
     7
100
AcDbCircle
 10
61.94365
 20
190.150423
 30
0.0
 40
10.0
210
0.0
220
0.0
230
1.0
100
AcDbArc
 50
7.469592
 51
11.064807
  0
INSERT
  5
337
100
AcDbEntity
  8
1
390
0
100
AcDbBlockReference
  2
AID977
 10
0.0
 20
0.0
 30
0.0
  0
INSERT
  5
349
100
AcDbEntity
  8
1
390
0
100
AcDbBlockReference
  2
AID985
 10
0.0
 20
0.0
 30
0.0
  0
INSERT
  5
35B
100
AcDbEntity
  8
1
390
0
100
AcDbBlockReference
  2
AID993
 10
0.0
 20
0.0
 30
0.0
  0
INSERT
  5
36E
100
AcDbEntity
  8
1
390
0
100
AcDbBlockReference
  2
AID1001
 10
0.0
 20
0.0
 30
0.0
  0
POINT
  5
36F
100
AcDbEntity
  8
1
390
0
 62
     8
100
AcDbPoint
 10
150.940482
 20
190.150423
 30
0.0
  0
INSERT
  5
381
100
AcDbEntity
  8
1
390
0
100
AcDbBlockReference
  2
AID1012
 10
0.0
 20
0.0
 30
0.0
  0
INSERT
  5
394
100
AcDbEntity
  8
1
390
0
100
AcDbBlockReference
  2
AID1020
 10
0.0
 20
0.0
 30
0.0
  0
INSERT
  5
3A8
100
AcDbEntity
  8
1
390
0
100
AcDbBlockReference
  2
AID1029
 10
0.0
 20
0.0
 30
0.0
  0
INSERT
  5
3BD
100
AcDbEntity
  8
1
390
0
100
AcDbBlockReference
  2
AID1039
 10
0.0
 20
0.0
 30
0.0
  0
INSERT
  5
3D0
100
AcDbEntity
  8
1
390
0
100
AcDbBlockReference
  2
AID1050
 10
0.0
 20
0.0
 30
0.0
  0
INSERT
  5
3E3
100
AcDbEntity
  8
1
390
0
100
AcDbBlockReference
  2
AID1059
 10
0.0
 20
0.0
 30
0.0
  0
INSERT
  5
3F5
100
AcDbEntity
  8
1
390
0
100
AcDbBlockReference
  2
AID1068
 10
0.0
 20
0.0
 30
0.0
  0
INSERT
  5
3FA
100
AcDbEntity
  8
1
390
0
100
AcDbBlockReference
  2
AID1076
 10
0.0
 20
0.0
 30
0.0
  0
INSERT
  5
3FF
100
AcDbEntity
  8
1
390
0
100
AcDbBlockReference
  2
AID1080
 10
0.0
 20
0.0
 30
0.0
  0
INSERT
  5
404
100
AcDbEntity
  8
1
390
0
100
AcDbBlockReference
  2
AID1084
 10
0.0
 20
0.0
 30
0.0
  0
INSERT
  5
410
100
AcDbEntity
  8
1
390
0
100
AcDbBlockReference
  2
AID1088
 10
0.0
 20
0.0
 30
0.0
  0
LINE
  5
411
100
AcDbEntity
  8
1
390
0
  6
Continuous
 62
     7
100
AcDbLine
 10
227.626575
 20
193.650423
 30
0.0
 11
227.626575
 21
190.150423
 31
0.0
  0
LINE
  5
412
100
AcDbEntity
  8
1
390
0
  6
Continuous
 62
     7
100
AcDbLine
 10
227.626575
 20
190.150423
 30
0.0
 11
227.626575
 21
186.650423
 31
0.0
  0
LINE
  5
413
100
AcDbEntity
  8
1
390
0
  6
Continuous
 62
     7
100
AcDbLine
 10
227.626575
 20
115.885577
 30
0.0
 11
227.626575
 21
108.885577
 31
0.0
  0
ARC
  5
414
100
AcDbEntity
  8
1
390
0
  6
DOT
 62
     9
100
AcDbCircle
 10
67.15879
 20
190.150423
 30
0.0
 40
3.5
210
0.0
220
0.0
230
1.0
100
AcDbArc
 50
199.462951
 51
360.0
  0
ARC
  5
415
100
AcDbEntity
  8
1
390
0
  6
Continuous
 62
     7
100
AcDbCircle
 10
67.15879
 20
190.150423
 30
0.0
 40
3.5
210
0.0
220
0.0
230
1.0
100
AcDbArc
 50
160.537049
 51
199.462951
  0
ARC
  5
416
100
AcDbEntity
  8
1
390
0
  6
DOT
 62
     9
100
AcDbCircle
 10
67.15879
 20
190.150423
 30
0.0
 40
3.5
210
0.0
220
0.0
230
1.0
100
AcDbArc
 50
360.0
 51
160.537049
  0
ENDSEC
  0
SECTION
  2
OBJECTS
  0
DICTIONARY
  5
19
100
AcDbDictionary
280
     0
281
     1
  3
ACAD_GROUP
350
1A
  3
ACAD_MLINESTYLE
350
1B
  3
ACAD_LAYOUT
350
1E
  3
ACAD_PLOTSETTINGS
350
22
  3
ACAD_PLOTSTYLENAME
350
1F
  3
ACAD_WIPEOUT_VARS
350
23
  0
DICTIONARY
  5
1A
102
{ACAD_REACTORS
330
19
102
}
100
AcDbDictionary
280
     0
281
     1
  0
DICTIONARY
  5
1B
102
{ACAD_REACTORS
330
19
102
}
100
AcDbDictionary
280
     0
281
     1
  3
Standard
350
1C
  0
MLINESTYLE
  5
1C
102
{ACAD_REACTORS
330
1B
102
}
100
AcDbMlineStyle
  2
Standard
 70
     0
  3

 62
     0
 51
90.0
 52
90.0
 71
     2
 49
0.5
 62
   256
  6
ByLayer
 49
-0.5
 62
   256
  6
ByLayer
  0
ACDBDICTIONARYWDFLT
  5
1F
102
{ACAD_REACTORS
330
19
102
}
100
AcDbDictionary
281
     1
  3
Normal
350
1D
100
AcDbDictionaryWithDefault
340
1D
  0
ACDBPLACEHOLDER
  5
1D
102
{ACAD_REACTORS
330
1F
102
}
  0
LAYOUT
  5
20
102
{ACAD_REACTORS
330
1E
102
}
100
AcDbPlotSettings
  1

  2

  4

  6

 40
0.0
 41
0.0
 42
0.0
 43
0.0
 44
0.0
 45
0.0
 46
0.0
 47
0.0
 48
0.0
 49
0.0
140
0.0
141
0.0
142
1.0
143
1.0
 70
  1024
 72
     0
 73
     0
 74
     0
  7

 75
     0
147
1.0
148
0.0
149
0.0
100
AcDbLayout
  1
Model
 70
     0
 71
     0
 10
0.0
 20
0.0
 11
0.0
 21
0.0
 12
0.0
 22
0.0
 32
0.0
 14
0.0
 24
0.0
 34
0.0
 15
0.0
 25
0.0
 35
0.0
146
0.0
 13
0.0
 23
0.0
 33
0.0
 16
0.0
 26
0.0
 36
0.0
 17
0.0
 27
0.0
 37
0.0
 76
     0
330
A
331
0
345
0
346
0
  0
LAYOUT
  5
21
102
{ACAD_REACTORS
330
1E
102
}
100
AcDbPlotSettings
  1

  2

  4

  6

 40
0.0
 41
0.0
 42
0.0
 43
0.0
 44
0.0
 45
0.0
 46
0.0
 47
0.0
 48
0.0
 49
0.0
140
0.0
141
0.0
142
1.0
143
1.0
 70
     0
 72
     0
 73
     0
 74
     0
  7

 75
     0
147
1.0
148
0.0
149
0.0
100
AcDbLayout
  1
Layout1
 70
     0
 71
     0
 10
0.0
 20
0.0
 11
0.0
 21
0.0
 12
0.0
 22
0.0
 32
0.0
 14
0.0
 24
0.0
 34
0.0
 15
0.0
 25
0.0
 35
0.0
146
0.0
 13
0.0
 23
0.0
 33
0.0
 16
0.0
 26
0.0
 36
0.0
 17
0.0
 27
0.0
 37
0.0
 76
     0
330
B
331
0
345
0
346
0
  0
DICTIONARY
  5
1E
102
{ACAD_REACTORS
330
19
102
}
100
AcDbDictionary
280
     0
281
     1
  3
Layout1
350
21
  3
Model
350
20
  0
DICTIONARY
  5
22
102
{ACAD_REACTORS
330
19
102
}
100
AcDbDictionary
280
     0
281
     1
  0
WIPEOUTVARIABLES
  5
23
100
AcDbWipeoutVariables
 70
     1
  0
ENDSEC
  0
EOF
