  0
SECTION
  2
HEADER
  9
$ACADVER
  1
AC1015
  9
$ACADMAINTVER
 70
     6
  9
$DWGCODEPAGE
  3
DOS932
  9
$INSBASE
 10
0.0
 20
0.0
 30
0.0
  9
$EXTMIN
 10
0.0
 20
0.0
 30
0.0
  9
$EXTMAX
 10
821.0
 20
574.0
 30
10.0
  9
$LIMMIN
 10
0.0
 20
0.0
  9
$LIMMAX
 10
821.0
 20
574.0
  9
$ORTHOMODE
 70
     0
  9
$REGENMODE
 70
     1
  9
$FILLMODE
 70
     1
  9
$QTEXTMODE
 70
     0
  9
$MIRRTEXT
 70
     1
  9
$LTSCALE
 40
10.0
  9
$ATTMODE
 70
     1
  9
$TEXTSIZE
 40
0.2
  9
$TRACEWID
 40
0.05
  9
$TEXTSTYLE
  7
Standard
  9
$CLAYER
  8
0
  9
$CELTYPE
  6
Continuous
  9
$CECOLOR
 62
   256
  9
$CELTSCALE
 40
1.0
  9
$DISPSILH
 70
     0
  9
$DIMSCALE
 40
1.0
  9
$DIMASZ
 40
3.2
  9
$DIMEXO
 40
3.2
  9
$DIMDLI
 40
0.38
  9
$DIMRND
 40
0.0
  9
$DIMDLE
 40
0.0
  9
$DIMEXE
 40
2.4
  9
$DIMTP
 40
0.0
  9
$DIMTM
 40
0.0
  9
$DIMTXT
 40
8.0
  9
$DIMCEN
 40
0.09
  9
$DIMTSZ
 40
0.0
  9
$DIMTOL
 70
     0
  9
$DIMLIM
 70
     0
  9
$DIMTIH
 70
     0
  9
$DIMTOH
 70
     0
  9
$DIMSE1
 70
     0
  9
$DIMSE2
 70
     0
  9
$DIMTAD
 70
     1
  9
$DIMZIN
 70
     0
  9
$DIMBLK
  1

  9
$DIMASO
 70
     1
  9
$DIMSHO
 70
     1
  9
$DIMPOST
  1

  9
$DIMAPOST
  1

  9
$DIMALT
 70
     0
  9
$DIMALTD
 70
     2
  9
$DIMALTF
 40
25.4
  9
$DIMLFAC
 40
1.0
  9
$DIMTOFL
 70
     0
  9
$DIMTVP
 40
0.0
  9
$DIMTIX
 70
     0
  9
$DIMSOXD
 70
     0
  9
$DIMSAH
 70
     0
  9
$DIMBLK1
  1

  9
$DIMBLK2
  1

  9
$DIMSTYLE
  2
Standard
  9
$DIMCLRD
 70
     7
  9
$DIMCLRE
 70
     7
  9
$DIMCLRT
 70
     7
  9
$DIMTFAC
 40
0.6
  9
$DIMGAP
 40
4.0
  9
$DIMJUST
 70
     0
  9
$DIMSD1
 70
     0
  9
$DIMSD2
 70
     0
  9
$DIMTOLJ
 70
     1
  9
$DIMTZIN
 70
     0
  9
$DIMALTZ
 70
     0
  9
$DIMALTTZ
 70
     0
  9
$DIMUPT
 70
     0
  9
$DIMDEC
 70
     6
  9
$DIMTDEC
 70
     4
  9
$DIMALTU
 70
     2
  9
$DIMALTTD
 70
     2
  9
$DIMTXSTY
  7
Standard
  9
$DIMAUNIT
 70
     0
  9
$DIMADEC
 70
     0
  9
$DIMALTRND
 40
0.0
  9
$DIMAZIN
 70
     0
  9
$DIMDSEP
 70
     0
  9
$DIMATFIT
 70
     3
  9
$DIMFRAC
 70
     0
  9
$DIMLDRBLK
  1

  9
$DIMLUNIT
 70
     2
  9
$DIMLWD
 70
     0
  9
$DIMLWE
 70
     0
  9
$DIMTMOVE
 70
     0
  9
$LUNITS
 70
     2
  9
$LUPREC
 70
     4
  9
$SKETCHINC
 40
0.1
  9
$FILLETRAD
 40
0.0
  9
$AUNITS
 70
     0
  9
$AUPREC
 70
     0
  9
$MENU
  1
acad
  9
$ELEVATION
 40
0.0
  9
$PELEVATION
 40
0.0
  9
$THICKNESS
 40
0.0
  9
$LIMCHECK
 70
     0
  9
$CHAMFERA
 40
0.0
  9
$CHAMFERB
 40
0.0
  9
$CHAMFERC
 40
0.0
  9
$CHAMFERD
 40
0.0
  9
$SKPOLY
 70
     0
  9
$TDCREATE
 40
2458421.494351852
  9
$TDUCREATE
 40
0.000000000
  9
$TDUPDATE
 40
2458421.119282407
  9
$TDUUPDATE
 40
0.000000000
  9
$TDINDWG
 40
0.0000000000
  9
$TDUSRTIMER
 40
0.0000000000
  9
$USRTIMER
 70
     1
  9
$ANGBASE
 50
0.0
  9
$ANGDIR
 70
     0
  9
$PDMODE
 70
     0
  9
$PDSIZE
 40
0.0
  9
$PLINEWID
 40
0.0
  9
$SPLFRAME
 70
     0
  9
$SPLINETYPE
 70
     6
  9
$SPLINESEGS
 70
     8
  9
$HANDSEED
  5
386
  9
$SURFTAB1
 70
     6
  9
$SURFTAB2
 70
     6
  9
$SURFTYPE
 70
     6
  9
$SURFU
 70
     6
  9
$SURFV
 70
     6
  9
$UCSBASE
  2

  9
$UCSNAME
  2

  9
$UCSORG
 10
0.0
 20
0.0
 30
0.0
  9
$UCSXDIR
 10
1.0
 20
0.0
 30
0.0
  9
$UCSYDIR
 10
0.0
 20
1.0
 30
0.0
  9
$UCSORTHOREF
  2

  9
$UCSORTHOVIEW
 70
     0
  9
$UCSORGTOP
 10
0.0
 20
0.0
 30
0.0
  9
$UCSORGBOTTOM
 10
0.0
 20
0.0
 30
0.0
  9
$UCSORGLEFT
 10
0.0
 20
0.0
 30
0.0
  9
$UCSORGRIGHT
 10
0.0
 20
0.0
 30
0.0
  9
$UCSORGFRONT
 10
0.0
 20
0.0
 30
0.0
  9
$UCSORGBACK
 10
0.0
 20
0.0
 30
0.0
  9
$PUCSBASE
  2

  9
$PUCSNAME
  2

  9
$PUCSORG
 10
0.0
 20
0.0
 30
0.0
  9
$PUCSXDIR
 10
1.0
 20
0.0
 30
0.0
  9
$PUCSYDIR
 10
0.0
 20
1.0
 30
0.0
  9
$PUCSORTHOREF
  2

  9
$PUCSORTHOVIEW
 70
     0
  9
$PUCSORGTOP
 10
0.0
 20
0.0
 30
0.0
  9
$PUCSORGBOTTOM
 10
0.0
 20
0.0
 30
0.0
  9
$PUCSORGLEFT
 10
0.0
 20
0.0
 30
0.0
  9
$PUCSORGRIGHT
 10
0.0
 20
0.0
 30
0.0
  9
$PUCSORGFRONT
 10
0.0
 20
0.0
 30
0.0
  9
$PUCSORGBACK
 10
0.0
 20
0.0
 30
0.0
  9
$USERI1
 70
     0
  9
$USERI2
 70
     0
  9
$USERI3
 70
     0
  9
$USERI4
 70
     0
  9
$USERI5
 70
     0
  9
$USERR1
 40
0.0
  9
$USERR2
 40
0.0
  9
$USERR3
 40
0.0
  9
$USERR4
 40
0.0
  9
$USERR5
 40
0.0
  9
$WORLDVIEW
 70
     1
  9
$SHADEDGE
 70
     3
  9
$SHADEDIF
 70
    70
  9
$TILEMODE
 70
     1
  9
$MAXACTVP
 70
    16
  9
$PINSBASE
 10
0.0
 20
0.0
 30
0.0
  9
$PLIMCHECK
 70
     0
  9
$PEXTMIN
 10
1.000000E+20
 20
1.000000E+20
 30
1.000000E+20
  9
$PEXTMAX
 10
-1.000000E+20
 20
-1.000000E+20
 30
-1.000000E+20
  9
$PLIMMIN
 10
0.0
 20
0.0
  9
$PLIMMAX
 10
12.0
 20
9.0
  9
$UNITMODE
 70
     0
  9
$VISRETAIN
 70
     0
  9
$PLINEGEN
 70
     1
  9
$PSLTSCALE
 70
     0
  9
$TREEDEPTH
 70
  3020
  9
$CMLSTYLE
  2
Standard
  9
$CMLJUST
 70
     0
  9
$CMLSCALE
 40
1.0
  9
$PROXYGRAPHICS
 70
     0
  9
$MEASUREMENT
 70
     0
  9
$CELWEIGHT
370
     0
  9
$ENDCAPS
280
     0
  9
$JOINSTYLE
280
     0
  9
$LWDISPLAY
290
     0
  9
$INSUNITS
 70
     0
  9
$HYPERLINKBASE
  1

  9
$STYLESHEET
  1

  9
$XEDIT
290
     1
  9
$CEPSNTYPE
380
     0
  9
$PSTYLEMODE
290
     1
  9
$FINGERPRINTGUID
  2

  9
$VERSIONGUID
  2

  9
$EXTNAMES
290
     1
  9
$PSVPSCALE
 40
0.0
  0
ENDSEC
  0
SECTION
  2
CLASSES
  0
CLASS
  1
LWPOLYLINE
  2
AcDbPolyline
  3
AutoCAD 2000
 90
        0
280
     0
281
     1
  0
CLASS
  1
IMAGE
  2
AcDbRasterImage
  3
ISM
 90
      127
280
     0
281
     1
  0
CLASS
  1
OLE2FRAME
  2
AcDbOle2Frame
  3
AutoCAD 2000
 90
        0
280
     0
281
     1
  0
CLASS
  1
HATCH
  2
AcDbHatch
  3
AutoCAD 2000
 90
        0
280
     0
281
     1
  0
CLASS
  1
DICTIONARYVAR
  2
AcDbDictionaryVar
  3
AutoCAD 2000
 90
        0
280
     0
281
     0
  0
CLASS
  1
RASTERVARIABLES
  2
AcDbRasterVariables
  3
ISM
 90
        0
280
     0
281
     0
  0
CLASS
  1
IMAGEDEF
  2
AcDbRasterImageDef
  3
ISM
 90
        0
280
     0
281
     0
  0
CLASS
  1
IMAGEDEF_REACTOR
  2
AcDbRasterImageDefReactor
  3
ISM
 90
        1
280
     0
281
     0
  0
CLASS
  1
IDBUFFER
  2
AcDbIdBuffer
  3
AutoCAD 2000
 90
        0
280
     0
281
     0
  0
CLASS
  1
SPATIAL_FILTER
  2
AcDbSpatialFilter
  3
AutoCAD 2000
 90
        0
280
     0
281
     0
  0
CLASS
  1
XRECORD
  2
AcDbXrecord
  3
AutoCAD 2000
 90
        0
280
     0
281
     0
  0
CLASS
  1
SORTENTSTABLE
  2
AcDbSortentsTable
  3
AutoCAD 2000
 90
        0
280
     0
281
     0
  0
CLASS
  1
LAYER_INDEX
  2
AcDbLayerIndex
  3
AutoCAD 2000
 90
        0
280
     0
281
     0
  0
CLASS
  1
SPATIAL_INDEX
  2
AcDbSpatialIndex
  3
AutoCAD 2000
 90
        0
280
     0
281
     0
  0
CLASS
  1
OBJECT_PTR
  2
CAseDLPNTableRecord
  3
"ASE-LPNTableRecord"
 90
        1
280
     0
281
     0
  0
CLASS
  1
LAYOUT
  2
AcDbLayout
  3
AutoCAD 2000
 90
        0
280
     0
281
     0
  0
CLASS
  1
PLOTSETTINGS
  2
AcDbPlotSettings
  3
AutoCAD 2000
 90
        0
280
     0
281
     0
  0
CLASS
  1
ACDBDICTIONARYWDFLT
  2
AcDbDictionaryWithDefault
  3
AutoCAD 2000
 90
        0
280
     0
281
     0
  0
CLASS
  1
ACDBPLACEHOLDER
  2
AcDbPlaceHolder
  3
AutoCAD 2000
 90
        0
280
     0
281
     0
  0
CLASS
  1
VBA_PROJECT
  2
AcDbVbaProject
  3
acadvba
 90
        0
280
     0
281
     0
  0
CLASS
  1
WIPEOUT
  2
AcDbWipeout
  3
WipeOut|AutoCAD Express Tool|expresstools@autodesk.com
 90
      127
280
     0
281
     1
  0
CLASS
  1
WIPEOUTVARIABLES
  2
AcDbWipeoutVariables
  3
WipeOut|AutoCAD Express Tool|expresstools@autodesk.com
 90
        0
280
     0
281
     0
  0
CLASS
  1
RTEXT
  2
RText
  3
RText|AutoCAD Express Tool|expresstools@autodesk.com
 90
        0
280
     0
281
     1
  0
CLASS
  1
ARCALIGNEDTEXT
  2
AcDbArcAlignedText
  3
ATEXT|AutoCAD Express Tool|expresstools@autodesk.com
 90
        0
280
     0
281
     1
  0
ENDSEC
  0
SECTION
  2
TABLES
  0
TABLE
  2
VPORT
  5
7
100
AcDbSymbolTable
 70
     1
  0
VPORT
  5
15
100
AcDbSymbolTableRecord
100
AcDbViewportTableRecord
  2
*ACTIVE
 70
     0
 10
0.0
 20
0.0
 11
1.0
 21
1.0
 12
6.591288
 22
4.579184
 13
0.0
 23
0.0
 14
1.0
 24
1.0
 15
0.0
 25
0.0
 16
0.0
 26
0.0
 36
1.0
 17
0.0
 27
0.0
 37
0.0
 40
9.158369
 41
0.688564
 42
50.0
 43
0.0
 44
0.0
 50
0.0
 51
0.0
 71
     0
 72
   100
 73
     1
 74
     1
 75
     0
 76
     0
 77
     0
 78
     0
281
     0
 65
     0
110
0.0
120
0.0
130
0.0
111
1.0
121
0.0
131
0.0
112
0.0
122
1.0
132
0.0
345
0
346
0
 79
     0
146
0.0
  0
ENDTAB
  0
TABLE
  2
LTYPE
  5
4
100
AcDbSymbolTable
 70
     5
  0
LTYPE
  5
11
100
AcDbSymbolTableRecord
100
AcDbLinetypeTableRecord
  2
ByBlock
 70
    64
  3

 72
    65
 73
     0
 40
0.0
  0
LTYPE
  5
12
100
AcDbSymbolTableRecord
100
AcDbLinetypeTableRecord
  2
ByLayer
 70
    64
  3

 72
    65
 73
     0
 40
0.0
  0
LTYPE
  5
13
100
AcDbSymbolTableRecord
100
AcDbLinetypeTableRecord
  2
Continuous
 70
    64
  3
Solid line
 72
    65
 73
     0
 40
0.0
  0
LTYPE
  5
BA
100
AcDbSymbolTableRecord
100
AcDbLinetypeTableRecord
  2
DOT
 70
    64
  3
..............................................
 72
    65
 73
     2
 40
0.5
 49
0.25
 74
     0
 49
-0.25
 74
     0
  0
LTYPE
  5
2C2
100
AcDbSymbolTableRecord
100
AcDbLinetypeTableRecord
  2
CENTER
 70
    64
  3
____ _ ____ _ ____ _ ____ _ ____ _ ____ _ ____
 72
    65
 73
     4
 40
2.0
 49
1.25
 74
     0
 49
-0.25
 74
     0
 49
0.25
 74
     0
 49
-0.25
 74
     0
  0
ENDTAB
  0
TABLE
  2
LAYER
  5
2
100
AcDbSymbolTable
 70
     4
  0
LAYER
  5
14
100
AcDbSymbolTableRecord
100
AcDbLayerTableRecord
  2
0
 70
     0
 62
     7
  6
Continuous
290
     1
370
    -3
390
1D
  0
LAYER
  5
27
100
AcDbSymbolTableRecord
100
AcDbLayerTableRecord
  2
256
 70
     0
 62
     7
  6
Continuous
290
     1
370
    -3
390
1D
  0
LAYER
  5
B8
100
AcDbSymbolTableRecord
100
AcDbLayerTableRecord
  2
1
 70
     0
 62
     7
  6
Continuous
290
     1
370
    -3
390
1D
  0
LAYER
  5
2B9
100
AcDbSymbolTableRecord
100
AcDbLayerTableRecord
  2
5
 70
     0
 62
     7
  6
Continuous
290
     1
370
    -3
390
1D
  0
ENDTAB
  0
TABLE
  2
STYLE
  5
3
100
AcDbSymbolTable
 70
     1
  0
STYLE
  5
17
100
AcDbSymbolTableRecord
100
AcDbTextStyleTableRecord
  2
Standard
 70
     0
 40
0.0
 41
1.0
 50
0.0
 71
     0
 42
0.0
  3
ＭＳ Ｐゴシック
  4

1001
ACAD
1000
ＭＳ Ｐゴシック
1071
        0
  0
ENDTAB
  0
TABLE
  2
VIEW
  5
5
100
AcDbSymbolTable
 70
     0
  0
ENDTAB
  0
TABLE
  2
UCS
  5
6
100
AcDbSymbolTable
 70
     0
  0
ENDTAB
  0
TABLE
  2
APPID
  5
8
100
AcDbSymbolTable
 70
     2
  0
APPID
  5
16
100
AcDbSymbolTableRecord
100
AcDbRegAppTableRecord
  2
ACAD
 70
     0
  0
APPID
  5
26
100
AcDbSymbolTableRecord
100
AcDbRegAppTableRecord
  2
TOPsolid_Design
 70
     0
  0
ENDTAB
  0
TABLE
  2
DIMSTYLE
  5
9
100
AcDbSymbolTable
 70
     1
100
AcDbDimStyleTable
 71
     0
  0
DIMSTYLE
105
18
100
AcDbSymbolTableRecord
100
AcDbDimStyleTableRecord
  2
Standard
 70
     0
  3

  4

 40
1.0
 41
3.2
 42
3.2
 43
0.38
 44
2.4
 45
0.0
 46
0.0
 47
0.0
 48
0.0
 71
     0
 72
     0
 73
     0
 74
     0
 75
     0
 76
     0
 77
     1
 78
     0
 79
     0
140
8.0
141
0.09
142
0.0
143
25.4
144
1.0
145
0.0
146
0.6
147
4.0
148
0.0
170
     0
171
     2
172
     0
173
     0
174
     0
175
     0
176
     7
177
     7
178
     7
179
     0
271
     6
272
     4
273
     2
274
     2
275
     0
276
     0
277
     2
278
    46
279
     0
280
     0
281
     0
282
     0
283
     1
284
     0
285
     0
286
     0
288
     0
289
     3
340
17
341
0
342
0
343
0
344
0
371
    -2
372
    -2
  0
ENDTAB
  0
TABLE
  2
BLOCK_RECORD
  5
1
100
AcDbSymbolTable
 70
    13
  0
BLOCK_RECORD
  5
A
100
AcDbSymbolTableRecord
100
AcDbBlockTableRecord
  2
*MODEL_SPACE
340
20
  0
BLOCK_RECORD
  5
B
100
AcDbSymbolTableRecord
100
AcDbBlockTableRecord
  2
*PAPER_SPACE
340
21
  0
BLOCK_RECORD
  5
B3
100
AcDbSymbolTableRecord
100
AcDbBlockTableRecord
  2
AID278
340
0
102
{BLKREFS
331
B7
102
}
  0
BLOCK_RECORD
  5
2CD
100
AcDbSymbolTableRecord
100
AcDbBlockTableRecord
  2
AID1019
340
0
102
{BLKREFS
331
2DE
102
}
  0
BLOCK_RECORD
  5
2DF
100
AcDbSymbolTableRecord
100
AcDbBlockTableRecord
  2
AID1032
340
0
102
{BLKREFS
331
2F1
102
}
  0
BLOCK_RECORD
  5
2F2
100
AcDbSymbolTableRecord
100
AcDbBlockTableRecord
  2
AID1047
340
0
102
{BLKREFS
331
302
102
}
  0
BLOCK_RECORD
  5
303
100
AcDbSymbolTableRecord
100
AcDbBlockTableRecord
  2
AID1058
340
0
102
{BLKREFS
331
314
102
}
  0
BLOCK_RECORD
  5
316
100
AcDbSymbolTableRecord
100
AcDbBlockTableRecord
  2
AID1073
340
0
102
{BLKREFS
331
327
102
}
  0
BLOCK_RECORD
  5
328
100
AcDbSymbolTableRecord
100
AcDbBlockTableRecord
  2
AID1086
340
0
102
{BLKREFS
331
33A
102
}
  0
BLOCK_RECORD
  5
33C
100
AcDbSymbolTableRecord
100
AcDbBlockTableRecord
  2
AID1103
340
0
102
{BLKREFS
331
350
102
}
  0
BLOCK_RECORD
  5
351
100
AcDbSymbolTableRecord
100
AcDbBlockTableRecord
  2
AID1122
340
0
102
{BLKREFS
331
364
102
}
  0
BLOCK_RECORD
  5
365
100
AcDbSymbolTableRecord
100
AcDbBlockTableRecord
  2
AID1139
340
0
102
{BLKREFS
331
376
102
}
  0
BLOCK_RECORD
  5
377
100
AcDbSymbolTableRecord
100
AcDbBlockTableRecord
  2
AID1152
340
0
102
{BLKREFS
331
37B
102
}
  0
BLOCK_RECORD
  5
37C
100
AcDbSymbolTableRecord
100
AcDbBlockTableRecord
  2
AID1155
340
0
102
{BLKREFS
331
380
102
}
  0
BLOCK_RECORD
  5
381
100
AcDbSymbolTableRecord
100
AcDbBlockTableRecord
  2
AID1158
340
0
102
{BLKREFS
331
385
102
}
  0
ENDTAB
  0
ENDSEC
  0
SECTION
  2
BLOCKS
  0
BLOCK
  5
D
100
AcDbEntity
  8
0
390
0
100
AcDbBlockBegin
  2
*MODEL_SPACE
 70
     0
 10
0.0
 20
0.0
 30
0.0
  3
*MODEL_SPACE
  1

  0
ENDBLK
  5
E
100
AcDbEntity
  8
0
390
0
100
AcDbBlockEnd
  0
BLOCK
  5
F
100
AcDbEntity
 67
     1
  8
0
390
0
100
AcDbBlockBegin
  2
*PAPER_SPACE
 70
     0
 10
0.0
 20
0.0
 30
0.0
  3
*PAPER_SPACE
  1

  0
ENDBLK
  5
10
100
AcDbEntity
 67
     1
  8
0
390
0
100
AcDbBlockEnd
  0
BLOCK
  5
B4
100
AcDbEntity
  8
0
390
0
100
AcDbBlockBegin
  2
AID278
 70
     0
 10
0.0
 20
0.0
 30
0.0
  3
D_GROUP
  1

  0
MTEXT
  5
B5
100
AcDbEntity
  8
256
390
0
 62
     7
100
AcDbMText
 10
816.174201
 20
16.082303
 30
0.0
 40
4.0
 41
8.690909
 71
     7
 72
     1
  1
A1
210
0.0
220
0.0
230
1.0
 73
     1
 44
1.0
  0
ENDBLK
  5
B6
100
AcDbEntity
  8
0
390
0
100
AcDbBlockEnd
  0
BLOCK
  5
2CE
100
AcDbEntity
  8
0
390
0
100
AcDbBlockBegin
  2
AID1019
 70
     0
 10
0.0
 20
0.0
 30
0.0
  3
D_GROUP
  1

  0
MTEXT
  5
2CF
100
AcDbEntity
  8
1
390
0
 62
     2
100
AcDbMText
 10
349.762873
 20
545.485171
 30
0.0
 40
6.0
 41
11.781818
 71
     7
 72
     1
  1
15
210
0.0
220
0.0
230
1.0
 73
     1
 44
1.0
  0
LINE
  5
2D0
100
AcDbEntity
  8
1
390
0
  6
Continuous
 62
    11
100
AcDbLine
 10
360.944691
 20
544.312444
 30
0.0
 11
345.944691
 21
544.312444
 31
0.0
  0
LINE
  5
2D1
100
AcDbEntity
  8
1
390
0
  6
Continuous
 62
    11
100
AcDbLine
 10
360.944691
 20
534.076824
 30
0.0
 11
360.944691
 21
546.112444
 31
0.0
  0
LINE
  5
2D2
100
AcDbEntity
  8
1
390
0
  6
Continuous
 62
    11
100
AcDbLine
 10
345.944691
 20
532.376824
 30
0.0
 11
345.944691
 21
546.112444
 31
0.0
  0
POLYLINE
  5
2D3
100
AcDbEntity
  8
1
390
0
  6
Continuous
 62
    11
100
AcDb2dPolyline
 66
     1
 10
0.0
 20
0.0
 30
0.0
 40
3.0
 41
3.0
  0
VERTEX
  5
2D4
100
AcDbEntity
  8
1
390
0
 62
    11
100
AcDbVertex
100
AcDb2dVertex
 10
356.444691
 20
545.212444
 30
0.0
  0
VERTEX
  5
2D5
100
AcDbEntity
  8
1
390
0
 62
    11
100
AcDbVertex
100
AcDb2dVertex
 10
360.944691
 20
544.312444
 30
0.0
  0
VERTEX
  5
2D6
100
AcDbEntity
  8
1
390
0
 62
    11
100
AcDbVertex
100
AcDb2dVertex
 10
356.444691
 20
543.412444
 30
0.0
  0
SEQEND
  5
2D7
100
AcDbEntity
  8
0
390
0
  0
POLYLINE
  5
2D8
100
AcDbEntity
  8
1
390
0
  6
Continuous
 62
    11
100
AcDb2dPolyline
 66
     1
 10
0.0
 20
0.0
 30
0.0
 40
3.0
 41
3.0
  0
VERTEX
  5
2D9
100
AcDbEntity
  8
1
390
0
 62
    11
100
AcDbVertex
100
AcDb2dVertex
 10
350.444691
 20
543.412444
 30
0.0
  0
VERTEX
  5
2DA
100
AcDbEntity
  8
1
390
0
 62
    11
100
AcDbVertex
100
AcDb2dVertex
 10
345.944691
 20
544.312444
 30
0.0
  0
VERTEX
  5
2DB
100
AcDbEntity
  8
1
390
0
 62
    11
100
AcDbVertex
100
AcDb2dVertex
 10
350.444691
 20
545.212444
 30
0.0
  0
SEQEND
  5
2DC
100
AcDbEntity
  8
0
390
0
  0
ENDBLK
  5
2DD
100
AcDbEntity
  8
0
390
0
100
AcDbBlockEnd
  0
BLOCK
  5
2E0
100
AcDbEntity
  8
0
390
0
100
AcDbBlockBegin
  2
AID1032
 70
     0
 10
0.0
 20
0.0
 30
0.0
  3
D_GROUP
  1

  0
MTEXT
  5
2E1
100
AcDbEntity
  8
1
390
0
 62
     2
100
AcDbMText
 10
370.851241
 20
537.485915
 30
0.0
 40
6.0
 41
9.490909
 71
     7
 72
     1
  1
Φ
210
0.0
220
0.0
230
1.0
 11
0.0
 21
1.0
 31
0.0
 73
     1
 44
1.0
  0
MTEXT
  5
2E2
100
AcDbEntity
  8
1
390
0
 62
     2
100
AcDbMText
 10
370.851241
 20
543.43137
 30
0.0
 40
6.0
 41
15.654545
 71
     7
 72
     1
  1
3.4
210
0.0
220
0.0
230
1.0
 11
0.0
 21
1.0
 31
0.0
 73
     1
 44
1.0
  0
LINE
  5
2E3
100
AcDbEntity
  8
1
390
0
  6
Continuous
 62
    11
100
AcDbLine
 10
372.023968
 20
519.876824
 30
0.0
 11
372.023968
 21
552.213188
 31
0.0
  0
LINE
  5
2E4
100
AcDbEntity
  8
1
390
0
  6
Continuous
 62
    11
100
AcDbLine
 10
362.744691
 20
528.876824
 30
0.0
 11
373.823968
 21
528.876824
 31
0.0
  0
LINE
  5
2E5
100
AcDbEntity
  8
1
390
0
  6
Continuous
 62
    11
100
AcDbLine
 10
362.744691
 20
532.276824
 30
0.0
 11
373.823968
 21
532.276824
 31
0.0
  0
POLYLINE
  5
2E6
100
AcDbEntity
  8
1
390
0
  6
Continuous
 62
    11
100
AcDb2dPolyline
 66
     1
 10
0.0
 20
0.0
 30
0.0
 40
3.0
 41
3.0
  0
VERTEX
  5
2E7
100
AcDbEntity
  8
1
390
0
 62
    11
100
AcDbVertex
100
AcDb2dVertex
 10
372.923968
 20
524.376824
 30
0.0
  0
VERTEX
  5
2E8
100
AcDbEntity
  8
1
390
0
 62
    11
100
AcDbVertex
100
AcDb2dVertex
 10
372.023968
 20
528.876824
 30
0.0
  0
VERTEX
  5
2E9
100
AcDbEntity
  8
1
390
0
 62
    11
100
AcDbVertex
100
AcDb2dVertex
 10
371.123968
 20
524.376824
 30
0.0
  0
SEQEND
  5
2EA
100
AcDbEntity
  8
0
390
0
  0
POLYLINE
  5
2EB
100
AcDbEntity
  8
1
390
0
  6
Continuous
 62
    11
100
AcDb2dPolyline
 66
     1
 10
0.0
 20
0.0
 30
0.0
 40
3.0
 41
3.0
  0
VERTEX
  5
2EC
100
AcDbEntity
  8
1
390
0
 62
    11
100
AcDbVertex
100
AcDb2dVertex
 10
371.123968
 20
536.776824
 30
0.0
  0
VERTEX
  5
2ED
100
AcDbEntity
  8
1
390
0
 62
    11
100
AcDbVertex
100
AcDb2dVertex
 10
372.023968
 20
532.276824
 30
0.0
  0
VERTEX
  5
2EE
100
AcDbEntity
  8
1
390
0
 62
    11
100
AcDbVertex
100
AcDb2dVertex
 10
372.923968
 20
536.776824
 30
0.0
  0
SEQEND
  5
2EF
100
AcDbEntity
  8
0
390
0
  0
ENDBLK
  5
2F0
100
AcDbEntity
  8
0
390
0
100
AcDbBlockEnd
  0
BLOCK
  5
2F3
100
AcDbEntity
  8
0
390
0
100
AcDbBlockBegin
  2
AID1047
 70
     0
 10
0.0
 20
0.0
 30
0.0
  3
D_GROUP
  1

  0
MTEXT
  5
2F4
100
AcDbEntity
  8
1
390
0
 62
     2
100
AcDbMText
 10
393.124309
 20
537.035915
 30
0.0
 40
6.0
 41
9.490909
 71
     7
 72
     1
  1
Φ
210
0.0
220
0.0
230
1.0
 11
0.0
 21
1.0
 31
0.0
 73
     1
 44
1.0
  0
MTEXT
  5
2F5
100
AcDbEntity
  8
1
390
0
 62
     2
100
AcDbMText
 10
393.124309
 20
542.98137
 30
0.0
 40
6.0
 41
15.381818
 71
     7
 72
     1
  1
2.5
210
0.0
220
0.0
230
1.0
 11
0.0
 21
1.0
 31
0.0
 73
     1
 44
1.0
  0
LINE
  5
2F6
100
AcDbEntity
  8
1
390
0
  6
Continuous
 62
    11
100
AcDbLine
 10
394.297037
 20
520.326824
 30
0.0
 11
394.297037
 21
551.626824
 31
0.0
  0
POLYLINE
  5
2F7
100
AcDbEntity
  8
1
390
0
  6
Continuous
 62
    11
100
AcDb2dPolyline
 66
     1
 10
0.0
 20
0.0
 30
0.0
 40
3.0
 41
3.0
  0
VERTEX
  5
2F8
100
AcDbEntity
  8
1
390
0
 62
    11
100
AcDbVertex
100
AcDb2dVertex
 10
395.197037
 20
524.826824
 30
0.0
  0
VERTEX
  5
2F9
100
AcDbEntity
  8
1
390
0
 62
    11
100
AcDbVertex
100
AcDb2dVertex
 10
394.297037
 20
529.326824
 30
0.0
  0
VERTEX
  5
2FA
100
AcDbEntity
  8
1
390
0
 62
    11
100
AcDbVertex
100
AcDb2dVertex
 10
393.397037
 20
524.826824
 30
0.0
  0
SEQEND
  5
2FB
100
AcDbEntity
  8
0
390
0
  0
POLYLINE
  5
2FC
100
AcDbEntity
  8
1
390
0
  6
Continuous
 62
    11
100
AcDb2dPolyline
 66
     1
 10
0.0
 20
0.0
 30
0.0
 40
3.0
 41
3.0
  0
VERTEX
  5
2FD
100
AcDbEntity
  8
1
390
0
 62
    11
100
AcDbVertex
100
AcDb2dVertex
 10
393.397037
 20
536.326824
 30
0.0
  0
VERTEX
  5
2FE
100
AcDbEntity
  8
1
390
0
 62
    11
100
AcDbVertex
100
AcDb2dVertex
 10
394.297037
 20
531.826824
 30
0.0
  0
VERTEX
  5
2FF
100
AcDbEntity
  8
1
390
0
 62
    11
100
AcDbVertex
100
AcDb2dVertex
 10
395.197037
 20
536.326824
 30
0.0
  0
SEQEND
  5
300
100
AcDbEntity
  8
0
390
0
  0
ENDBLK
  5
301
100
AcDbEntity
  8
0
390
0
100
AcDbBlockEnd
  0
BLOCK
  5
304
100
AcDbEntity
  8
0
390
0
100
AcDbBlockBegin
  2
AID1058
 70
     0
 10
0.0
 20
0.0
 30
0.0
  3
D_GROUP
  1

  0
MTEXT
  5
305
100
AcDbEntity
  8
1
390
0
 62
     2
100
AcDbMText
 10
499.550731
 20
545.913043
 30
0.0
 40
6.0
 41
12.545455
 71
     7
 72
     1
  1
55
210
0.0
220
0.0
230
1.0
 73
     1
 44
1.0
  0
LINE
  5
306
100
AcDbEntity
  8
1
390
0
  6
Continuous
 62
    11
100
AcDbLine
 10
530.576612
 20
544.740315
 30
0.0
 11
475.506668
 21
544.740315
 31
0.0
  0
LINE
  5
307
100
AcDbEntity
  8
1
390
0
  6
Continuous
 62
    11
100
AcDbLine
 10
530.576612
 20
534.601824
 30
0.0
 11
530.576612
 21
546.540315
 31
0.0
  0
LINE
  5
308
100
AcDbEntity
  8
1
390
0
  6
Continuous
 62
    11
100
AcDbLine
 10
475.506668
 20
534.376824
 30
0.0
 11
475.506668
 21
546.540315
 31
0.0
  0
POLYLINE
  5
309
100
AcDbEntity
  8
1
390
0
  6
Continuous
 62
    11
100
AcDb2dPolyline
 66
     1
 10
0.0
 20
0.0
 30
0.0
 40
3.0
 41
3.0
  0
VERTEX
  5
30A
100
AcDbEntity
  8
1
390
0
 62
    11
100
AcDbVertex
100
AcDb2dVertex
 10
526.076612
 20
545.640315
 30
0.0
  0
VERTEX
  5
30B
100
AcDbEntity
  8
1
390
0
 62
    11
100
AcDbVertex
100
AcDb2dVertex
 10
530.576612
 20
544.740315
 30
0.0
  0
VERTEX
  5
30C
100
AcDbEntity
  8
1
390
0
 62
    11
100
AcDbVertex
100
AcDb2dVertex
 10
526.076612
 20
543.840315
 30
0.0
  0
SEQEND
  5
30D
100
AcDbEntity
  8
0
390
0
  0
POLYLINE
  5
30E
100
AcDbEntity
  8
1
390
0
  6
Continuous
 62
    11
100
AcDb2dPolyline
 66
     1
 10
0.0
 20
0.0
 30
0.0
 40
3.0
 41
3.0
  0
VERTEX
  5
30F
100
AcDbEntity
  8
1
390
0
 62
    11
100
AcDbVertex
100
AcDb2dVertex
 10
480.006668
 20
543.840315
 30
0.0
  0
VERTEX
  5
310
100
AcDbEntity
  8
1
390
0
 62
    11
100
AcDbVertex
100
AcDb2dVertex
 10
475.506668
 20
544.740315
 30
0.0
  0
VERTEX
  5
311
100
AcDbEntity
  8
1
390
0
 62
    11
100
AcDbVertex
100
AcDb2dVertex
 10
480.006668
 20
545.640315
 30
0.0
  0
SEQEND
  5
312
100
AcDbEntity
  8
0
390
0
  0
ENDBLK
  5
313
100
AcDbEntity
  8
0
390
0
100
AcDbBlockEnd
  0
BLOCK
  5
317
100
AcDbEntity
  8
0
390
0
100
AcDbBlockBegin
  2
AID1073
 70
     0
 10
0.0
 20
0.0
 30
0.0
  3
D_GROUP
  1

  0
MTEXT
  5
318
100
AcDbEntity
  8
1
390
0
 62
     2
100
AcDbMText
 10
431.033379
 20
509.738711
 30
0.0
 40
6.0
 41
25.963636
 71
     7
 72
     1
  1
1000
210
0.0
220
0.0
230
1.0
 73
     1
 44
1.0
  0
LINE
  5
319
100
AcDbEntity
  8
1
390
0
  6
Continuous
 62
    11
100
AcDbLine
 10
530.576612
 20
508.593256
 30
0.0
 11
345.944691
 21
508.593256
 31
0.0
  0
LINE
  5
31A
100
AcDbEntity
  8
1
390
0
  6
Continuous
 62
    11
100
AcDbLine
 10
530.576612
 20
526.551824
 30
0.0
 11
530.576612
 21
506.793256
 31
0.0
  0
LINE
  5
31B
100
AcDbEntity
  8
1
390
0
  6
Continuous
 62
    11
100
AcDbLine
 10
345.944691
 20
528.776824
 30
0.0
 11
345.944691
 21
506.793256
 31
0.0
  0
POLYLINE
  5
31C
100
AcDbEntity
  8
1
390
0
  6
Continuous
 62
    11
100
AcDb2dPolyline
 66
     1
 10
0.0
 20
0.0
 30
0.0
 40
3.0
 41
3.0
  0
VERTEX
  5
31D
100
AcDbEntity
  8
1
390
0
 62
    11
100
AcDbVertex
100
AcDb2dVertex
 10
526.076612
 20
509.493256
 30
0.0
  0
VERTEX
  5
31E
100
AcDbEntity
  8
1
390
0
 62
    11
100
AcDbVertex
100
AcDb2dVertex
 10
530.576612
 20
508.593256
 30
0.0
  0
VERTEX
  5
31F
100
AcDbEntity
  8
1
390
0
 62
    11
100
AcDbVertex
100
AcDb2dVertex
 10
526.076612
 20
507.693256
 30
0.0
  0
SEQEND
  5
320
100
AcDbEntity
  8
0
390
0
  0
POLYLINE
  5
321
100
AcDbEntity
  8
1
390
0
  6
Continuous
 62
    11
100
AcDb2dPolyline
 66
     1
 10
0.0
 20
0.0
 30
0.0
 40
3.0
 41
3.0
  0
VERTEX
  5
322
100
AcDbEntity
  8
1
390
0
 62
    11
100
AcDbVertex
100
AcDb2dVertex
 10
350.444691
 20
507.693256
 30
0.0
  0
VERTEX
  5
323
100
AcDbEntity
  8
1
390
0
 62
    11
100
AcDbVertex
100
AcDb2dVertex
 10
345.944691
 20
508.593256
 30
0.0
  0
VERTEX
  5
324
100
AcDbEntity
  8
1
390
0
 62
    11
100
AcDbVertex
100
AcDb2dVertex
 10
350.444691
 20
509.493256
 30
0.0
  0
SEQEND
  5
325
100
AcDbEntity
  8
0
390
0
  0
ENDBLK
  5
326
100
AcDbEntity
  8
0
390
0
100
AcDbBlockEnd
  0
BLOCK
  5
329
100
AcDbEntity
  8
0
390
0
100
AcDbBlockBegin
  2
AID1086
 70
     0
 10
0.0
 20
0.0
 30
0.0
  3
D_GROUP
  1

  0
MTEXT
  5
32A
100
AcDbEntity
  8
1
390
0
 62
     2
100
AcDbMText
 10
356.702674
 20
375.59835
 30
0.0
 40
6.0
 41
9.490909
 71
     7
 72
     1
  1
Φ
210
0.0
220
0.0
230
1.0
 73
     1
 44
1.0
  0
MTEXT
  5
32B
100
AcDbEntity
  8
1
390
0
 62
     2
100
AcDbMText
 10
362.648129
 20
375.59835
 30
0.0
 40
6.0
 41
5.563636
 71
     7
 72
     1
  1
3
210
0.0
220
0.0
230
1.0
 73
     1
 44
1.0
  0
MTEXT
  5
32C
100
AcDbEntity
  8
1
390
0
 62
     2
100
AcDbMText
 10
368.784493
 20
374.39835
 30
0.0
 40
4.2
 41
20.770909
 71
     7
 72
     1
  1
-0.02
210
0.0
220
0.0
230
1.0
 73
     1
 44
1.0
  0
MTEXT
  5
32D
100
AcDbEntity
  8
1
390
0
 62
     2
100
AcDbMText
 10
368.784493
 20
379.285623
 30
0.0
 40
4.2
 41
19.434545
 71
     7
 72
     1
  1
-0.01
210
0.0
220
0.0
230
1.0
 73
     1
 44
1.0
  0
LINE
  5
32E
100
AcDbEntity
  8
1
390
0
  6
Continuous
 62
    11
100
AcDbLine
 10
379.903583
 20
373.236532
 30
0.0
 11
332.444691
 21
373.236532
 31
0.0
  0
POLYLINE
  5
32F
100
AcDbEntity
  8
1
390
0
  6
Continuous
 62
    11
100
AcDb2dPolyline
 66
     1
 10
0.0
 20
0.0
 30
0.0
 40
3.0
 41
3.0
  0
VERTEX
  5
330
100
AcDbEntity
  8
1
390
0
 62
    11
100
AcDbVertex
100
AcDb2dVertex
 10
348.944691
 20
374.136532
 30
0.0
  0
VERTEX
  5
331
100
AcDbEntity
  8
1
390
0
 62
    11
100
AcDbVertex
100
AcDb2dVertex
 10
344.444691
 20
373.236532
 30
0.0
  0
VERTEX
  5
332
100
AcDbEntity
  8
1
390
0
 62
    11
100
AcDbVertex
100
AcDb2dVertex
 10
348.944691
 20
372.336532
 30
0.0
  0
SEQEND
  5
333
100
AcDbEntity
  8
0
390
0
  0
POLYLINE
  5
334
100
AcDbEntity
  8
1
390
0
  6
Continuous
 62
    11
100
AcDb2dPolyline
 66
     1
 10
0.0
 20
0.0
 30
0.0
 40
3.0
 41
3.0
  0
VERTEX
  5
335
100
AcDbEntity
  8
1
390
0
 62
    11
100
AcDbVertex
100
AcDb2dVertex
 10
336.944691
 20
372.336532
 30
0.0
  0
VERTEX
  5
336
100
AcDbEntity
  8
1
390
0
 62
    11
100
AcDbVertex
100
AcDb2dVertex
 10
341.444691
 20
373.236532
 30
0.0
  0
VERTEX
  5
337
100
AcDbEntity
  8
1
390
0
 62
    11
100
AcDbVertex
100
AcDb2dVertex
 10
336.944691
 20
374.136532
 30
0.0
  0
SEQEND
  5
338
100
AcDbEntity
  8
0
390
0
  0
ENDBLK
  5
339
100
AcDbEntity
  8
0
390
0
100
AcDbBlockEnd
  0
BLOCK
  5
33D
100
AcDbEntity
  8
0
390
0
100
AcDbBlockBegin
  2
AID1103
 70
     0
 10
0.0
 20
0.0
 30
0.0
  3
D_GROUP
  1

  0
MTEXT
  5
33E
100
AcDbEntity
  8
1
390
0
 62
     2
100
AcDbMText
 10
351.153782
 20
56.999793
 30
0.0
 40
6.0
 41
9.490909
 71
     7
 72
     1
  1
Φ
210
0.0
220
0.0
230
1.0
 73
     1
 44
1.0
  0
MTEXT
  5
33F
100
AcDbEntity
  8
1
390
0
 62
     2
100
AcDbMText
 10
357.099237
 20
56.999793
 30
0.0
 40
6.0
 41
5.454545
 71
     7
 72
     1
  1
6
210
0.0
220
0.0
230
1.0
 73
     1
 44
1.0
  0
MTEXT
  5
340
100
AcDbEntity
  8
1
390
0
 62
     2
100
AcDbMText
 10
363.208327
 20
55.799793
 30
0.0
 40
4.2
 41
14.547273
 71
     7
 72
     1
  1
-0.1
210
0.0
220
0.0
230
1.0
 73
     1
 44
1.0
  0
MTEXT
  5
341
100
AcDbEntity
  8
1
390
0
 62
     2
100
AcDbMText
 10
363.208327
 20
60.687066
 30
0.0
 40
4.2
 41
4.2
 71
     7
 72
     1
  1
　0
210
0.0
220
0.0
230
1.0
 73
     1
 44
1.0
  0
LINE
  5
342
100
AcDbEntity
  8
1
390
0
  6
Continuous
 62
    11
100
AcDbLine
 10
330.944691
 20
54.637975
 30
0.0
 11
371.2156
 21
54.637975
 31
0.0
  0
LINE
  5
343
100
AcDbEntity
  8
1
390
0
  6
Continuous
 62
    11
100
AcDbLine
 10
339.944691
 20
66.359472
 30
0.0
 11
339.944691
 21
52.837975
 31
0.0
  0
LINE
  5
344
100
AcDbEntity
  8
1
390
0
  6
Continuous
 62
    11
100
AcDbLine
 10
345.944691
 20
66.359472
 30
0.0
 11
345.944691
 21
52.837975
 31
0.0
  0
POLYLINE
  5
345
100
AcDbEntity
  8
1
390
0
  6
Continuous
 62
    11
100
AcDb2dPolyline
 66
     1
 10
0.0
 20
0.0
 30
0.0
 40
3.0
 41
3.0
  0
VERTEX
  5
346
100
AcDbEntity
  8
1
390
0
 62
    11
100
AcDbVertex
100
AcDb2dVertex
 10
335.444691
 20
53.737975
 30
0.0
  0
VERTEX
  5
347
100
AcDbEntity
  8
1
390
0
 62
    11
100
AcDbVertex
100
AcDb2dVertex
 10
339.944691
 20
54.637975
 30
0.0
  0
VERTEX
  5
348
100
AcDbEntity
  8
1
390
0
 62
    11
100
AcDbVertex
100
AcDb2dVertex
 10
335.444691
 20
55.537975
 30
0.0
  0
SEQEND
  5
349
100
AcDbEntity
  8
0
390
0
  0
POLYLINE
  5
34A
100
AcDbEntity
  8
1
390
0
  6
Continuous
 62
    11
100
AcDb2dPolyline
 66
     1
 10
0.0
 20
0.0
 30
0.0
 40
3.0
 41
3.0
  0
VERTEX
  5
34B
100
AcDbEntity
  8
1
390
0
 62
    11
100
AcDbVertex
100
AcDb2dVertex
 10
350.444691
 20
55.537975
 30
0.0
  0
VERTEX
  5
34C
100
AcDbEntity
  8
1
390
0
 62
    11
100
AcDbVertex
100
AcDb2dVertex
 10
345.944691
 20
54.637975
 30
0.0
  0
VERTEX
  5
34D
100
AcDbEntity
  8
1
390
0
 62
    11
100
AcDbVertex
100
AcDb2dVertex
 10
350.444691
 20
53.737975
 30
0.0
  0
SEQEND
  5
34E
100
AcDbEntity
  8
0
390
0
  0
ENDBLK
  5
34F
100
AcDbEntity
  8
0
390
0
100
AcDbBlockEnd
  0
BLOCK
  5
352
100
AcDbEntity
  8
0
390
0
100
AcDbBlockBegin
  2
AID1122
 70
     0
 10
0.0
 20
0.0
 30
0.0
  3
D_GROUP
  1

  0
MTEXT
  5
353
100
AcDbEntity
  8
1
390
0
 62
     2
100
AcDbMText
 10
325.204885
 20
77.914018
 30
0.0
 40
6.0
 41
6.054545
 71
     7
 72
     1
  1
4
210
0.0
220
0.0
230
1.0
 11
0.0
 21
1.0
 31
0.0
 73
     1
 44
1.0
  0
MTEXT
  5
354
100
AcDbEntity
  8
1
390
0
 62
     2
100
AcDbMText
 10
326.404885
 20
84.186745
 30
0.0
 40
4.2
 41
14.547273
 71
     7
 72
     1
  1
-0.1
210
0.0
220
0.0
230
1.0
 11
0.0
 21
1.0
 31
0.0
 73
     1
 44
1.0
  0
MTEXT
  5
355
100
AcDbEntity
  8
1
390
0
 62
     2
100
AcDbMText
 10
321.517612
 20
84.186745
 30
0.0
 40
4.2
 41
4.2
 71
     7
 72
     1
  1
　0
210
0.0
220
0.0
230
1.0
 11
0.0
 21
1.0
 31
0.0
 73
     1
 44
1.0
  0
LINE
  5
356
100
AcDbEntity
  8
1
390
0
  6
Continuous
 62
    11
100
AcDbLine
 10
327.566703
 20
92.194018
 30
0.0
 11
327.566703
 21
58.859472
 31
0.0
  0
LINE
  5
357
100
AcDbEntity
  8
1
390
0
  6
Continuous
 62
    11
100
AcDbLine
 10
338.144691
 20
71.859472
 30
0.0
 11
325.766703
 21
71.859472
 31
0.0
  0
LINE
  5
358
100
AcDbEntity
  8
1
390
0
  6
Continuous
 62
    11
100
AcDbLine
 10
338.844691
 20
67.859472
 30
0.0
 11
325.766703
 21
67.859472
 31
0.0
  0
POLYLINE
  5
359
100
AcDbEntity
  8
1
390
0
  6
Continuous
 62
    11
100
AcDb2dPolyline
 66
     1
 10
0.0
 20
0.0
 30
0.0
 40
3.0
 41
3.0
  0
VERTEX
  5
35A
100
AcDbEntity
  8
1
390
0
 62
    11
100
AcDbVertex
100
AcDb2dVertex
 10
326.666703
 20
76.359472
 30
0.0
  0
VERTEX
  5
35B
100
AcDbEntity
  8
1
390
0
 62
    11
100
AcDbVertex
100
AcDb2dVertex
 10
327.566703
 20
71.859472
 30
0.0
  0
VERTEX
  5
35C
100
AcDbEntity
  8
1
390
0
 62
    11
100
AcDbVertex
100
AcDb2dVertex
 10
328.466703
 20
76.359472
 30
0.0
  0
SEQEND
  5
35D
100
AcDbEntity
  8
0
390
0
  0
POLYLINE
  5
35E
100
AcDbEntity
  8
1
390
0
  6
Continuous
 62
    11
100
AcDb2dPolyline
 66
     1
 10
0.0
 20
0.0
 30
0.0
 40
3.0
 41
3.0
  0
VERTEX
  5
35F
100
AcDbEntity
  8
1
390
0
 62
    11
100
AcDbVertex
100
AcDb2dVertex
 10
328.466703
 20
63.359472
 30
0.0
  0
VERTEX
  5
360
100
AcDbEntity
  8
1
390
0
 62
    11
100
AcDbVertex
100
AcDb2dVertex
 10
327.566703
 20
67.859472
 30
0.0
  0
VERTEX
  5
361
100
AcDbEntity
  8
1
390
0
 62
    11
100
AcDbVertex
100
AcDb2dVertex
 10
326.666703
 20
63.359472
 30
0.0
  0
SEQEND
  5
362
100
AcDbEntity
  8
0
390
0
  0
ENDBLK
  5
363
100
AcDbEntity
  8
0
390
0
100
AcDbBlockEnd
  0
BLOCK
  5
366
100
AcDbEntity
  8
0
390
0
100
AcDbBlockBegin
  2
AID1139
 70
     0
 10
0.0
 20
0.0
 30
0.0
  3
D_GROUP
  1

  0
MTEXT
  5
367
100
AcDbEntity
  8
1
390
0
 62
     2
100
AcDbMText
 10
312.685074
 20
262.623108
 30
0.0
 40
6.0
 41
19.963636
 71
     7
 72
     1
  1
400
210
0.0
220
0.0
230
1.0
 11
0.0
 21
1.0
 31
0.0
 73
     1
 44
1.0
  0
LINE
  5
368
100
AcDbEntity
  8
1
390
0
  6
Continuous
 62
    11
100
AcDbLine
 10
313.830528
 20
67.859472
 30
0.0
 11
313.830528
 21
467.859472
 31
0.0
  0
LINE
  5
369
100
AcDbEntity
  8
1
390
0
  6
Continuous
 62
    11
100
AcDbLine
 10
338.844691
 20
67.859472
 30
0.0
 11
312.030528
 21
67.859472
 31
0.0
  0
LINE
  5
36A
100
AcDbEntity
  8
1
390
0
  6
Continuous
 62
    11
100
AcDbLine
 10
339.644691
 20
467.859472
 30
0.0
 11
312.030528
 21
467.859472
 31
0.0
  0
POLYLINE
  5
36B
100
AcDbEntity
  8
1
390
0
  6
Continuous
 62
    11
100
AcDb2dPolyline
 66
     1
 10
0.0
 20
0.0
 30
0.0
 40
3.0
 41
3.0
  0
VERTEX
  5
36C
100
AcDbEntity
  8
1
390
0
 62
    11
100
AcDbVertex
100
AcDb2dVertex
 10
314.730528
 20
72.359472
 30
0.0
  0
VERTEX
  5
36D
100
AcDbEntity
  8
1
390
0
 62
    11
100
AcDbVertex
100
AcDb2dVertex
 10
313.830528
 20
67.859472
 30
0.0
  0
VERTEX
  5
36E
100
AcDbEntity
  8
1
390
0
 62
    11
100
AcDbVertex
100
AcDb2dVertex
 10
312.930528
 20
72.359472
 30
0.0
  0
SEQEND
  5
36F
100
AcDbEntity
  8
0
390
0
  0
POLYLINE
  5
370
100
AcDbEntity
  8
1
390
0
  6
Continuous
 62
    11
100
AcDb2dPolyline
 66
     1
 10
0.0
 20
0.0
 30
0.0
 40
3.0
 41
3.0
  0
VERTEX
  5
371
100
AcDbEntity
  8
1
390
0
 62
    11
100
AcDbVertex
100
AcDb2dVertex
 10
312.930528
 20
463.359472
 30
0.0
  0
VERTEX
  5
372
100
AcDbEntity
  8
1
390
0
 62
    11
100
AcDbVertex
100
AcDb2dVertex
 10
313.830528
 20
467.859472
 30
0.0
  0
VERTEX
  5
373
100
AcDbEntity
  8
1
390
0
 62
    11
100
AcDbVertex
100
AcDb2dVertex
 10
314.730528
 20
463.359472
 30
0.0
  0
SEQEND
  5
374
100
AcDbEntity
  8
0
390
0
  0
ENDBLK
  5
375
100
AcDbEntity
  8
0
390
0
100
AcDbBlockEnd
  0
BLOCK
  5
378
100
AcDbEntity
  8
0
390
0
100
AcDbBlockBegin
  2
AID1152
 70
     0
 10
0.0
 20
0.0
 30
0.0
  3
D_GROUP
  1

  0
MTEXT
  5
379
100
AcDbEntity
  8
1
390
0
 62
     7
100
AcDbMText
 10
773.948645
 20
39.07684
 30
0.0
 40
4.0
 41
61.345455
 71
     7
 72
     1
  1
SSEEJ03.0X400
210
0.0
220
0.0
230
1.0
 73
     1
 44
1.0
  0
ENDBLK
  5
37A
100
AcDbEntity
  8
0
390
0
100
AcDbBlockEnd
  0
BLOCK
  5
37D
100
AcDbEntity
  8
0
390
0
100
AcDbBlockBegin
  2
AID1155
 70
     0
 10
0.0
 20
0.0
 30
0.0
  3
D_GROUP
  1

  0
MTEXT
  5
37E
100
AcDbEntity
  8
1
390
0
 62
     7
100
AcDbMText
 10
764.082128
 20
49.602133
 30
0.0
 40
4.0
 41
106.981818
 71
     7
 72
     1
  1
エジェクタピン形圧力センサ
210
0.0
220
0.0
230
1.0
 73
     1
 44
1.0
  0
ENDBLK
  5
37F
100
AcDbEntity
  8
0
390
0
100
AcDbBlockEnd
  0
BLOCK
  5
382
100
AcDbEntity
  8
0
390
0
100
AcDbBlockBegin
  2
AID1158
 70
     0
 10
0.0
 20
0.0
 30
0.0
  3
D_GROUP
  1

  0
MTEXT
  5
383
100
AcDbEntity
  8
1
390
0
 62
     7
100
AcDbMText
 10
734.721279
 20
41.698352
 30
0.0
 40
5.0
 41
14.045455
 71
     7
 72
     1
  1
1：1
210
0.0
220
0.0
230
1.0
 73
     1
 44
1.0
  0
ENDBLK
  5
384
100
AcDbEntity
  8
0
390
0
100
AcDbBlockEnd
  0
ENDSEC
  0
SECTION
  2
ENTITIES
  0
LINE
  5
28
100
AcDbEntity
  8
256
390
0
  6
Continuous
 62
     8
100
AcDbLine
 10
768.0
 20
549.0
 30
0.0
 11
638.0
 21
549.0
 31
0.0
  0
LINE
  5
29
100
AcDbEntity
  8
256
390
0
  6
Continuous
 62
     8
100
AcDbLine
 10
20.0
 20
20.0
 30
0.0
 11
821.0
 21
20.0
 31
0.0
  0
LINE
  5
2A
100
AcDbEntity
  8
256
390
0
  6
Continuous
 62
     8
100
AcDbLine
 10
643.011017
 20
563.664886
 30
0.0
 11
640.511017
 21
559.368011
 31
0.0
  0
LINE
  5
2B
100
AcDbEntity
  8
256
390
0
  6
Continuous
 62
     8
100
AcDbLine
 10
718.164695
 20
42.573373
 30
0.0
 11
725.235801
 21
49.644442
 31
0.0
  0
LINE
  5
2C
100
AcDbEntity
  8
256
390
0
  6
Continuous
 62
     8
100
AcDbLine
 10
633.0
 20
23.5
 30
0.0
 11
682.000031
 21
23.5
 31
0.0
  0
LINE
  5
2D
100
AcDbEntity
  8
256
390
0
  6
Continuous
 62
     8
100
AcDbLine
 10
773.0
 20
574.0
 30
0.0
 11
773.0
 21
544.0
 31
0.0
  0
LINE
  5
2E
100
AcDbEntity
  8
256
390
0
  6
Continuous
 62
     8
100
AcDbLine
 10
643.011017
 20
548.664886
 30
0.0
 11
640.511017
 21
544.368011
 31
0.0
  0
LINE
  5
2F
100
AcDbEntity
  8
256
390
0
  6
Continuous
 62
     8
100
AcDbLine
 10
664.750031
 20
54.0
 30
0.0
 11
664.750031
 21
20.0
 31
0.0
  0
LINE
  5
30
100
AcDbEntity
  8
256
390
0
  6
Continuous
 62
     8
100
AcDbLine
 10
648.0
 20
574.0
 30
0.0
 11
648.0
 21
544.0
 31
0.0
  0
LINE
  5
31
100
AcDbEntity
  8
256
390
0
  6
Continuous
 62
     8
100
AcDbLine
 10
640.511017
 20
544.368011
 30
0.0
 11
645.511017
 21
544.368011
 31
0.0
  0
LINE
  5
32
100
AcDbEntity
  8
256
390
0
  6
Continuous
 62
     8
100
AcDbLine
 10
633.0
 20
48.0
 30
0.0
 11
682.0
 21
48.0
 31
0.0
  0
LINE
  5
33
100
AcDbEntity
  8
256
390
0
  6
Continuous
 62
     8
100
AcDbLine
 10
698.4
 20
41.0
 30
0.0
 11
698.4
 21
20.0
 31
0.0
  0
LINE
  5
34
100
AcDbEntity
  8
256
390
0
  6
Continuous
 62
     8
100
AcDbLine
 10
801.25
 20
564.0
 30
0.0
 11
801.25
 21
574.0
 31
0.0
  0
LINE
  5
35
100
AcDbEntity
  8
256
390
0
  6
Continuous
 62
     8
100
AcDbLine
 10
645.511017
 20
554.368011
 30
0.0
 11
643.011017
 21
558.664886
 31
0.0
  0
LINE
  5
36
100
AcDbEntity
  8
256
390
0
  6
Continuous
 62
     8
100
AcDbLine
 10
768.0
 20
569.0
 30
0.0
 11
638.0
 21
569.0
 31
0.0
  0
LINE
  5
37
100
AcDbEntity
  8
256
390
0
  6
Continuous
 62
     8
100
AcDbLine
 10
731.25
 20
20.0
 30
0.0
 11
731.25
 21
58.0
 31
0.0
  0
LINE
  5
38
100
AcDbEntity
  8
256
390
0
  6
Continuous
 62
     8
100
AcDbLine
 10
633.0
 20
30.5
 30
0.0
 11
682.0
 21
30.5
 31
0.0
  0
LINE
  5
39
100
AcDbEntity
  8
256
390
0
  6
Continuous
 62
     8
100
AcDbLine
 10
746.25
 20
25.666667
 30
0.0
 11
746.25
 21
58.0
 31
0.0
  0
LINE
  5
3A
100
AcDbEntity
  8
256
390
0
  6
Continuous
 62
     8
100
AcDbLine
 10
633.0
 20
44.5
 30
0.0
 11
682.0
 21
44.5
 31
0.0
  0
LINE
  5
3B
100
AcDbEntity
  8
256
390
0
  6
Continuous
 62
     8
100
AcDbLine
 10
640.511017
 20
549.368011
 30
0.0
 11
645.511017
 21
549.368011
 31
0.0
  0
LINE
  5
3C
100
AcDbEntity
  8
256
390
0
  6
Continuous
 62
     8
100
AcDbLine
 10
821.0
 20
544.0
 30
0.0
 11
638.0
 21
544.0
 31
0.0
  0
LINE
  5
3D
100
AcDbEntity
  8
256
390
0
  6
Continuous
 62
     8
100
AcDbLine
 10
768.0
 20
559.0
 30
0.0
 11
638.0
 21
559.0
 31
0.0
  0
LINE
  5
3E
100
AcDbEntity
  8
256
390
0
  6
Continuous
 62
     8
100
AcDbLine
 10
645.511017
 20
544.368011
 30
0.0
 11
643.011017
 21
548.664886
 31
0.0
  0
LINE
  5
3F
100
AcDbEntity
  8
256
390
0
  6
Continuous
 62
     8
100
AcDbLine
 10
645.511017
 20
549.368011
 30
0.0
 11
643.011017
 21
553.664886
 31
0.0
  0
LINE
  5
40
100
AcDbEntity
  8
256
390
0
  6
Continuous
 62
     8
100
AcDbLine
 10
633.0
 20
58.0
 30
0.0
 11
633.0
 21
20.0
 31
0.0
  0
LINE
  5
41
100
AcDbEntity
  8
256
390
0
  6
Continuous
 62
     8
100
AcDbLine
 10
633.0
 20
54.0
 30
0.0
 11
682.0
 21
54.0
 31
0.0
  0
LINE
  5
42
100
AcDbEntity
  8
256
390
0
  6
Continuous
 62
     8
100
AcDbLine
 10
659.000031
 20
54.0
 30
0.0
 11
659.000031
 21
20.0
 31
0.0
  0
LINE
  5
43
100
AcDbEntity
  8
256
390
0
  6
Continuous
 62
     8
100
AcDbLine
 10
731.25
 20
25.666667
 30
0.0
 11
821.0
 21
25.666667
 31
0.0
  0
LINE
  5
44
100
AcDbEntity
  8
256
390
0
  6
Continuous
 62
     8
100
AcDbLine
 10
761.25
 20
25.666667
 30
0.0
 11
761.25
 21
58.0
 31
0.0
  0
LINE
  5
45
100
AcDbEntity
  8
256
390
0
  6
Continuous
 62
     8
100
AcDbLine
 10
645.511017
 20
559.368011
 30
0.0
 11
643.011017
 21
563.664886
 31
0.0
  0
LINE
  5
46
100
AcDbEntity
  8
256
390
0
  6
Continuous
 62
     8
100
AcDbLine
 10
659.000031
 20
48.0
 30
0.0
 11
633.0
 21
54.0
 31
0.0
  0
LINE
  5
47
100
AcDbEntity
  8
256
390
0
  6
Continuous
 62
     8
100
AcDbLine
 10
640.511017
 20
564.368011
 30
0.0
 11
645.511017
 21
564.368011
 31
0.0
  0
LINE
  5
48
100
AcDbEntity
  8
256
390
0
  6
Continuous
 62
     8
100
AcDbLine
 10
796.25
 20
569.0
 30
0.0
 11
773.0
 21
569.0
 31
0.0
  0
LINE
  5
49
100
AcDbEntity
  8
256
390
0
  6
Continuous
 62
     8
100
AcDbLine
 10
633.0
 20
41.0
 30
0.0
 11
731.25
 21
41.0
 31
0.0
  0
LINE
  5
4A
100
AcDbEntity
  8
256
390
0
  6
Continuous
 62
     8
100
AcDbLine
 10
633.0
 20
37.5
 30
0.0
 11
682.0
 21
37.5
 31
0.0
  0
LINE
  5
4B
100
AcDbEntity
  8
256
390
0
  6
Continuous
 62
     8
100
AcDbLine
 10
682.0
 20
58.0
 30
0.0
 11
682.0
 21
20.0
 31
0.0
  0
LINE
  5
4C
100
AcDbEntity
  8
256
390
0
  6
Continuous
 62
     8
100
AcDbLine
 10
768.0
 20
574.0
 30
0.0
 11
768.0
 21
544.0
 31
0.0
  0
LINE
  5
4D
100
AcDbEntity
  8
256
390
0
  6
Continuous
 62
     8
100
AcDbLine
 10
753.0
 20
574.0
 30
0.0
 11
753.0
 21
544.0
 31
0.0
  0
LINE
  5
4E
100
AcDbEntity
  8
256
390
0
  6
Continuous
 62
     8
100
AcDbLine
 10
714.8
 20
58.0
 30
0.0
 11
714.8
 21
20.0
 31
0.0
  0
LINE
  5
4F
100
AcDbEntity
  8
256
390
0
  6
Continuous
 62
     8
100
AcDbLine
 10
682.0
 20
36.5
 30
0.0
 11
821.0
 21
36.5
 31
0.0
  0
LINE
  5
50
100
AcDbEntity
  8
256
390
0
  6
Continuous
 62
     8
100
AcDbLine
 10
738.0
 20
574.0
 30
0.0
 11
738.0
 21
544.0
 31
0.0
  0
LINE
  5
51
100
AcDbEntity
  8
256
390
0
  6
Continuous
 62
     8
100
AcDbLine
 10
643.011017
 20
553.664886
 30
0.0
 11
640.511017
 21
549.368011
 31
0.0
  0
LINE
  5
52
100
AcDbEntity
  8
256
390
0
  6
Continuous
 62
     8
100
AcDbLine
 10
746.25
 20
45.0
 30
0.0
 11
821.0
 21
45.0
 31
0.0
  0
LINE
  5
53
100
AcDbEntity
  8
256
390
0
  6
Continuous
 62
     8
100
AcDbLine
 10
676.250031
 20
54.0
 30
0.0
 11
676.250031
 21
20.0
 31
0.0
  0
LINE
  5
54
100
AcDbEntity
  8
256
390
0
  6
Continuous
 62
     8
100
AcDbLine
 10
638.000031
 20
20.0
 30
0.0
 11
821.0
 21
20.0
 31
0.0
  0
LINE
  5
55
100
AcDbEntity
  8
256
390
0
  6
Continuous
 62
     8
100
AcDbLine
 10
638.0
 20
574.0
 30
0.0
 11
638.0
 21
544.0
 31
0.0
  0
LINE
  5
56
100
AcDbEntity
  8
256
390
0
  6
Continuous
 62
     8
100
AcDbLine
 10
821.0
 20
20.0
 30
0.0
 11
821.0
 21
574.0
 31
0.0
  0
LINE
  5
57
100
AcDbEntity
  8
256
390
0
  6
Continuous
 62
     8
100
AcDbLine
 10
643.011017
 20
568.664886
 30
0.0
 11
640.511017
 21
564.368011
 31
0.0
  0
LINE
  5
58
100
AcDbEntity
  8
256
390
0
  6
Continuous
 62
     8
100
AcDbLine
 10
821.0
 20
564.0
 30
0.0
 11
638.0
 21
564.0
 31
0.0
  0
LINE
  5
59
100
AcDbEntity
  8
256
390
0
  6
Continuous
 62
     8
100
AcDbLine
 10
633.0
 20
27.0
 30
0.0
 11
682.0
 21
27.0
 31
0.0
  0
LINE
  5
5A
100
AcDbEntity
  8
256
390
0
  6
Continuous
 62
     8
100
AcDbLine
 10
796.25
 20
564.0
 30
0.0
 11
796.25
 21
574.0
 31
0.0
  0
LINE
  5
5B
100
AcDbEntity
  8
256
390
0
  6
Continuous
 62
     8
100
AcDbLine
 10
670.500031
 20
54.0
 30
0.0
 11
670.500031
 21
20.0
 31
0.0
  0
LINE
  5
5C
100
AcDbEntity
  8
256
390
0
  6
Continuous
 62
     8
100
AcDbLine
 10
20.0
 20
20.0
 30
0.0
 11
20.0
 21
574.0
 31
0.0
  0
LINE
  5
5D
100
AcDbEntity
  8
256
390
0
  6
Continuous
 62
     8
100
AcDbLine
 10
821.0
 20
554.0
 30
0.0
 11
638.0
 21
554.0
 31
0.0
  0
LINE
  5
5E
100
AcDbEntity
  8
256
390
0
  6
Continuous
 62
     8
100
AcDbLine
 10
633.0
 20
58.0
 30
0.0
 11
821.0
 21
58.0
 31
0.0
  0
LINE
  5
5F
100
AcDbEntity
  8
256
390
0
  6
Continuous
 62
     8
100
AcDbLine
 10
640.511017
 20
554.368011
 30
0.0
 11
645.511017
 21
554.368011
 31
0.0
  0
LINE
  5
60
100
AcDbEntity
  8
256
390
0
  6
Continuous
 62
     8
100
AcDbLine
 10
643.011017
 20
558.664886
 30
0.0
 11
640.511017
 21
554.368011
 31
0.0
  0
LINE
  5
61
100
AcDbEntity
  8
256
390
0
  6
Continuous
 62
     8
100
AcDbLine
 10
682.0
 20
51.0
 30
0.0
 11
746.25
 21
51.0
 31
0.0
  0
LINE
  5
62
100
AcDbEntity
  8
256
390
0
  6
Continuous
 62
     8
100
AcDbLine
 10
633.0
 20
34.0
 30
0.0
 11
682.0
 21
34.0
 31
0.0
  0
LINE
  5
63
100
AcDbEntity
  8
256
390
0
  6
Continuous
 62
     8
100
AcDbLine
 10
821.0
 20
574.0
 30
0.0
 11
20.0
 21
574.0
 31
0.0
  0
LINE
  5
64
100
AcDbEntity
  8
256
390
0
  6
Continuous
 62
     8
100
AcDbLine
 10
640.511017
 20
559.368011
 30
0.0
 11
645.511017
 21
559.368011
 31
0.0
  0
LINE
  5
65
100
AcDbEntity
  8
256
390
0
  6
Continuous
 62
     8
100
AcDbLine
 10
645.511017
 20
564.368011
 30
0.0
 11
643.011017
 21
568.664886
 31
0.0
  0
MTEXT
  5
66
100
AcDbEntity
  8
256
390
0
 62
     8
100
AcDbMText
 10
723.635249
 20
37.192702
 30
0.0
 40
3.386667
 41
17.518305
 71
     8
 72
     1
  1
承 認  
210
0.0
220
0.0
230
0.9999999999999999
 73
     1
 44
1.0
  0
MTEXT
  5
67
100
AcDbEntity
  8
256
390
0
 62
     8
100
AcDbMText
 10
771.144123
 20
544.648323
 30
0.0
 40
2.822222
 41
5.926666
 71
     8
 72
     1
  1
理  
210
0.0
220
0.0
230
1.0
 73
     1
 44
1.0
  0
MTEXT
  5
68
100
AcDbEntity
  8
256
390
0
 62
     8
100
AcDbMText
 10
657.368174
 20
27.744792
 30
0.0
 40
1.75
 41
33.138636
 71
     9
 72
     1
  1
 400を超え1000以下  
210
0.0
220
0.0
230
1.0
 73
     1
 44
1.0
  0
MTEXT
  5
69
100
AcDbEntity
  8
256
390
0
 62
     8
100
AcDbMText
 10
673.375031
 20
24.244792
 30
0.0
 40
1.75
 41
1.622727
 71
     8
 72
     1
  1
3  
210
0.0
220
0.0
230
1.0
 73
     1
 44
1.0
  0
MTEXT
  5
6A
100
AcDbEntity
  8
256
390
0
 62
     8
100
AcDbMText
 10
662.194503
 20
51.130456
 30
0.0
 40
1.7952
 41
8.04576
 71
     8
 72
     1
  1
精級  
210
0.0
220
0.0
230
1.0
 73
     1
 44
1.0
  0
MTEXT
  5
6B
100
AcDbEntity
  8
256
390
0
 62
     8
100
AcDbMText
 10
667.625031
 20
34.744792
 30
0.0
 40
1.75
 41
4.55
 71
     8
 72
     1
  1
0.3  
210
0.0
220
0.0
230
1.0
 73
     1
 44
1.0
  0
MTEXT
  5
6C
100
AcDbEntity
  8
256
390
0
 62
     8
100
AcDbMText
 10
747.916283
 20
570.043004
 30
0.0
 40
3.386667
 41
22.81382
 71
     8
 72
     1
  1
担当者     
210
0.0
220
0.0
230
0.9999999999999999
 73
     1
 44
1.0
  0
MTEXT
  5
6D
100
AcDbEntity
  8
256
390
0
 62
     8
100
AcDbMText
 10
667.625031
 20
45.244792
 30
0.0
 40
1.75
 41
3.993182
 71
     8
 72
     1
  1
0.1  
210
0.0
220
0.0
230
1.0
 73
     1
 44
1.0
  0
MTEXT
  5
6E
100
AcDbEntity
  8
256
390
0
 62
     8
100
AcDbMText
 10
667.625031
 20
31.244792
 30
0.0
 40
1.75
 41
4.55
 71
     8
 72
     1
  1
0.5  
210
0.0
220
0.0
230
1.0
 73
     1
 44
1.0
  0
MTEXT
  5
6F
100
AcDbEntity
  8
256
390
0
 62
     8
100
AcDbMText
 10
661.875031
 20
31.244792
 30
0.0
 40
1.75
 41
4.55
 71
     8
 72
     1
  1
0.2  
210
0.0
220
0.0
230
1.0
 73
     1
 44
1.0
  0
MTEXT
  5
70
100
AcDbEntity
  8
256
390
0
 62
     8
100
AcDbMText
 10
667.862574
 20
51.130456
 30
0.0
 40
1.7952
 41
7.6704
 71
     8
 72
     1
  1
中級  
210
0.0
220
0.0
230
1.0
 73
     1
 44
1.0
  0
MTEXT
  5
71
100
AcDbEntity
  8
256
390
0
 62
     8
100
AcDbMText
 10
661.875031
 20
45.244792
 30
0.0
 40
1.75
 41
6.586364
 71
     8
 72
     1
  1
0.05  
210
0.0
220
0.0
230
1.0
 73
     1
 44
1.0
  0
MTEXT
  5
72
100
AcDbEntity
  8
256
390
0
 62
     8
100
AcDbMText
 10
662.285089
 20
48.899072
 30
0.0
 40
2.0
 41
6.836364
 71
     8
 72
     1
  1
f %%p  
210
0.0
220
0.0
230
1.0
 73
     1
 44
1.0
  0
MTEXT
  5
73
100
AcDbEntity
  8
256
390
0
 62
     8
100
AcDbMText
 10
739.326914
 20
53.085358
 30
0.0
 40
3.386667
 41
17.30279
 71
     8
 72
     1
  1
尺 度  
210
0.0
220
0.0
230
0.9999999999999999
 73
     1
 44
1.0
  0
MTEXT
  5
74
100
AcDbEntity
  8
256
390
0
 62
     8
100
AcDbMText
 10
673.720794
 20
48.899072
 30
0.0
 40
2.0
 41
7.527273
 71
     8
 72
     1
  1
c %%p  
210
0.0
220
0.0
230
1.0
 73
     1
 44
1.0
  0
MTEXT
  5
75
100
AcDbEntity
  8
256
390
0
 62
     8
100
AcDbMText
 10
635.997916
 20
50.527019
 30
0.0
 40
1.5
 41
6.640909
 71
     8
 72
     1
  1
基準  
210
0.0
220
0.0
230
1.0
 73
     1
 44
1.0
  0
MTEXT
  5
76
100
AcDbEntity
  8
256
390
0
 62
     8
100
AcDbMText
 10
667.970794
 20
48.899072
 30
0.0
 40
2.0
 41
8.563636
 71
     8
 72
     1
  1
m %%p  
210
0.0
220
0.0
230
1.0
 73
     1
 44
1.0
  0
MTEXT
  5
77
100
AcDbEntity
  8
256
390
0
 62
     8
100
AcDbMText
 10
679.125015
 20
38.244792
 30
0.0
 40
1.75
 41
0.843182
 71
     8
 72
     1
  1
1  
210
0.0
220
0.0
230
1.0
 73
     1
 44
1.0
  0
MTEXT
  5
78
100
AcDbEntity
  8
256
390
0
 62
     8
100
AcDbMText
 10
661.875031
 20
34.744792
 30
0.0
 40
1.75
 41
6.586364
 71
     8
 72
     1
  1
0.15  
210
0.0
220
0.0
230
1.0
 73
     1
 44
1.0
  0
MTEXT
  5
79
100
AcDbEntity
  8
256
390
0
 62
     8
100
AcDbMText
 10
673.375031
 20
45.244792
 30
0.0
 40
1.75
 41
4.55
 71
     8
 72
     1
  1
0.2  
210
0.0
220
0.0
230
1.0
 73
     1
 44
1.0
  0
MTEXT
  5
7A
100
AcDbEntity
  8
256
390
0
 62
     8
100
AcDbMText
 10
723.505396
 20
52.98884
 30
0.0
 40
3.386667
 41
17.518305
 71
     8
 72
     1
  1
個 数  
210
0.0
220
0.0
230
0.9999999999999999
 73
     1
 44
1.0
  0
MTEXT
  5
7B
100
AcDbEntity
  8
256
390
0
 62
     8
100
AcDbMText
 10
739.350907
 20
29.857833
 30
0.0
 40
3.386667
 41
22.536729
 71
     8
 72
     1
  1
三角法  
210
0.0
220
0.0
230
0.9999999999999999
 73
     1
 44
1.0
  0
MTEXT
  5
7C
100
AcDbEntity
  8
256
390
0
 62
     8
100
AcDbMText
 10
679.125015
 20
24.244792
 30
0.0
 40
1.75
 41
1.590909
 71
     8
 72
     1
  1
6  
210
0.0
220
0.0
230
1.0
 73
     1
 44
1.0
  0
MTEXT
  5
7D
100
AcDbEntity
  8
256
390
0
 62
     8
100
AcDbMText
 10
657.430153
 20
38.244792
 30
0.0
 40
1.75
 41
27.395455
 71
     9
 72
     1
  1
   6を超え  30以下  
210
0.0
220
0.0
230
1.0
 73
     1
 44
1.0
  0
MTEXT
  5
7E
100
AcDbEntity
  8
256
390
0
 62
     8
100
AcDbMText
 10
694.32507
 20
570.037886
 30
0.0
 40
3.386667
 41
59.482188
 71
     8
 72
     1
  1
訂    正    内    容  
210
0.0
220
0.0
230
0.9999999999999999
 73
     1
 44
1.0
  0
MTEXT
  5
7F
100
AcDbEntity
  8
256
390
0
 62
     8
100
AcDbMText
 10
799.394123
 20
565.153542
 30
0.0
 40
3.386667
 41
6.958061
 71
     8
 72
     1
  1
取  
210
0.0
220
0.0
230
0.9999999999999999
 73
     1
 44
1.0
  0
MTEXT
  5
80
100
AcDbEntity
  8
256
390
0
 62
     8
100
AcDbMText
 10
673.375031
 20
31.244792
 30
0.0
 40
1.75
 41
4.263636
 71
     8
 72
     1
  1
1.2  
210
0.0
220
0.0
230
1.0
 73
     1
 44
1.0
  0
MTEXT
  5
81
100
AcDbEntity
  8
256
390
0
 62
     8
100
AcDbMText
 10
661.875031
 20
19.839584
 30
0.0
 40
2.54
 41
2.632364
 71
     8
 72
     1
  1
-  
210
0.0
220
0.0
230
1.0
 73
     1
 44
1.0
  0
MTEXT
  5
82
100
AcDbEntity
  8
256
390
0
 62
     8
100
AcDbMText
 10
725.981133
 20
42.8084
 30
0.0
 40
3.386667
 41
10.375516
 71
     8
 72
     1
  1
1台  
210
0.0
220
0.0
230
0.9999999999999999
 73
     1
 44
1.0
  0
MTEXT
  5
83
100
AcDbEntity
  8
256
390
0
 62
     8
100
AcDbMText
 10
657.383663
 20
31.244792
 30
0.0
 40
1.75
 41
32.056818
 71
     9
 72
     1
  1
 120を超え 400以下  
210
0.0
220
0.0
230
1.0
 73
     1
 44
1.0
  0
MTEXT
  5
84
100
AcDbEntity
  8
256
390
0
 62
     8
100
AcDbMText
 10
771.144123
 20
565.153542
 30
0.0
 40
3.386667
 41
6.68097
 71
     8
 72
     1
  1
上  
210
0.0
220
0.0
230
0.9999999999999999
 73
     1
 44
1.0
  0
MTEXT
  5
85
100
AcDbEntity
  8
256
390
0
 62
     8
100
AcDbMText
 10
661.875031
 20
27.744792
 30
0.0
 40
1.75
 41
4.55
 71
     8
 72
     1
  1
0.3  
210
0.0
220
0.0
230
1.0
 73
     1
 44
1.0
  0
MTEXT
  5
86
100
AcDbEntity
  8
256
390
0
 62
     8
100
AcDbMText
 10
679.125015
 20
44.339584
 30
0.0
 40
2.54
 41
2.632364
 71
     8
 72
     1
  1
-  
210
0.0
220
0.0
230
1.0
 73
     1
 44
1.0
  0
MTEXT
  5
87
100
AcDbEntity
  8
256
390
0
 62
     8
100
AcDbMText
 10
641.112783
 20
48.459307
 30
0.0
 40
1.5
 41
24.272727
 71
     8
 72
     1
  1
寸法の区分(mm)  
210
0.0
220
0.0
230
1.0
 73
     1
 44
1.0
  0
MTEXT
  5
88
100
AcDbEntity
  8
256
390
0
 62
     8
100
AcDbMText
 10
679.125015
 20
20.744792
 30
0.0
 40
1.75
 41
1.654545
 71
     8
 72
     1
  1
8  
210
0.0
220
0.0
230
1.0
 73
     1
 44
1.0
  0
MTEXT
  5
89
100
AcDbEntity
  8
256
390
0
 62
     8
100
AcDbMText
 10
657.818254
 20
55.299655
 30
0.0
 40
1.7
 41
74.846364
 71
     8
 72
     1
  1
削り加工寸法の普通許容差 JIS B 0405-1991  
210
0.0
220
0.0
230
1.0
 73
     1
 44
1.0
  0
MTEXT
  5
8A
100
AcDbEntity
  8
256
390
0
 62
     8
100
AcDbMText
 10
657.445896
 20
41.744792
 30
0.0
 40
1.75
 41
26.615909
 71
     9
 72
     1
  1
   3を超え   6以下  
210
0.0
220
0.0
230
1.0
 73
     1
 44
1.0
  0
MTEXT
  5
8B
100
AcDbEntity
  8
256
390
0
 62
     8
100
AcDbMText
 10
661.875031
 20
41.744792
 30
0.0
 40
1.75
 41
6.586364
 71
     8
 72
     1
  1
0.05  
210
0.0
220
0.0
230
1.0
 73
     1
 44
1.0
  0
MTEXT
  5
8C
100
AcDbEntity
  8
256
390
0
 62
     8
100
AcDbMText
 10
657.444454
 20
45.244792
 30
0.0
 40
1.75
 41
29.543182
 71
     9
 72
     1
  1
 0.5を超え   3以下  
210
0.0
220
0.0
230
1.0
 73
     1
 44
1.0
  0
MTEXT
  5
8D
100
AcDbEntity
  8
256
390
0
 62
     8
100
AcDbMText
 10
771.144123
 20
555.195383
 30
0.0
 40
3.386667
 41
7.112001
 71
     8
 72
     1
  1
理  
210
0.0
220
0.0
230
0.9999999999999999
 73
     1
 44
1.0
  0
MTEXT
  5
8E
100
AcDbEntity
  8
256
390
0
 62
     8
100
AcDbMText
 10
707.306767
 20
37.171049
 30
0.0
 40
3.386667
 41
17.025699
 71
     8
 72
     1
  1
検 図  
210
0.0
220
0.0
230
0.9999999999999999
 73
     1
 44
1.0
  0
MTEXT
  5
8F
100
AcDbEntity
  8
256
390
0
 62
     8
100
AcDbMText
 10
667.625031
 20
38.244792
 30
0.0
 40
1.75
 41
4.55
 71
     8
 72
     1
  1
0.2  
210
0.0
220
0.0
230
1.0
 73
     1
 44
1.0
  0
MTEXT
  5
90
100
AcDbEntity
  8
256
390
0
 62
     8
100
AcDbMText
 10
673.530644
 20
51.130456
 30
0.0
 40
1.7952
 41
7.9968
 71
     8
 72
     1
  1
粗級  
210
0.0
220
0.0
230
1.0
 73
     1
 44
1.0
  0
MTEXT
  5
91
100
AcDbEntity
  8
256
390
0
 62
     8
100
AcDbMText
 10
778.951587
 20
21.411563
 30
0.0
 40
3.386667
 41
99.506434
 71
     8
 72
     1
  1
双 葉 電 子 工 業 株 式 会 社  
210
0.0
220
0.0
230
0.9999999999999999
 73
     1
 44
1.0
  0
MTEXT
  5
92
100
AcDbEntity
  8
256
390
0
 62
     8
100
AcDbMText
 10
673.375031
 20
20.744792
 30
0.0
 40
1.75
 41
1.765909
 71
     8
 72
     1
  1
4  
210
0.0
220
0.0
230
1.0
 73
     1
 44
1.0
  0
MTEXT
  5
93
100
AcDbEntity
  8
256
390
0
 62
     8
100
AcDbMText
 10
673.375031
 20
27.744792
 30
0.0
 40
1.75
 41
1.622727
 71
     8
 72
     1
  1
2  
210
0.0
220
0.0
230
1.0
 73
     1
 44
1.0
  0
MTEXT
  5
94
100
AcDbEntity
  8
256
390
0
 62
     8
100
AcDbMText
 10
679.470778
 20
48.899072
 30
0.0
 40
2.0
 41
7.581818
 71
     8
 72
     1
  1
v %%p  
210
0.0
220
0.0
230
1.0
 73
     1
 44
1.0
  0
MTEXT
  5
95
100
AcDbEntity
  8
256
390
0
 62
     8
100
AcDbMText
 10
771.144123
 20
569.481157
 30
0.0
 40
3.386667
 41
7.050425
 71
     8
 72
     1
  1
仕  
210
0.0
220
0.0
230
0.9999999999999999
 73
     1
 44
1.0
  0
MTEXT
  5
96
100
AcDbEntity
  8
256
390
0
 62
     8
100
AcDbMText
 10
754.543944
 20
50.081463
 30
0.0
 40
3.386667
 41
17.210426
 71
     8
 72
     1
  1
名 称  
210
0.0
220
0.0
230
0.9999999999999999
 73
     1
 44
1.0
  0
MTEXT
  5
97
100
AcDbEntity
  8
256
390
0
 62
     8
100
AcDbMText
 10
698.783878
 20
52.892322
 30
0.0
 40
3.386667
 41
24.56873
 71
     8
 72
     1
  1
材    質  
210
0.0
220
0.0
230
0.9999999999999999
 73
     1
 44
1.0
  0
MTEXT
  5
98
100
AcDbEntity
  8
256
390
0
 62
     8
100
AcDbMText
 10
673.375031
 20
41.744792
 30
0.0
 40
1.75
 41
4.55
 71
     8
 72
     1
  1
0.3  
210
0.0
220
0.0
230
1.0
 73
     1
 44
1.0
  0
MTEXT
  5
99
100
AcDbEntity
  8
256
390
0
 62
     8
100
AcDbMText
 10
661.875031
 20
38.244792
 30
0.0
 40
1.75
 41
3.993182
 71
     8
 72
     1
  1
0.1  
210
0.0
220
0.0
230
1.0
 73
     1
 44
1.0
  0
MTEXT
  5
9A
100
AcDbEntity
  8
256
390
0
 62
     8
100
AcDbMText
 10
667.625031
 20
20.744792
 30
0.0
 40
1.75
 41
1.622727
 71
     8
 72
     1
  1
2  
210
0.0
220
0.0
230
1.0
 73
     1
 44
1.0
  0
MTEXT
  5
9B
100
AcDbEntity
  8
256
390
0
 62
     8
100
AcDbMText
 10
661.875031
 20
24.244792
 30
0.0
 40
1.75
 41
4.55
 71
     8
 72
     1
  1
0.5  
210
0.0
220
0.0
230
1.0
 73
     1
 44
1.0
  0
MTEXT
  5
9C
100
AcDbEntity
  8
256
390
0
 62
     8
100
AcDbMText
 10
673.375031
 20
34.744792
 30
0.0
 40
1.75
 41
4.565909
 71
     8
 72
     1
  1
0.8  
210
0.0
220
0.0
230
1.0
 73
     1
 44
1.0
  0
MTEXT
  5
9D
100
AcDbEntity
  8
256
390
0
 62
     8
100
AcDbMText
 10
679.125015
 20
34.744792
 30
0.0
 40
1.75
 41
4.263636
 71
     8
 72
     1
  1
1.5  
210
0.0
220
0.0
230
1.0
 73
     1
 44
1.0
  0
MTEXT
  5
9E
100
AcDbEntity
  8
256
390
0
 62
     8
100
AcDbMText
 10
754.350907
 20
39.412396
 30
0.0
 40
2.54
 41
22.998545
 71
     8
 72
     1
  1
部品番号  
210
0.0
220
0.0
230
1.0
 73
     1
 44
1.0
  0
MTEXT
  5
9F
100
AcDbEntity
  8
256
390
0
 62
     8
100
AcDbMText
 10
657.361108
 20
20.744792
 30
0.0
 40
1.75
 41
35.111364
 71
     9
 72
     1
  1
2000を超え4000以下  
210
0.0
220
0.0
230
1.0
 73
     1
 44
1.0
  0
MTEXT
  5
A0
100
AcDbEntity
  8
256
390
0
 62
     8
100
AcDbMText
 10
657.399214
 20
34.744792
 30
0.0
 40
1.75
 41
30.243182
 71
     9
 72
     1
  1
  30を超え 120以下  
210
0.0
220
0.0
230
1.0
 73
     1
 44
1.0
  0
MTEXT
  5
A1
100
AcDbEntity
  8
256
390
0
 62
     8
100
AcDbMText
 10
771.144123
 20
547.764109
 30
0.0
 40
2.822222
 41
5.875353
 71
     8
 72
     1
  1
処  
210
0.0
220
0.0
230
1.0
 73
     1
 44
1.0
  0
MTEXT
  5
A2
100
AcDbEntity
  8
256
390
0
 62
     8
100
AcDbMText
 10
679.375841
 20
51.198656
 30
0.0
 40
1.584
 41
10.8
 71
     8
 72
     1
  1
極粗級  
210
0.0
220
0.0
230
1.0
 73
     1
 44
1.0
  0
MTEXT
  5
A3
100
AcDbEntity
  8
256
390
0
 62
     8
100
AcDbMText
 10
667.625031
 20
24.244792
 30
0.0
 40
1.75
 41
4.263636
 71
     8
 72
     1
  1
1.2  
210
0.0
220
0.0
230
1.0
 73
     1
 44
1.0
  0
MTEXT
  5
A4
100
AcDbEntity
  8
256
390
0
 62
     8
100
AcDbMText
 10
673.375031
 20
38.244792
 30
0.0
 40
1.75
 41
4.55
 71
     8
 72
     1
  1
0.5  
210
0.0
220
0.0
230
1.0
 73
     1
 44
1.0
  0
MTEXT
  5
A5
100
AcDbEntity
  8
256
390
0
 62
     8
100
AcDbMText
 10
653.4153
 20
50.925781
 30
0.0
 40
1.5
 41
13.636364
 71
     8
 72
     1
  1
公差等級  
210
0.0
220
0.0
230
1.0
 73
     1
 44
1.0
  0
MTEXT
  5
A6
100
AcDbEntity
  8
256
390
0
 62
     8
100
AcDbMText
 10
771.144123
 20
550.879895
 30
0.0
 40
2.822222
 41
5.952323
 71
     8
 72
     1
  1
熱  
210
0.0
220
0.0
230
1.0
 73
     1
 44
1.0
  0
MTEXT
  5
A7
100
AcDbEntity
  8
256
390
0
 62
     8
100
AcDbMText
 10
657.369552
 20
24.244792
 30
0.0
 40
1.75
 41
34.888636
 71
     9
 72
     1
  1
1000を超え2000以下  
210
0.0
220
0.0
230
1.0
 73
     1
 44
1.0
  0
MTEXT
  5
A8
100
AcDbEntity
  8
256
390
0
 62
     8
100
AcDbMText
 10
667.625031
 20
27.744792
 30
0.0
 40
1.75
 41
4.565909
 71
     8
 72
     1
  1
0.8  
210
0.0
220
0.0
230
1.0
 73
     1
 44
1.0
  0
MTEXT
  5
A9
100
AcDbEntity
  8
256
390
0
 62
     8
100
AcDbMText
 10
679.125015
 20
31.244792
 30
0.0
 40
1.75
 41
4.486364
 71
     8
 72
     1
  1
2.5  
210
0.0
220
0.0
230
1.0
 73
     1
 44
1.0
  0
MTEXT
  5
AA
100
AcDbEntity
  8
256
390
0
 62
     8
100
AcDbMText
 10
679.125015
 20
27.744792
 30
0.0
 40
1.75
 41
1.765909
 71
     8
 72
     1
  1
4  
210
0.0
220
0.0
230
1.0
 73
     1
 44
1.0
  0
MTEXT
  5
AB
100
AcDbEntity
  8
256
390
0
 62
     8
100
AcDbMText
 10
643.790332
 20
570.160232
 30
0.0
 40
3.386667
 41
14.870547
 71
     8
 72
     1
  1
記号  
210
0.0
220
0.0
230
0.9999999999999999
 73
     1
 44
1.0
  0
MTEXT
  5
AC
100
AcDbEntity
  8
256
390
0
 62
     8
100
AcDbMText
 10
667.625031
 20
41.744792
 30
0.0
 40
1.75
 41
3.993182
 71
     8
 72
     1
  1
0.1  
210
0.0
220
0.0
230
1.0
 73
     1
 44
1.0
  0
MTEXT
  5
AD
100
AcDbEntity
  8
256
390
0
 62
     8
100
AcDbMText
 10
691.003285
 20
37.192702
 30
0.0
 40
3.386667
 41
17.241214
 71
     8
 72
     1
  1
設 計  
210
0.0
220
0.0
230
0.9999999999999999
 73
     1
 44
1.0
  0
MTEXT
  5
AE
100
AcDbEntity
  8
256
390
0
 62
     8
100
AcDbMText
 10
763.147927
 20
570.043004
 30
0.0
 40
3.386667
 41
21.551517
 71
     8
 72
     1
  1
年月日     
210
0.0
220
0.0
230
0.9999999999999999
 73
     1
 44
1.0
  0
MTEXT
  5
AF
100
AcDbEntity
  8
256
390
0
 62
     8
100
AcDbMText
 10
679.125015
 20
41.744792
 30
0.0
 40
1.75
 41
4.55
 71
     8
 72
     1
  1
0.5  
210
0.0
220
0.0
230
1.0
 73
     1
 44
1.0
  0
MTEXT
  5
B0
100
AcDbEntity
  8
256
390
0
 62
     8
100
AcDbMText
 10
799.394123
 20
569.481157
 30
0.0
 40
3.386667
 41
6.68097
 71
     8
 72
     1
  1
面  
210
0.0
220
0.0
230
0.9999999999999999
 73
     1
 44
1.0
  0
MTEXT
  5
B1
100
AcDbEntity
  8
256
390
0
 62
     8
100
AcDbMText
 10
771.144123
 20
559.439316
 30
0.0
 40
3.386667
 41
7.050425
 71
     8
 72
     1
  1
処  
210
0.0
220
0.0
230
0.9999999999999999
 73
     1
 44
1.0
  0
MTEXT
  5
B2
100
AcDbEntity
  8
256
390
0
 62
     8
100
AcDbMText
 10
754.543944
 20
29.954351
 30
0.0
 40
3.386667
 41
16.902547
 71
     8
 72
     1
  1
図 番  
210
0.0
220
0.0
230
0.9999999999999999
 73
     1
 44
1.0
  0
INSERT
  5
B7
100
AcDbEntity
  8
256
390
0
100
AcDbBlockReference
  2
AID278
 10
0.0
 20
0.0
 30
0.0
  0
LINE
  5
B9
100
AcDbEntity
  8
1
390
0
  6
Continuous
 62
     7
100
AcDbLine
 10
345.944691
 20
71.559472
 30
0.0
 11
345.907453
 21
71.49286
 31
0.0
  0
POLYLINE
  5
BB
100
AcDbEntity
  8
1
390
0
  6
DOT
 62
     9
100
AcDb2dPolyline
 66
     1
 10
0.0
 20
0.0
 30
0.0
 40
3.0
 41
3.0
  0
VERTEX
  5
BC
100
AcDbEntity
  8
1
390
0
 62
     9
100
AcDbVertex
100
AcDb2dVertex
 10
345.790529
 20
71.418524
 30
0.0
  0
VERTEX
  5
BD
100
AcDbEntity
  8
1
390
0
 62
     9
100
AcDbVertex
100
AcDb2dVertex
 10
345.873057
 20
71.49045
 30
0.0
  0
VERTEX
  5
BE
100
AcDbEntity
  8
1
390
0
 62
     9
100
AcDbVertex
100
AcDb2dVertex
 10
345.904229
 20
71.493833
 30
0.0
  0
SEQEND
  5
BF
100
AcDbEntity
  8
0
390
0
  0
LINE
  5
C0
100
AcDbEntity
  8
1
390
0
  6
DOT
 62
     9
100
AcDbLine
 10
345.904229
 20
71.493833
 30
0.0
 11
345.907453
 21
71.49286
 31
0.0
  0
POLYLINE
  5
C1
100
AcDbEntity
  8
1
390
0
  6
Continuous
 62
     7
100
AcDb2dPolyline
 66
     1
 10
0.0
 20
0.0
 30
0.0
 40
3.0
 41
3.0
  0
VERTEX
  5
C2
100
AcDbEntity
  8
1
390
0
 62
     7
100
AcDbVertex
100
AcDb2dVertex
 10
345.904229
 20
71.493833
 30
0.0
  0
VERTEX
  5
C3
100
AcDbEntity
  8
1
390
0
 62
     7
100
AcDbVertex
100
AcDb2dVertex
 10
345.808649
 20
71.439408
 30
0.0
  0
VERTEX
  5
C4
100
AcDbEntity
  8
1
390
0
 62
     7
100
AcDbVertex
100
AcDb2dVertex
 10
345.790529
 20
71.418524
 30
0.0
  0
SEQEND
  5
C5
100
AcDbEntity
  8
0
390
0
  0
ARC
  5
C6
100
AcDbEntity
  8
1
390
0
  6
Continuous
 62
     7
100
AcDbCircle
 10
313.577699
 20
95.530263
 30
0.0
 40
40.237326
210
0.0
220
0.0
230
1.0
100
AcDbArc
 50
320.635128
 51
323.184651
  0
ARC
  5
C7
100
AcDbEntity
  8
1
390
0
  6
Continuous
 62
     7
100
AcDbCircle
 10
289.580016
 20
24.291257
 30
0.0
 40
71.378945
210
0.0
220
0.0
230
1.0
100
AcDbArc
 50
38.040333
 51
39.464248
  0
POLYLINE
  5
C8
100
AcDbEntity
  8
1
390
0
  6
Continuous
 62
     7
100
AcDb2dPolyline
 66
     1
 10
0.0
 20
0.0
 30
0.0
 40
3.0
 41
3.0
  0
VERTEX
  5
C9
100
AcDbEntity
  8
1
390
0
 62
     7
100
AcDbVertex
100
AcDb2dVertex
 10
345.796443
 20
68.276107
 30
0.0
  0
VERTEX
  5
CA
100
AcDbEntity
  8
1
390
0
 62
     7
100
AcDbVertex
100
AcDb2dVertex
 10
345.876977
 20
68.213085
 30
0.0
  0
VERTEX
  5
CB
100
AcDbEntity
  8
1
390
0
 62
     7
100
AcDbVertex
100
AcDb2dVertex
 10
345.901272
 20
68.21196
 30
0.0
  0
SEQEND
  5
CC
100
AcDbEntity
  8
0
390
0
  0
LINE
  5
CD
100
AcDbEntity
  8
1
390
0
  6
Continuous
 62
     7
100
AcDbLine
 10
345.913405
 20
68.215312
 30
0.0
 11
345.944691
 21
68.159472
 31
0.0
  0
POLYLINE
  5
CE
100
AcDbEntity
  8
1
390
0
  6
DOT
 62
     9
100
AcDb2dPolyline
 66
     1
 10
0.0
 20
0.0
 30
0.0
 40
3.0
 41
3.0
  0
VERTEX
  5
CF
100
AcDbEntity
  8
1
390
0
 62
     9
100
AcDbVertex
100
AcDb2dVertex
 10
345.901272
 20
68.21196
 30
0.0
  0
VERTEX
  5
D0
100
AcDbEntity
  8
1
390
0
 62
     9
100
AcDbVertex
100
AcDb2dVertex
 10
345.805041
 20
68.266569
 30
0.0
  0
VERTEX
  5
D1
100
AcDbEntity
  8
1
390
0
 62
     9
100
AcDbVertex
100
AcDb2dVertex
 10
345.796443
 20
68.276107
 30
0.0
  0
SEQEND
  5
D2
100
AcDbEntity
  8
0
390
0
  0
ARC
  5
D3
100
AcDbEntity
  8
1
390
0
  6
DOT
 62
     9
100
AcDbCircle
 10
290.062017
 20
24.678135
 30
0.0
 40
70.760932
210
0.0
220
0.0
230
1.0
100
AcDbArc
 50
38.034114
 51
39.470467
  0
ARC
  5
D4
100
AcDbEntity
  8
1
390
0
  6
DOT
 62
     9
100
AcDbCircle
 10
306.975928
 20
100.704872
 30
0.0
 40
48.623693
210
0.0
220
0.0
230
1.0
100
AcDbArc
 50
320.85502
 51
322.964759
  0
LINE
  5
D5
100
AcDbEntity
  8
1
390
0
  6
Continuous
 62
     7
100
AcDbLine
 10
345.944691
 20
71.859472
 30
0.0
 11
339.944691
 21
71.859472
 31
0.0
  0
LINE
  5
D6
100
AcDbEntity
  8
1
390
0
  6
Continuous
 62
     7
100
AcDbLine
 10
345.844691
 20
68.059472
 30
0.0
 11
340.044691
 21
68.059472
 31
0.0
  0
LINE
  5
D7
100
AcDbEntity
  8
1
390
0
  6
Continuous
 62
     7
100
AcDbLine
 10
345.244691
 20
67.859472
 30
0.0
 11
340.644691
 21
67.859472
 31
0.0
  0
POLYLINE
  5
D8
100
AcDbEntity
  8
1
390
0
  6
Continuous
 62
     7
100
AcDb2dPolyline
 66
     1
 10
0.0
 20
0.0
 30
0.0
 40
3.0
 41
3.0
  0
VERTEX
  5
D9
100
AcDbEntity
  8
1
390
0
 62
     7
100
AcDbVertex
100
AcDb2dVertex
 10
346.459287
 20
70.009472
 30
0.0
 42
0.114329
  0
VERTEX
  5
DA
100
AcDbEntity
  8
1
390
0
 62
     7
100
AcDbVertex
100
AcDb2dVertex
 10
346.425427
 20
70.957145
 30
0.0
  0
VERTEX
  5
DB
100
AcDbEntity
  8
1
390
0
 62
     7
100
AcDbVertex
100
AcDb2dVertex
 10
346.377382
 20
71.083235
 30
0.0
  0
VERTEX
  5
DC
100
AcDbEntity
  8
1
390
0
 62
     7
100
AcDbVertex
100
AcDb2dVertex
 10
346.315219
 20
71.197027
 30
0.0
  0
VERTEX
  5
DD
100
AcDbEntity
  8
1
390
0
 62
     7
100
AcDbVertex
100
AcDb2dVertex
 10
346.239252
 20
71.294885
 30
0.0
  0
VERTEX
  5
DE
100
AcDbEntity
  8
1
390
0
 62
     7
100
AcDbVertex
100
AcDb2dVertex
 10
346.148495
 20
71.376405
 30
0.0
  0
VERTEX
  5
DF
100
AcDbEntity
  8
1
390
0
 62
     7
100
AcDbVertex
100
AcDb2dVertex
 10
346.041455
 20
71.441444
 30
0.0
  0
VERTEX
  5
E0
100
AcDbEntity
  8
1
390
0
 62
     7
100
AcDbVertex
100
AcDb2dVertex
 10
345.934085
 20
71.484527
 30
0.0
  0
SEQEND
  5
E1
100
AcDbEntity
  8
0
390
0
  0
POLYLINE
  5
E2
100
AcDbEntity
  8
1
390
0
  6
Continuous
 62
     7
100
AcDb2dPolyline
 66
     1
 10
0.0
 20
0.0
 30
0.0
 40
3.0
 41
3.0
  0
VERTEX
  5
E3
100
AcDbEntity
  8
1
390
0
 62
     7
100
AcDbVertex
100
AcDb2dVertex
 10
346.011402
 20
68.246487
 30
0.0
  0
VERTEX
  5
E4
100
AcDbEntity
  8
1
390
0
 62
     7
100
AcDbVertex
100
AcDb2dVertex
 10
346.13963
 20
68.305762
 30
0.0
  0
VERTEX
  5
E5
100
AcDbEntity
  8
1
390
0
 62
     7
100
AcDbVertex
100
AcDb2dVertex
 10
346.248809
 20
68.38592
 30
0.0
  0
VERTEX
  5
E6
100
AcDbEntity
  8
1
390
0
 62
     7
100
AcDbVertex
100
AcDb2dVertex
 10
346.331
 20
68.47641
 30
0.0
  0
VERTEX
  5
E7
100
AcDbEntity
  8
1
390
0
 62
     7
100
AcDbVertex
100
AcDb2dVertex
 10
346.399793
 20
68.586799
 30
0.0
  0
VERTEX
  5
E8
100
AcDbEntity
  8
1
390
0
 62
     7
100
AcDbVertex
100
AcDb2dVertex
 10
346.453296
 20
68.714278
 30
0.0
 42
0.131032
  0
VERTEX
  5
E9
100
AcDbEntity
  8
1
390
0
 62
     7
100
AcDbVertex
100
AcDb2dVertex
 10
346.469376
 20
69.659472
 30
0.0
  0
SEQEND
  5
EA
100
AcDbEntity
  8
0
390
0
  0
LINE
  5
EB
100
AcDbEntity
  8
1
390
0
  6
Continuous
 62
     7
100
AcDbLine
 10
346.011402
 20
68.246487
 30
0.0
 11
345.901272
 21
68.21196
 31
0.0
  0
POLYLINE
  5
EC
100
AcDbEntity
  8
1
390
0
  6
Continuous
 62
     7
100
AcDb2dPolyline
 66
     1
 10
0.0
 20
0.0
 30
0.0
 40
3.0
 41
3.0
  0
VERTEX
  5
ED
100
AcDbEntity
  8
1
390
0
 62
     7
100
AcDbVertex
100
AcDb2dVertex
 10
346.469376
 20
69.659472
 30
0.0
  0
VERTEX
  5
EE
100
AcDbEntity
  8
1
390
0
 62
     7
100
AcDbVertex
100
AcDb2dVertex
 10
346.448898
 20
69.789237
 30
0.0
  0
VERTEX
  5
EF
100
AcDbEntity
  8
1
390
0
 62
     7
100
AcDbVertex
100
AcDb2dVertex
 10
346.446541
 20
69.890938
 30
0.0
  0
VERTEX
  5
F0
100
AcDbEntity
  8
1
390
0
 62
     7
100
AcDbVertex
100
AcDb2dVertex
 10
346.459287
 20
70.009472
 30
0.0
  0
SEQEND
  5
F1
100
AcDbEntity
  8
0
390
0
  0
LINE
  5
F2
100
AcDbEntity
  8
1
390
0
  6
Continuous
 62
     7
100
AcDbLine
 10
360.944691
 20
68.159472
 30
0.0
 11
360.944691
 21
71.559472
 31
0.0
  0
POLYLINE
  5
F3
100
AcDbEntity
  8
1
390
0
  6
DOT
 62
     9
100
AcDb2dPolyline
 66
     1
 10
0.0
 20
0.0
 30
0.0
 40
3.0
 41
3.0
  0
VERTEX
  5
F4
100
AcDbEntity
  8
1
390
0
 62
     9
100
AcDbVertex
100
AcDb2dVertex
 10
345.934085
 20
71.484527
 30
0.0
  0
VERTEX
  5
F5
100
AcDbEntity
  8
1
390
0
 62
     9
100
AcDbVertex
100
AcDb2dVertex
 10
346.054545
 20
71.434853
 30
0.0
  0
VERTEX
  5
F6
100
AcDbEntity
  8
1
390
0
 62
     9
100
AcDbVertex
100
AcDb2dVertex
 10
346.16137
 20
71.366582
 30
0.0
  0
VERTEX
  5
F7
100
AcDbEntity
  8
1
390
0
 62
     9
100
AcDbVertex
100
AcDb2dVertex
 10
346.253265
 20
71.279297
 30
0.0
  0
VERTEX
  5
F8
100
AcDbEntity
  8
1
390
0
 62
     9
100
AcDbVertex
100
AcDb2dVertex
 10
346.329443
 20
71.174356
 30
0.0
  0
VERTEX
  5
F9
100
AcDbEntity
  8
1
390
0
 62
     9
100
AcDbVertex
100
AcDb2dVertex
 10
346.392942
 20
71.047286
 30
0.0
 42
-0.134172
  0
VERTEX
  5
FA
100
AcDbEntity
  8
1
390
0
 62
     9
100
AcDbVertex
100
AcDb2dVertex
 10
346.459287
 20
70.009472
 30
0.0
  0
SEQEND
  5
FB
100
AcDbEntity
  8
0
390
0
  0
POLYLINE
  5
FC
100
AcDbEntity
  8
1
390
0
  6
DOT
 62
     9
100
AcDb2dPolyline
 66
     1
 10
0.0
 20
0.0
 30
0.0
 40
3.0
 41
3.0
  0
VERTEX
  5
FD
100
AcDbEntity
  8
1
390
0
 62
     9
100
AcDbVertex
100
AcDb2dVertex
 10
346.459287
 20
70.009472
 30
0.0
  0
VERTEX
  5
FE
100
AcDbEntity
  8
1
390
0
 62
     9
100
AcDbVertex
100
AcDb2dVertex
 10
346.446154
 20
69.878668
 30
0.0
  0
VERTEX
  5
FF
100
AcDbEntity
  8
1
390
0
 62
     9
100
AcDbVertex
100
AcDb2dVertex
 10
346.450035
 20
69.776926
 30
0.0
  0
VERTEX
  5
100
100
AcDbEntity
  8
1
390
0
 62
     9
100
AcDbVertex
100
AcDb2dVertex
 10
346.469376
 20
69.659472
 30
0.0
  0
SEQEND
  5
101
100
AcDbEntity
  8
0
390
0
  0
POLYLINE
  5
102
100
AcDbEntity
  8
1
390
0
  6
DOT
 62
     9
100
AcDb2dPolyline
 66
     1
 10
0.0
 20
0.0
 30
0.0
 40
3.0
 41
3.0
  0
VERTEX
  5
103
100
AcDbEntity
  8
1
390
0
 62
     9
100
AcDbVertex
100
AcDb2dVertex
 10
346.469376
 20
69.659472
 30
0.0
 42
-0.114604
  0
VERTEX
  5
104
100
AcDbEntity
  8
1
390
0
 62
     9
100
AcDbVertex
100
AcDb2dVertex
 10
346.474259
 20
68.783616
 30
0.0
  0
VERTEX
  5
105
100
AcDbEntity
  8
1
390
0
 62
     9
100
AcDbVertex
100
AcDb2dVertex
 10
346.432808
 20
68.659053
 30
0.0
  0
VERTEX
  5
106
100
AcDbEntity
  8
1
390
0
 62
     9
100
AcDbVertex
100
AcDb2dVertex
 10
346.377766
 20
68.546671
 30
0.0
  0
VERTEX
  5
107
100
AcDbEntity
  8
1
390
0
 62
     9
100
AcDbVertex
100
AcDb2dVertex
 10
346.308725
 20
68.448411
 30
0.0
  0
VERTEX
  5
108
100
AcDbEntity
  8
1
390
0
 62
     9
100
AcDbVertex
100
AcDb2dVertex
 10
346.22536
 20
68.365561
 30
0.0
  0
VERTEX
  5
109
100
AcDbEntity
  8
1
390
0
 62
     9
100
AcDbVertex
100
AcDb2dVertex
 10
346.125372
 20
68.29757
 30
0.0
  0
VERTEX
  5
10A
100
AcDbEntity
  8
1
390
0
 62
     9
100
AcDbVertex
100
AcDb2dVertex
 10
346.011402
 20
68.246487
 30
0.0
  0
SEQEND
  5
10B
100
AcDbEntity
  8
0
390
0
  0
LINE
  5
10C
100
AcDbEntity
  8
1
390
0
  6
DOT
 62
     9
100
AcDbLine
 10
345.907453
 20
71.49286
 30
0.0
 11
345.934085
 21
71.484527
 31
0.0
  0
LINE
  5
10D
100
AcDbEntity
  8
1
390
0
  6
Continuous
 62
     7
100
AcDbLine
 10
344.444691
 20
467.859472
 30
0.0
 11
341.444691
 21
467.859472
 31
0.0
  0
LINE
  5
10E
100
AcDbEntity
  8
1
390
0
  6
Continuous
 62
     7
100
AcDbLine
 10
365.944691
 20
68.459472
 30
0.0
 11
365.944691
 21
71.259472
 31
0.0
  0
LINE
  5
10F
100
AcDbEntity
  8
1
390
0
  6
Continuous
 62
     7
100
AcDbLine
 10
339.944691
 20
71.859472
 30
0.0
 11
339.944691
 21
68.159472
 31
0.0
  0
LINE
  5
110
100
AcDbEntity
  8
1
390
0
  6
Continuous
 62
     7
100
AcDbLine
 10
345.944691
 20
71.559366
 30
0.0
 11
345.944691
 21
71.559472
 31
0.0
  0
LINE
  5
111
100
AcDbEntity
  8
1
390
0
  6
Continuous
 62
     7
100
AcDbLine
 10
345.944691
 20
71.559472
 30
0.0
 11
345.944691
 21
71.859472
 31
0.0
  0
ARC
  5
112
100
AcDbEntity
  8
1
390
0
  6
Continuous
 62
     7
100
AcDbCircle
 10
340.044691
 20
68.159472
 30
0.0
 40
0.1
210
0.0
220
0.0
230
1.0
100
AcDbArc
 50
180.0
 51
270.0
  0
ARC
  5
113
100
AcDbEntity
  8
1
390
0
  6
Continuous
 62
     7
100
AcDbCircle
 10
345.844691
 20
68.159472
 30
0.0
 40
0.1
210
0.0
220
0.0
230
0.9999999999999999
100
AcDbArc
 50
270.0
 51
360.0
  0
LINE
  5
114
100
AcDbEntity
  8
1
390
0
  6
Continuous
 62
     7
100
AcDbLine
 10
340.444691
 20
68.059472
 30
0.0
 11
340.644691
 21
67.859472
 31
0.0
  0
LINE
  5
115
100
AcDbEntity
  8
1
390
0
  6
Continuous
 62
     7
100
AcDbLine
 10
345.244691
 20
67.859472
 30
0.0
 11
345.444691
 21
68.059472
 31
0.0
  0
LINE
  5
116
100
AcDbEntity
  8
1
390
0
  6
Continuous
 62
     7
100
AcDbLine
 10
360.944691
 20
71.559472
 30
0.0
 11
345.944691
 21
71.559472
 31
0.0
  0
LINE
  5
117
100
AcDbEntity
  8
1
390
0
  6
Continuous
 62
     7
100
AcDbLine
 10
345.944691
 20
68.159472
 30
0.0
 11
360.944691
 21
68.159472
 31
0.0
  0
LINE
  5
118
100
AcDbEntity
  8
1
390
0
  6
Continuous
 62
     7
100
AcDbLine
 10
341.444691
 20
467.859472
 30
0.0
 11
341.444691
 21
71.859472
 31
0.0
  0
LINE
  5
119
100
AcDbEntity
  8
1
390
0
  6
Continuous
 62
     7
100
AcDbLine
 10
344.444691
 20
71.859472
 30
0.0
 11
344.444691
 21
467.859472
 31
0.0
  0
LINE
  5
11A
100
AcDbEntity
  8
1
390
0
  6
Continuous
 62
     7
100
AcDbLine
 10
365.944691
 20
71.259472
 30
0.0
 11
360.944691
 21
71.259472
 31
0.0
  0
LINE
  5
11B
100
AcDbEntity
  8
1
390
0
  6
Continuous
 62
     7
100
AcDbLine
 10
360.944691
 20
68.459472
 30
0.0
 11
365.944691
 21
68.459472
 31
0.0
  0
LINE
  5
11C
100
AcDbEntity
  8
1
390
0
  6
Continuous
 62
     7
100
AcDbLine
 10
415.846393
 20
71.109472
 30
0.0
 11
365.944691
 21
71.109472
 31
0.0
  0
LINE
  5
11D
100
AcDbEntity
  8
1
390
0
  6
Continuous
 62
     7
100
AcDbLine
 10
365.944691
 20
68.609472
 30
0.0
 11
415.121755
 21
68.609472
 31
0.0
  0
LINE
  5
11E
100
AcDbEntity
  8
1
390
0
  6
Continuous
 62
     7
100
AcDbLine
 10
511.176612
 20
67.109472
 30
0.0
 11
511.176612
 21
72.609472
 31
0.0
  0
LINE
  5
11F
100
AcDbEntity
  8
1
390
0
  6
Continuous
 62
     7
100
AcDbLine
 10
511.176612
 20
67.109472
 30
0.0
 11
509.576612
 21
67.109472
 31
0.0
  0
LINE
  5
120
100
AcDbEntity
  8
1
390
0
  6
Continuous
 62
     7
100
AcDbLine
 10
511.176612
 20
72.609472
 30
0.0
 11
509.576612
 21
72.609472
 31
0.0
  0
LINE
  5
121
100
AcDbEntity
  8
1
390
0
  6
Continuous
 62
     7
100
AcDbLine
 10
509.576612
 20
67.109472
 30
0.0
 11
509.576612
 21
72.609472
 31
0.0
  0
LINE
  5
122
100
AcDbEntity
  8
1
390
0
  6
Continuous
 62
     7
100
AcDbLine
 10
509.006668
 20
66.659472
 30
0.0
 11
509.006668
 21
73.059472
 31
0.0
  0
LINE
  5
123
100
AcDbEntity
  8
1
390
0
  6
Continuous
 62
     7
100
AcDbLine
 10
504.506668
 20
73.059472
 30
0.0
 11
504.506668
 21
72.859472
 31
0.0
  0
LINE
  5
124
100
AcDbEntity
  8
1
390
0
  6
Continuous
 62
     7
100
AcDbLine
 10
504.506668
 20
66.859472
 30
0.0
 11
504.506668
 21
66.659472
 31
0.0
  0
LINE
  5
125
100
AcDbEntity
  8
1
390
0
  6
Continuous
 62
     7
100
AcDbLine
 10
504.506668
 20
66.859472
 30
0.0
 11
502.606668
 21
66.859472
 31
0.0
  0
LINE
  5
126
100
AcDbEntity
  8
1
390
0
  6
Continuous
 62
     7
100
AcDbLine
 10
502.606668
 20
72.859472
 30
0.0
 11
502.606668
 21
66.859472
 31
0.0
  0
LINE
  5
127
100
AcDbEntity
  8
1
390
0
  6
Continuous
 62
     7
100
AcDbLine
 10
504.506668
 20
72.859472
 30
0.0
 11
502.606668
 21
72.859472
 31
0.0
  0
LINE
  5
128
100
AcDbEntity
  8
1
390
0
  6
Continuous
 62
     7
100
AcDbLine
 10
502.606668
 20
66.859472
 30
0.0
 11
502.506668
 21
66.859472
 31
0.0
  0
LINE
  5
129
100
AcDbEntity
  8
1
390
0
  6
Continuous
 62
     7
100
AcDbLine
 10
502.506668
 20
66.859472
 30
0.0
 11
502.506668
 21
72.859472
 31
0.0
  0
LINE
  5
12A
100
AcDbEntity
  8
1
390
0
  6
Continuous
 62
     7
100
AcDbLine
 10
502.506668
 20
72.859472
 30
0.0
 11
502.606668
 21
72.859472
 31
0.0
  0
LINE
  5
12B
100
AcDbEntity
  8
1
390
0
  6
Continuous
 62
     7
100
AcDbLine
 10
517.176612
 20
73.034472
 30
0.0
 11
517.176612
 21
69.859472
 31
0.0
  0
LINE
  5
12C
100
AcDbEntity
  8
1
390
0
  6
Continuous
 62
     7
100
AcDbLine
 10
517.076612
 20
66.784472
 30
0.0
 11
517.076612
 21
72.934472
 31
0.0
  0
LINE
  5
12D
100
AcDbEntity
  8
1
390
0
  6
Continuous
 62
     7
100
AcDbLine
 10
517.176612
 20
69.859472
 30
0.0
 11
517.176612
 21
66.684472
 31
0.0
  0
LINE
  5
12E
100
AcDbEntity
  8
1
390
0
  6
Continuous
 62
     7
100
AcDbLine
 10
512.176612
 20
73.034472
 30
0.0
 11
512.176612
 21
69.859472
 31
0.0
  0
LINE
  5
12F
100
AcDbEntity
  8
1
390
0
  6
Continuous
 62
     7
100
AcDbLine
 10
514.476612
 20
66.684472
 30
0.0
 11
514.476612
 21
73.034472
 31
0.0
  0
LINE
  5
130
100
AcDbEntity
  8
1
390
0
  6
Continuous
 62
     7
100
AcDbLine
 10
512.176612
 20
69.859472
 30
0.0
 11
512.176612
 21
66.684472
 31
0.0
  0
LINE
  5
131
100
AcDbEntity
  8
1
390
0
  6
Continuous
 62
     7
100
AcDbLine
 10
514.576612
 20
72.934472
 30
0.0
 11
514.576612
 21
66.784472
 31
0.0
  0
LINE
  5
132
100
AcDbEntity
  8
1
390
0
  6
Continuous
 62
     7
100
AcDbLine
 10
519.476612
 20
66.684472
 30
0.0
 11
519.476612
 21
73.034472
 31
0.0
  0
LINE
  5
133
100
AcDbEntity
  8
1
390
0
  6
Continuous
 62
     7
100
AcDbLine
 10
512.076612
 20
66.784472
 30
0.0
 11
512.076612
 21
72.934472
 31
0.0
  0
LINE
  5
134
100
AcDbEntity
  8
1
390
0
  6
Continuous
 62
     7
100
AcDbLine
 10
519.576612
 20
72.934472
 30
0.0
 11
519.576612
 21
66.784472
 31
0.0
  0
LINE
  5
135
100
AcDbEntity
  8
1
390
0
  6
Continuous
 62
     7
100
AcDbLine
 10
502.506668
 20
66.759472
 30
0.0
 11
502.506668
 21
66.859472
 31
0.0
  0
LINE
  5
136
100
AcDbEntity
  8
1
390
0
  6
Continuous
 62
     7
100
AcDbLine
 10
489.506668
 20
66.759472
 30
0.0
 11
489.506668
 21
72.959472
 31
0.0
  0
LINE
  5
137
100
AcDbEntity
  8
1
390
0
  6
Continuous
 62
     7
100
AcDbLine
 10
502.506668
 20
72.859472
 30
0.0
 11
502.506668
 21
72.959472
 31
0.0
  0
LINE
  5
138
100
AcDbEntity
  8
1
390
0
  6
Continuous
 62
     7
100
AcDbLine
 10
488.006668
 20
67.204375
 30
0.0
 11
488.006668
 21
72.514569
 31
0.0
  0
LINE
  5
139
100
AcDbEntity
  8
1
390
0
  6
Continuous
 62
     7
100
AcDbLine
 10
522.576612
 20
66.959472
 30
0.0
 11
522.576612
 21
72.759472
 31
0.0
  0
LINE
  5
13A
100
AcDbEntity
  8
1
390
0
  6
Continuous
 62
     7
100
AcDbLine
 10
475.506668
 20
67.859472
 30
0.0
 11
475.506668
 21
71.859472
 31
0.0
  0
LINE
  5
13B
100
AcDbEntity
  8
1
390
0
  6
Continuous
 62
     7
100
AcDbLine
 10
530.576612
 20
72.084472
 30
0.0
 11
530.576612
 21
67.634472
 31
0.0
  0
LINE
  5
13C
100
AcDbEntity
  8
1
390
0
  6
Continuous
 62
     7
100
AcDbLine
 10
509.006668
 20
73.059472
 30
0.0
 11
504.506668
 21
73.059472
 31
0.0
  0
LINE
  5
13D
100
AcDbEntity
  8
1
390
0
  6
Continuous
 62
     7
100
AcDbLine
 10
504.506668
 20
66.659472
 30
0.0
 11
509.006668
 21
66.659472
 31
0.0
  0
LINE
  5
13E
100
AcDbEntity
  8
1
390
0
  6
Continuous
 62
     7
100
AcDbLine
 10
517.176612
 20
73.034472
 30
0.0
 11
517.076612
 21
72.934472
 31
0.0
  0
LINE
  5
13F
100
AcDbEntity
  8
1
390
0
  6
Continuous
 62
     7
100
AcDbLine
 10
517.076612
 20
66.784472
 30
0.0
 11
517.176612
 21
66.684472
 31
0.0
  0
LINE
  5
140
100
AcDbEntity
  8
1
390
0
  6
Continuous
 62
     7
100
AcDbLine
 10
512.176612
 20
66.684472
 30
0.0
 11
514.476612
 21
66.684472
 31
0.0
  0
LINE
  5
141
100
AcDbEntity
  8
1
390
0
  6
Continuous
 62
     7
100
AcDbLine
 10
514.476612
 20
73.034472
 30
0.0
 11
512.176612
 21
73.034472
 31
0.0
  0
LINE
  5
142
100
AcDbEntity
  8
1
390
0
  6
Continuous
 62
     7
100
AcDbLine
 10
514.476612
 20
66.684472
 30
0.0
 11
514.576612
 21
66.784472
 31
0.0
  0
LINE
  5
143
100
AcDbEntity
  8
1
390
0
  6
Continuous
 62
     7
100
AcDbLine
 10
514.576612
 20
72.934472
 30
0.0
 11
514.476612
 21
73.034472
 31
0.0
  0
LINE
  5
144
100
AcDbEntity
  8
1
390
0
  6
Continuous
 62
     7
100
AcDbLine
 10
517.176612
 20
66.684472
 30
0.0
 11
519.476612
 21
66.684472
 31
0.0
  0
LINE
  5
145
100
AcDbEntity
  8
1
390
0
  6
Continuous
 62
     7
100
AcDbLine
 10
519.476612
 20
73.034472
 30
0.0
 11
517.176612
 21
73.034472
 31
0.0
  0
LINE
  5
146
100
AcDbEntity
  8
1
390
0
  6
Continuous
 62
     7
100
AcDbLine
 10
512.176612
 20
73.034472
 30
0.0
 11
512.076612
 21
72.934472
 31
0.0
  0
LINE
  5
147
100
AcDbEntity
  8
1
390
0
  6
Continuous
 62
     7
100
AcDbLine
 10
512.076612
 20
66.784472
 30
0.0
 11
512.176612
 21
66.684472
 31
0.0
  0
LINE
  5
148
100
AcDbEntity
  8
1
390
0
  6
Continuous
 62
     7
100
AcDbLine
 10
519.476612
 20
66.684472
 30
0.0
 11
519.576612
 21
66.784472
 31
0.0
  0
LINE
  5
149
100
AcDbEntity
  8
1
390
0
  6
Continuous
 62
     7
100
AcDbLine
 10
519.576612
 20
72.934472
 30
0.0
 11
519.476612
 21
73.034472
 31
0.0
  0
LINE
  5
14A
100
AcDbEntity
  8
1
390
0
  6
Continuous
 62
     7
100
AcDbLine
 10
489.506668
 20
66.759472
 30
0.0
 11
502.506668
 21
66.759472
 31
0.0
  0
LINE
  5
14B
100
AcDbEntity
  8
1
390
0
  6
Continuous
 62
     7
100
AcDbLine
 10
502.506668
 20
72.959472
 30
0.0
 11
489.506668
 21
72.959472
 31
0.0
  0
LINE
  5
14C
100
AcDbEntity
  8
1
390
0
  6
Continuous
 62
     7
100
AcDbLine
 10
489.506668
 20
72.959472
 30
0.0
 11
488.006668
 21
72.514569
 31
0.0
  0
LINE
  5
14D
100
AcDbEntity
  8
1
390
0
  6
Continuous
 62
     7
100
AcDbLine
 10
488.006668
 20
67.204375
 30
0.0
 11
489.506668
 21
66.759472
 31
0.0
  0
LINE
  5
14E
100
AcDbEntity
  8
1
390
0
  6
Continuous
 62
     7
100
AcDbLine
 10
514.576612
 20
66.859472
 30
0.0
 11
517.076612
 21
66.859472
 31
0.0
  0
LINE
  5
14F
100
AcDbEntity
  8
1
390
0
  6
Continuous
 62
     7
100
AcDbLine
 10
517.076612
 20
72.859472
 30
0.0
 11
514.576612
 21
72.859472
 31
0.0
  0
LINE
  5
150
100
AcDbEntity
  8
1
390
0
  6
Continuous
 62
     7
100
AcDbLine
 10
519.576612
 20
66.859472
 30
0.0
 11
522.476612
 21
66.859472
 31
0.0
  0
LINE
  5
151
100
AcDbEntity
  8
1
390
0
  6
Continuous
 62
     7
100
AcDbLine
 10
522.476612
 20
72.859472
 30
0.0
 11
519.576612
 21
72.859472
 31
0.0
  0
ARC
  5
152
100
AcDbEntity
  8
1
390
0
  6
Continuous
 62
     7
100
AcDbCircle
 10
522.476612
 20
66.959472
 30
0.0
 40
0.1
210
0.0
220
0.0
230
0.9999999999999999
100
AcDbArc
 50
270.0
 51
360.0
  0
ARC
  5
153
100
AcDbEntity
  8
1
390
0
  6
Continuous
 62
     7
100
AcDbCircle
 10
522.476612
 20
72.759472
 30
0.0
 40
0.1
210
0.0
220
0.0
230
1.0
100
AcDbArc
 50
0.0
 51
90.0
  0
LINE
  5
154
100
AcDbEntity
  8
1
390
0
  6
Continuous
 62
     7
100
AcDbLine
 10
511.176612
 20
67.184472
 30
0.0
 11
512.076612
 21
67.184472
 31
0.0
  0
LINE
  5
155
100
AcDbEntity
  8
1
390
0
  6
Continuous
 62
     7
100
AcDbLine
 10
512.076612
 20
72.534472
 30
0.0
 11
511.176612
 21
72.534472
 31
0.0
  0
LINE
  5
156
100
AcDbEntity
  8
1
390
0
  6
Continuous
 62
     7
100
AcDbLine
 10
488.006668
 20
72.514569
 30
0.0
 11
475.506668
 21
71.859472
 31
0.0
  0
LINE
  5
157
100
AcDbEntity
  8
1
390
0
  6
Continuous
 62
     7
100
AcDbLine
 10
475.506668
 20
67.859472
 30
0.0
 11
488.006668
 21
67.204375
 31
0.0
  0
LINE
  5
158
100
AcDbEntity
  8
1
390
0
  6
Continuous
 62
     7
100
AcDbLine
 10
509.006668
 20
67.359472
 30
0.0
 11
509.576612
 21
67.359472
 31
0.0
  0
LINE
  5
159
100
AcDbEntity
  8
1
390
0
  6
Continuous
 62
     7
100
AcDbLine
 10
509.576612
 20
72.359472
 30
0.0
 11
509.006668
 21
72.359472
 31
0.0
  0
LINE
  5
15A
100
AcDbEntity
  8
1
390
0
  6
Continuous
 62
     7
100
AcDbLine
 10
522.576612
 20
67.384472
 30
0.0
 11
530.326612
 21
67.384472
 31
0.0
  0
LINE
  5
15B
100
AcDbEntity
  8
1
390
0
  6
Continuous
 62
     7
100
AcDbLine
 10
530.326612
 20
72.334472
 30
0.0
 11
522.576612
 21
72.334472
 31
0.0
  0
ARC
  5
15C
100
AcDbEntity
  8
1
390
0
  6
Continuous
 62
     7
100
AcDbCircle
 10
530.326612
 20
72.084472
 30
0.0
 40
0.25
210
0.0
220
0.0
230
1.0
100
AcDbArc
 50
0.0
 51
90.0
  0
ARC
  5
15D
100
AcDbEntity
  8
1
390
0
  6
Continuous
 62
     7
100
AcDbCircle
 10
530.326612
 20
67.634472
 30
0.0
 40
0.25
210
0.0
220
0.0
230
1.0
100
AcDbArc
 50
270.0
 51
360.0
  0
LINE
  5
15E
100
AcDbEntity
  8
1
390
0
  6
Continuous
 62
     7
100
AcDbLine
 10
475.506668
 20
71.109472
 30
0.0
 11
420.846393
 21
71.109472
 31
0.0
  0
LINE
  5
15F
100
AcDbEntity
  8
1
390
0
  6
Continuous
 62
     7
100
AcDbLine
 10
420.121755
 20
68.609472
 30
0.0
 11
475.506668
 21
68.609472
 31
0.0
  0
LINE
  5
160
100
AcDbEntity
  8
1
390
0
  6
Continuous
 62
    11
100
AcDbLine
 10
414.790615
 20
67.467037
 30
0.0
 11
416.263778
 21
72.549451
 31
0.0
  0
LINE
  5
161
100
AcDbEntity
  8
1
390
0
  6
Continuous
 62
    11
100
AcDbLine
 10
419.790615
 20
67.467037
 30
0.0
 11
421.263778
 21
72.549451
 31
0.0
  0
LINE
  5
162
100
AcDbEntity
  8
1
390
0
  6
Continuous
 62
     7
100
AcDbLine
 10
184.382095
 20
71.859472
 30
0.0
 11
178.382095
 21
71.859472
 31
0.0
  0
POLYLINE
  5
163
100
AcDbEntity
  8
1
390
0
  6
DOT
 62
     9
100
AcDb2dPolyline
 66
     1
 10
0.0
 20
0.0
 30
0.0
 40
3.0
 41
3.0
  0
VERTEX
  5
164
100
AcDbEntity
  8
1
390
0
 62
     9
100
AcDbVertex
100
AcDb2dVertex
 10
180.432777
 20
71.418524
 30
0.0
  0
VERTEX
  5
165
100
AcDbEntity
  8
1
390
0
 62
     9
100
AcDbVertex
100
AcDb2dVertex
 10
180.472901
 20
71.433826
 30
0.0
  0
VERTEX
  5
166
100
AcDbEntity
  8
1
390
0
 62
     9
100
AcDbVertex
100
AcDb2dVertex
 10
180.513785
 20
71.447467
 30
0.0
  0
VERTEX
  5
167
100
AcDbEntity
  8
1
390
0
 62
     9
100
AcDbVertex
100
AcDb2dVertex
 10
180.555327
 20
71.459422
 30
0.0
  0
VERTEX
  5
168
100
AcDbEntity
  8
1
390
0
 62
     9
100
AcDbVertex
100
AcDb2dVertex
 10
180.597424
 20
71.469665
 30
0.0
  0
VERTEX
  5
169
100
AcDbEntity
  8
1
390
0
 62
     9
100
AcDbVertex
100
AcDb2dVertex
 10
180.641288
 20
71.478411
 30
0.0
  0
VERTEX
  5
16A
100
AcDbEntity
  8
1
390
0
 62
     9
100
AcDbVertex
100
AcDb2dVertex
 10
180.685667
 20
71.485342
 30
0.0
  0
VERTEX
  5
16B
100
AcDbEntity
  8
1
390
0
 62
     9
100
AcDbVertex
100
AcDb2dVertex
 10
180.73044
 20
71.49045
 30
0.0
  0
VERTEX
  5
16C
100
AcDbEntity
  8
1
390
0
 62
     9
100
AcDbVertex
100
AcDb2dVertex
 10
180.775488
 20
71.493727
 30
0.0
  0
VERTEX
  5
16D
100
AcDbEntity
  8
1
390
0
 62
     9
100
AcDbVertex
100
AcDb2dVertex
 10
180.804244
 20
71.494859
 30
0.0
  0
VERTEX
  5
16E
100
AcDbEntity
  8
1
390
0
 62
     9
100
AcDbVertex
100
AcDb2dVertex
 10
180.833074
 20
71.495254
 30
0.0
  0
VERTEX
  5
16F
100
AcDbEntity
  8
1
390
0
 62
     9
100
AcDbVertex
100
AcDb2dVertex
 10
180.862041
 20
71.494912
 30
0.0
  0
VERTEX
  5
170
100
AcDbEntity
  8
1
390
0
 62
     9
100
AcDbVertex
100
AcDb2dVertex
 10
180.891041
 20
71.493833
 30
0.0
  0
SEQEND
  5
171
100
AcDbEntity
  8
0
390
0
  0
LINE
  5
172
100
AcDbEntity
  8
1
390
0
  6
DOT
 62
     9
100
AcDbLine
 10
180.891041
 20
71.493833
 30
0.0
 11
180.910879
 21
71.49286
 31
0.0
  0
ARC
  5
173
100
AcDbEntity
  8
1
390
0
  6
DOT
 62
     9
100
AcDbCircle
 10
181.382095
 20
69.859336
 30
0.0
 40
1.700131
210
0.0
220
0.0
230
1.0
100
AcDbArc
 50
73.908962
 51
106.091038
  0
LINE
  5
174
100
AcDbEntity
  8
1
390
0
  6
DOT
 62
     9
100
AcDbLine
 10
181.853311
 20
71.49286
 30
0.0
 11
181.873149
 21
71.493833
 31
0.0
  0
POLYLINE
  5
175
100
AcDbEntity
  8
1
390
0
  6
DOT
 62
     9
100
AcDb2dPolyline
 66
     1
 10
0.0
 20
0.0
 30
0.0
 40
3.0
 41
3.0
  0
VERTEX
  5
176
100
AcDbEntity
  8
1
390
0
 62
     9
100
AcDbVertex
100
AcDb2dVertex
 10
181.873149
 20
71.493833
 30
0.0
  0
VERTEX
  5
177
100
AcDbEntity
  8
1
390
0
 62
     9
100
AcDbVertex
100
AcDb2dVertex
 10
181.916492
 20
71.495171
 30
0.0
  0
VERTEX
  5
178
100
AcDbEntity
  8
1
390
0
 62
     9
100
AcDbVertex
100
AcDb2dVertex
 10
181.959774
 20
71.494858
 30
0.0
  0
VERTEX
  5
179
100
AcDbEntity
  8
1
390
0
 62
     9
100
AcDbVertex
100
AcDb2dVertex
 10
182.00289
 20
71.492892
 30
0.0
  0
VERTEX
  5
17A
100
AcDbEntity
  8
1
390
0
 62
     9
100
AcDbVertex
100
AcDb2dVertex
 10
182.045734
 20
71.48927
 30
0.0
  0
VERTEX
  5
17B
100
AcDbEntity
  8
1
390
0
 62
     9
100
AcDbVertex
100
AcDb2dVertex
 10
182.089437
 20
71.483815
 30
0.0
  0
VERTEX
  5
17C
100
AcDbEntity
  8
1
390
0
 62
     9
100
AcDbVertex
100
AcDb2dVertex
 10
182.13278
 20
71.476605
 30
0.0
  0
VERTEX
  5
17D
100
AcDbEntity
  8
1
390
0
 62
     9
100
AcDbVertex
100
AcDb2dVertex
 10
182.175652
 20
71.467653
 30
0.0
  0
VERTEX
  5
17E
100
AcDbEntity
  8
1
390
0
 62
     9
100
AcDbVertex
100
AcDb2dVertex
 10
182.217943
 20
71.456973
 30
0.0
  0
VERTEX
  5
17F
100
AcDbEntity
  8
1
390
0
 62
     9
100
AcDbVertex
100
AcDb2dVertex
 10
182.246759
 20
71.448599
 30
0.0
  0
VERTEX
  5
180
100
AcDbEntity
  8
1
390
0
 62
     9
100
AcDbVertex
100
AcDb2dVertex
 10
182.27526
 20
71.439408
 30
0.0
  0
VERTEX
  5
181
100
AcDbEntity
  8
1
390
0
 62
     9
100
AcDbVertex
100
AcDb2dVertex
 10
182.303518
 20
71.429371
 30
0.0
  0
VERTEX
  5
182
100
AcDbEntity
  8
1
390
0
 62
     9
100
AcDbVertex
100
AcDb2dVertex
 10
182.331413
 20
71.418524
 30
0.0
  0
SEQEND
  5
183
100
AcDbEntity
  8
0
390
0
  0
ARC
  5
184
100
AcDbEntity
  8
1
390
0
  6
DOT
 62
     9
100
AcDbCircle
 10
180.950747
 20
68.459002
 30
0.0
 40
3.265733
210
0.0
220
0.0
230
1.0
100
AcDbArc
 50
28.344341
 51
64.990174
  0
ARC
  5
185
100
AcDbEntity
  8
1
390
0
  6
DOT
 62
     9
100
AcDbCircle
 10
181.091573
 20
71.128557
 30
0.0
 40
3.103156
210
0.0
220
0.0
230
1.0
100
AcDbArc
 50
293.189211
 51
331.743702
  0
POLYLINE
  5
186
100
AcDbEntity
  8
1
390
0
  6
DOT
 62
     9
100
AcDb2dPolyline
 66
     1
 10
0.0
 20
0.0
 30
0.0
 40
3.0
 41
3.0
  0
VERTEX
  5
187
100
AcDbEntity
  8
1
390
0
 62
     9
100
AcDbVertex
100
AcDb2dVertex
 10
182.313498
 20
68.276107
 30
0.0
  0
VERTEX
  5
188
100
AcDbEntity
  8
1
390
0
 62
     9
100
AcDbVertex
100
AcDb2dVertex
 10
182.273224
 20
68.26207
 30
0.0
  0
VERTEX
  5
189
100
AcDbEntity
  8
1
390
0
 62
     9
100
AcDbVertex
100
AcDb2dVertex
 10
182.23224
 20
68.249696
 30
0.0
  0
VERTEX
  5
18A
100
AcDbEntity
  8
1
390
0
 62
     9
100
AcDbVertex
100
AcDb2dVertex
 10
182.190649
 20
68.239006
 30
0.0
  0
VERTEX
  5
18B
100
AcDbEntity
  8
1
390
0
 62
     9
100
AcDbVertex
100
AcDb2dVertex
 10
182.148554
 20
68.230024
 30
0.0
  0
VERTEX
  5
18C
100
AcDbEntity
  8
1
390
0
 62
     9
100
AcDbVertex
100
AcDb2dVertex
 10
182.104748
 20
68.222569
 30
0.0
  0
VERTEX
  5
18D
100
AcDbEntity
  8
1
390
0
 62
     9
100
AcDbVertex
100
AcDb2dVertex
 10
182.060483
 20
68.216921
 30
0.0
  0
VERTEX
  5
18E
100
AcDbEntity
  8
1
390
0
 62
     9
100
AcDbVertex
100
AcDb2dVertex
 10
182.015878
 20
68.213085
 30
0.0
  0
VERTEX
  5
18F
100
AcDbEntity
  8
1
390
0
 62
     9
100
AcDbVertex
100
AcDb2dVertex
 10
181.971053
 20
68.211065
 30
0.0
  0
VERTEX
  5
190
100
AcDbEntity
  8
1
390
0
 62
     9
100
AcDbVertex
100
AcDb2dVertex
 10
181.930922
 20
68.210794
 30
0.0
  0
VERTEX
  5
191
100
AcDbEntity
  8
1
390
0
 62
     9
100
AcDbVertex
100
AcDb2dVertex
 10
181.890649
 20
68.21196
 30
0.0
  0
SEQEND
  5
192
100
AcDbEntity
  8
0
390
0
  0
LINE
  5
193
100
AcDbEntity
  8
1
390
0
  6
DOT
 62
     9
100
AcDbLine
 10
181.890649
 20
68.21196
 30
0.0
 11
181.814226
 21
68.215312
 31
0.0
  0
ARC
  5
194
100
AcDbEntity
  8
1
390
0
  6
DOT
 62
     9
100
AcDbCircle
 10
181.382068
 20
69.859684
 30
0.0
 40
1.700212
210
0.0
220
0.0
230
1.0
100
AcDbArc
 50
270.000924
 51
284.724942
  0
ARC
  5
195
100
AcDbEntity
  8
1
390
0
  6
DOT
 62
     9
100
AcDbCircle
 10
181.382095
 20
69.859472
 30
0.0
 40
1.7
210
0.0
220
0.0
230
1.0
100
AcDbArc
 50
255.274134
 51
270.0
  0
LINE
  5
196
100
AcDbEntity
  8
1
390
0
  6
DOT
 62
     9
100
AcDbLine
 10
180.949964
 20
68.215312
 30
0.0
 11
180.873541
 21
68.21196
 31
0.0
  0
POLYLINE
  5
197
100
AcDbEntity
  8
1
390
0
  6
DOT
 62
     9
100
AcDb2dPolyline
 66
     1
 10
0.0
 20
0.0
 30
0.0
 40
3.0
 41
3.0
  0
VERTEX
  5
198
100
AcDbEntity
  8
1
390
0
 62
     9
100
AcDbVertex
100
AcDb2dVertex
 10
180.873541
 20
68.21196
 30
0.0
  0
VERTEX
  5
199
100
AcDbEntity
  8
1
390
0
 62
     9
100
AcDbVertex
100
AcDb2dVertex
 10
180.820886
 20
68.210728
 30
0.0
  0
VERTEX
  5
19A
100
AcDbEntity
  8
1
390
0
 62
     9
100
AcDbVertex
100
AcDb2dVertex
 10
180.768377
 20
68.211957
 30
0.0
  0
VERTEX
  5
19B
100
AcDbEntity
  8
1
390
0
 62
     9
100
AcDbVertex
100
AcDb2dVertex
 10
180.716206
 20
68.215654
 30
0.0
  0
VERTEX
  5
19C
100
AcDbEntity
  8
1
390
0
 62
     9
100
AcDbVertex
100
AcDb2dVertex
 10
180.663284
 20
68.222004
 30
0.0
  0
VERTEX
  5
19D
100
AcDbEntity
  8
1
390
0
 62
     9
100
AcDbVertex
100
AcDb2dVertex
 10
180.610915
 20
68.230945
 30
0.0
  0
VERTEX
  5
19E
100
AcDbEntity
  8
1
390
0
 62
     9
100
AcDbVertex
100
AcDb2dVertex
 10
180.559302
 20
68.242454
 30
0.0
  0
VERTEX
  5
19F
100
AcDbEntity
  8
1
390
0
 62
     9
100
AcDbVertex
100
AcDb2dVertex
 10
180.531768
 20
68.24974
 30
0.0
  0
VERTEX
  5
1A0
100
AcDbEntity
  8
1
390
0
 62
     9
100
AcDbVertex
100
AcDb2dVertex
 10
180.504502
 20
68.25777
 30
0.0
  0
VERTEX
  5
1A1
100
AcDbEntity
  8
1
390
0
 62
     9
100
AcDbVertex
100
AcDb2dVertex
 10
180.477442
 20
68.266569
 30
0.0
  0
VERTEX
  5
1A2
100
AcDbEntity
  8
1
390
0
 62
     9
100
AcDbVertex
100
AcDb2dVertex
 10
180.450692
 20
68.276107
 30
0.0
  0
SEQEND
  5
1A3
100
AcDbEntity
  8
0
390
0
  0
ARC
  5
1A4
100
AcDbEntity
  8
1
390
0
  6
DOT
 62
     9
100
AcDbCircle
 10
181.732333
 20
71.193802
 30
0.0
 40
3.186777
210
0.0
220
0.0
230
1.0
100
AcDbArc
 50
208.781295
 51
246.285792
  0
ARC
  5
1A5
100
AcDbEntity
  8
1
390
0
  6
DOT
 62
     9
100
AcDbCircle
 10
181.757335
 20
68.518474
 30
0.0
 40
3.18822
210
0.0
220
0.0
230
1.0
100
AcDbArc
 50
114.547899
 51
152.117586
  0
LINE
  5
1A6
100
AcDbEntity
  8
1
390
0
  6
Continuous
 62
     7
100
AcDbLine
 10
184.282095
 20
68.059472
 30
0.0
 11
178.482095
 21
68.059472
 31
0.0
  0
LINE
  5
1A7
100
AcDbEntity
  8
1
390
0
  6
Continuous
 62
     7
100
AcDbLine
 10
183.682095
 20
67.859472
 30
0.0
 11
181.382095
 21
67.859472
 31
0.0
  0
LINE
  5
1A8
100
AcDbEntity
  8
1
390
0
  6
Continuous
 62
     7
100
AcDbLine
 10
181.382095
 20
67.859472
 30
0.0
 11
179.082095
 21
67.859472
 31
0.0
  0
LINE
  5
1A9
100
AcDbEntity
  8
1
390
0
  6
Continuous
 62
     7
100
AcDbLine
 10
182.882095
 20
467.859472
 30
0.0
 11
179.882095
 21
467.859472
 31
0.0
  0
ARC
  5
1AA
100
AcDbEntity
  8
1
390
0
  6
DOT
 62
     9
100
AcDbCircle
 10
181.38204
 20
69.859517
 30
0.0
 40
1.70006
210
0.0
220
0.0
230
1.0
100
AcDbArc
 50
288.412375
 51
353.242397
  0
ARC
  5
1AB
100
AcDbEntity
  8
1
390
0
  6
DOT
 62
     9
100
AcDbCircle
 10
181.382095
 20
69.859472
 30
0.0
 40
1.7
210
0.0
220
0.0
230
1.0
100
AcDbArc
 50
186.756327
 51
251.588901
  0
ARC
  5
1AC
100
AcDbEntity
  8
1
390
0
  6
DOT
 62
     9
100
AcDbCircle
 10
181.382095
 20
69.859472
 30
0.0
 40
1.7
210
0.0
220
0.0
230
1.0
100
AcDbArc
 50
5.062093
 51
72.923729
  0
ARC
  5
1AD
100
AcDbEntity
  8
1
390
0
  6
DOT
 62
     9
100
AcDbCircle
 10
181.382124
 20
69.859449
 30
0.0
 40
1.700031
210
0.0
220
0.0
230
1.0
100
AcDbArc
 50
107.076977
 51
174.937201
  0
LINE
  5
1AE
100
AcDbEntity
  8
1
390
0
  6
DOT
 62
     9
100
AcDbLine
 10
180.845179
 20
68.246487
 30
0.0
 11
180.949964
 21
68.215312
 31
0.0
  0
LINE
  5
1AF
100
AcDbEntity
  8
1
390
0
  6
DOT
 62
     9
100
AcDbLine
 10
181.814226
 20
68.215312
 30
0.0
 11
181.919011
 21
68.246487
 31
0.0
  0
LINE
  5
1B0
100
AcDbEntity
  8
1
390
0
  6
DOT
 62
     9
100
AcDbLine
 10
181.881291
 20
71.484527
 30
0.0
 11
181.853311
 21
71.49286
 31
0.0
  0
LINE
  5
1B1
100
AcDbEntity
  8
1
390
0
  6
DOT
 62
     9
100
AcDbLine
 10
180.910879
 20
71.49286
 30
0.0
 11
180.882899
 21
71.484527
 31
0.0
  0
POLYLINE
  5
1B2
100
AcDbEntity
  8
1
390
0
  6
DOT
 62
     9
100
AcDb2dPolyline
 66
     1
 10
0.0
 20
0.0
 30
0.0
 40
3.0
 41
3.0
  0
VERTEX
  5
1B3
100
AcDbEntity
  8
1
390
0
 62
     9
100
AcDbVertex
100
AcDb2dVertex
 10
179.688726
 20
70.009472
 30
0.0
  0
VERTEX
  5
1B4
100
AcDbEntity
  8
1
390
0
 62
     9
100
AcDbVertex
100
AcDb2dVertex
 10
179.682203
 20
69.878668
 30
0.0
  0
VERTEX
  5
1B5
100
AcDbEntity
  8
1
390
0
 62
     9
100
AcDbVertex
100
AcDb2dVertex
 10
179.684103
 20
69.776926
 30
0.0
  0
VERTEX
  5
1B6
100
AcDbEntity
  8
1
390
0
 62
     9
100
AcDbVertex
100
AcDb2dVertex
 10
179.693901
 20
69.659472
 30
0.0
  0
SEQEND
  5
1B7
100
AcDbEntity
  8
0
390
0
  0
POLYLINE
  5
1B8
100
AcDbEntity
  8
1
390
0
  6
DOT
 62
     9
100
AcDb2dPolyline
 66
     1
 10
0.0
 20
0.0
 30
0.0
 40
3.0
 41
3.0
  0
VERTEX
  5
1B9
100
AcDbEntity
  8
1
390
0
 62
     9
100
AcDbVertex
100
AcDb2dVertex
 10
183.070289
 20
69.659472
 30
0.0
  0
VERTEX
  5
1BA
100
AcDbEntity
  8
1
390
0
 62
     9
100
AcDbVertex
100
AcDb2dVertex
 10
183.080644
 20
69.789237
 30
0.0
  0
VERTEX
  5
1BB
100
AcDbEntity
  8
1
390
0
 62
     9
100
AcDbVertex
100
AcDb2dVertex
 10
183.081801
 20
69.890938
 30
0.0
  0
VERTEX
  5
1BC
100
AcDbEntity
  8
1
390
0
 62
     9
100
AcDbVertex
100
AcDb2dVertex
 10
183.075464
 20
70.009472
 30
0.0
  0
SEQEND
  5
1BD
100
AcDbEntity
  8
0
390
0
  0
CIRCLE
  5
1BE
100
AcDbEntity
  8
1
390
0
  6
DOT
 62
     9
100
AcDbCircle
 10
181.382095
 20
69.859472
 30
0.0
 40
1.4
210
0.0
220
0.0
230
0.9999999999999999
  0
CIRCLE
  5
1BF
100
AcDbEntity
  8
1
390
0
  6
DOT
 62
     9
100
AcDbCircle
 10
181.382095
 20
69.859472
 30
0.0
 40
1.25
210
0.0
220
0.0
230
1.0
  0
ARC
  5
1C0
100
AcDbEntity
  8
1
390
0
  6
DOT
 62
     9
100
AcDbCircle
 10
181.382095
 20
69.859472
 30
0.0
 40
2.655097
210
0.0
220
0.0
230
1.0
100
AcDbArc
 50
90.0
 51
124.398893
  0
ARC
  5
1C1
100
AcDbEntity
  8
1
390
0
  6
Continuous
 62
     7
100
AcDbCircle
 10
181.382095
 20
69.859472
 30
0.0
 40
2.655097
210
0.0
220
0.0
230
1.0
100
AcDbArc
 50
124.398893
 51
131.125732
  0
ARC
  5
1C2
100
AcDbEntity
  8
1
390
0
  6
DOT
 62
     9
100
AcDbCircle
 10
181.382095
 20
69.859472
 30
0.0
 40
2.655097
210
0.0
220
0.0
230
0.9999999999999999
100
AcDbArc
 50
131.125732
 51
222.682975
  0
ARC
  5
1C3
100
AcDbEntity
  8
1
390
0
  6
DOT
 62
     9
100
AcDbCircle
 10
181.382095
 20
69.859472
 30
0.0
 40
2.655097
210
0.0
220
0.0
230
1.0
100
AcDbArc
 50
222.682975
 51
228.874268
  0
ARC
  5
1C4
100
AcDbEntity
  8
1
390
0
  6
Continuous
 62
     7
100
AcDbCircle
 10
181.382095
 20
69.859472
 30
0.0
 40
2.655097
210
0.0
220
0.0
230
1.0
100
AcDbArc
 50
228.874268
 51
311.125732
  0
ARC
  5
1C5
100
AcDbEntity
  8
1
390
0
  6
DOT
 62
     9
100
AcDbCircle
 10
181.382095
 20
69.859472
 30
0.0
 40
2.655097
210
0.0
220
0.0
230
1.0
100
AcDbArc
 50
311.125732
 51
317.317025
  0
ARC
  5
1C6
100
AcDbEntity
  8
1
390
0
  6
DOT
 62
     9
100
AcDbCircle
 10
181.382095
 20
69.859472
 30
0.0
 40
2.655097
210
0.0
220
0.0
230
1.0
100
AcDbArc
 50
317.317025
 51
48.874268
  0
ARC
  5
1C7
100
AcDbEntity
  8
1
390
0
  6
Continuous
 62
     7
100
AcDbCircle
 10
181.382095
 20
69.859472
 30
0.0
 40
2.655097
210
0.0
220
0.0
230
0.9999999999999999
100
AcDbArc
 50
48.874268
 51
55.601107
  0
ARC
  5
1C8
100
AcDbEntity
  8
1
390
0
  6
DOT
 62
     9
100
AcDbCircle
 10
181.382095
 20
69.859472
 30
0.0
 40
2.655097
210
0.0
220
0.0
230
1.0
100
AcDbArc
 50
55.601107
 51
90.0
  0
ARC
  5
1C9
100
AcDbEntity
  8
1
390
0
  6
DOT
 62
     9
100
AcDbCircle
 10
181.382095
 20
69.859472
 30
0.0
 40
2.0
210
0.0
220
0.0
230
1.0
100
AcDbArc
 50
90.0
 51
244.158067
  0
ARC
  5
1CA
100
AcDbEntity
  8
1
390
0
  6
DOT
 62
     9
100
AcDbCircle
 10
181.382095
 20
69.859472
 30
0.0
 40
2.0
210
0.0
220
0.0
230
1.0
100
AcDbArc
 50
244.158067
 51
270.0
  0
ARC
  5
1CB
100
AcDbEntity
  8
1
390
0
  6
DOT
 62
     9
100
AcDbCircle
 10
181.382095
 20
69.859472
 30
0.0
 40
2.0
210
0.0
220
0.0
230
1.0
100
AcDbArc
 50
270.0
 51
295.841933
  0
ARC
  5
1CC
100
AcDbEntity
  8
1
390
0
  6
DOT
 62
     9
100
AcDbCircle
 10
181.382095
 20
69.859472
 30
0.0
 40
2.0
210
0.0
220
0.0
230
1.0
100
AcDbArc
 50
295.841933
 51
90.0
  0
ARC
  5
1CD
100
AcDbEntity
  8
1
390
0
  6
DOT
 62
     9
100
AcDbCircle
 10
181.382095
 20
69.859472
 30
0.0
 40
3.1
210
0.0
220
0.0
230
1.0
100
AcDbArc
 50
90.0
 51
118.938528
  0
ARC
  5
1CE
100
AcDbEntity
  8
1
390
0
  6
Continuous
 62
     7
100
AcDbCircle
 10
181.382095
 20
69.859472
 30
0.0
 40
3.1
210
0.0
220
0.0
230
1.0
100
AcDbArc
 50
118.938528
 51
139.82223
  0
ARC
  5
1CF
100
AcDbEntity
  8
1
390
0
  6
DOT
 62
     9
100
AcDbCircle
 10
181.382095
 20
69.859472
 30
0.0
 40
3.1
210
0.0
220
0.0
230
0.9999999999999999
100
AcDbArc
 50
139.82223
 51
165.407449
  0
ARC
  5
1D0
100
AcDbEntity
  8
1
390
0
  6
Continuous
 62
     7
100
AcDbCircle
 10
181.382095
 20
69.859472
 30
0.0
 40
3.1
210
0.0
220
0.0
230
1.0
100
AcDbArc
 50
165.407449
 51
194.592551
  0
ARC
  5
1D1
100
AcDbEntity
  8
1
390
0
  6
DOT
 62
     9
100
AcDbCircle
 10
181.382095
 20
69.859472
 30
0.0
 40
3.1
210
0.0
220
0.0
230
1.0
100
AcDbArc
 50
194.592551
 51
215.495933
  0
ARC
  5
1D2
100
AcDbEntity
  8
1
390
0
  6
Continuous
 62
     7
100
AcDbCircle
 10
181.382095
 20
69.859472
 30
0.0
 40
3.1
210
0.0
220
0.0
230
1.0
100
AcDbArc
 50
215.495933
 51
324.504067
  0
ARC
  5
1D3
100
AcDbEntity
  8
1
390
0
  6
DOT
 62
     9
100
AcDbCircle
 10
181.382095
 20
69.859472
 30
0.0
 40
3.1
210
0.0
220
0.0
230
1.0
100
AcDbArc
 50
324.504067
 51
345.407449
  0
ARC
  5
1D4
100
AcDbEntity
  8
1
390
0
  6
Continuous
 62
     7
100
AcDbCircle
 10
181.382095
 20
69.859472
 30
0.0
 40
3.1
210
0.0
220
0.0
230
1.0
100
AcDbArc
 50
345.407449
 51
14.592551
  0
ARC
  5
1D5
100
AcDbEntity
  8
1
390
0
  6
DOT
 62
     9
100
AcDbCircle
 10
181.382095
 20
69.859472
 30
0.0
 40
3.1
210
0.0
220
0.0
230
1.0
100
AcDbArc
 50
14.592551
 51
40.17777
  0
ARC
  5
1D6
100
AcDbEntity
  8
1
390
0
  6
Continuous
 62
     7
100
AcDbCircle
 10
181.382095
 20
69.859472
 30
0.0
 40
3.1
210
0.0
220
0.0
230
0.9999999999999999
100
AcDbArc
 50
40.17777
 51
61.061472
  0
ARC
  5
1D7
100
AcDbEntity
  8
1
390
0
  6
DOT
 62
     9
100
AcDbCircle
 10
181.382095
 20
69.859472
 30
0.0
 40
3.1
210
0.0
220
0.0
230
1.0
100
AcDbArc
 50
61.061472
 51
90.0
  0
ARC
  5
1D8
100
AcDbEntity
  8
1
390
0
  6
Continuous
 62
     7
100
AcDbCircle
 10
181.382095
 20
69.859472
 30
0.0
 40
3.2
210
0.0
220
0.0
230
1.0
100
AcDbArc
 50
214.228866
 51
249.635865
  0
ARC
  5
1D9
100
AcDbEntity
  8
1
390
0
  6
DOT
 62
     9
100
AcDbCircle
 10
181.382095
 20
69.859472
 30
0.0
 40
3.2
210
0.0
220
0.0
230
1.0
100
AcDbArc
 50
200.364135
 51
214.228866
  0
ARC
  5
1DA
100
AcDbEntity
  8
1
390
0
  6
Continuous
 62
     7
100
AcDbCircle
 10
181.382095
 20
69.859472
 30
0.0
 40
3.2
210
0.0
220
0.0
230
1.0
100
AcDbArc
 50
159.635865
 51
200.364135
  0
ARC
  5
1DB
100
AcDbEntity
  8
1
390
0
  6
DOT
 62
     9
100
AcDbCircle
 10
181.382095
 20
69.859472
 30
0.0
 40
3.2
210
0.0
220
0.0
230
1.0
100
AcDbArc
 50
141.317813
 51
159.635865
  0
ARC
  5
1DC
100
AcDbEntity
  8
1
390
0
  6
Continuous
 62
     7
100
AcDbCircle
 10
181.382095
 20
69.859472
 30
0.0
 40
3.2
210
0.0
220
0.0
230
1.0
100
AcDbArc
 50
117.953187
 51
141.317813
  0
ARC
  5
1DD
100
AcDbEntity
  8
1
390
0
  6
DOT
 62
     9
100
AcDbCircle
 10
181.382095
 20
69.859472
 30
0.0
 40
3.2
210
0.0
220
0.0
230
1.0
100
AcDbArc
 50
110.364135
 51
117.953187
  0
LINE
  5
1DE
100
AcDbEntity
  8
1
390
0
  6
Continuous
 62
     7
100
AcDbLine
 10
180.60107
 20
66.859472
 30
0.0
 11
180.268542
 21
66.859472
 31
0.0
  0
LINE
  5
1DF
100
AcDbEntity
  8
1
390
0
  6
DOT
 62
     9
100
AcDbLine
 10
180.268542
 20
72.859472
 30
0.0
 11
180.60107
 21
72.859472
 31
0.0
  0
ARC
  5
1E0
100
AcDbEntity
  8
1
390
0
  6
DOT
 62
     9
100
AcDbCircle
 10
181.382095
 20
69.859472
 30
0.0
 40
3.2
210
0.0
220
0.0
230
1.0
100
AcDbArc
 50
62.046813
 51
69.635865
  0
ARC
  5
1E1
100
AcDbEntity
  8
1
390
0
  6
Continuous
 62
     7
100
AcDbCircle
 10
181.382095
 20
69.859472
 30
0.0
 40
3.2
210
0.0
220
0.0
230
1.0
100
AcDbArc
 50
38.682187
 51
62.046813
  0
ARC
  5
1E2
100
AcDbEntity
  8
1
390
0
  6
DOT
 62
     9
100
AcDbCircle
 10
181.382095
 20
69.859472
 30
0.0
 40
3.2
210
0.0
220
0.0
230
1.0
100
AcDbArc
 50
20.364135
 51
38.682187
  0
ARC
  5
1E3
100
AcDbEntity
  8
1
390
0
  6
Continuous
 62
     7
100
AcDbCircle
 10
181.382095
 20
69.859472
 30
0.0
 40
3.2
210
0.0
220
0.0
230
1.0
100
AcDbArc
 50
339.635865
 51
20.364135
  0
ARC
  5
1E4
100
AcDbEntity
  8
1
390
0
  6
DOT
 62
     9
100
AcDbCircle
 10
181.382095
 20
69.859472
 30
0.0
 40
3.2
210
0.0
220
0.0
230
1.0
100
AcDbArc
 50
325.771134
 51
339.635865
  0
ARC
  5
1E5
100
AcDbEntity
  8
1
390
0
  6
Continuous
 62
     7
100
AcDbCircle
 10
181.382095
 20
69.859472
 30
0.0
 40
3.2
210
0.0
220
0.0
230
1.0
100
AcDbArc
 50
290.364135
 51
325.771134
  0
LINE
  5
1E6
100
AcDbEntity
  8
1
390
0
  6
Continuous
 62
     7
100
AcDbLine
 10
182.495648
 20
66.859472
 30
0.0
 11
182.16312
 21
66.859472
 31
0.0
  0
LINE
  5
1E7
100
AcDbEntity
  8
1
390
0
  6
DOT
 62
     9
100
AcDbLine
 10
182.16312
 20
72.859472
 30
0.0
 11
182.495648
 21
72.859472
 31
0.0
  0
LINE
  5
1E8
100
AcDbEntity
  8
1
390
0
  6
DOT
 62
     9
100
AcDbLine
 10
180.60107
 20
72.859472
 30
0.0
 11
182.16312
 21
72.859472
 31
0.0
  0
LINE
  5
1E9
100
AcDbEntity
  8
1
390
0
  6
DOT
 62
     9
100
AcDbLine
 10
182.16312
 20
66.859472
 30
0.0
 11
180.60107
 21
66.859472
 31
0.0
  0
ARC
  5
1EA
100
AcDbEntity
  8
1
390
0
  6
Continuous
 62
     7
100
AcDbCircle
 10
181.382095
 20
69.859472
 30
0.0
 40
3.2
210
0.0
220
0.0
230
1.0
100
AcDbArc
 50
249.635865
 51
290.364135
  0
ARC
  5
1EB
100
AcDbEntity
  8
1
390
0
  6
DOT
 62
     9
100
AcDbCircle
 10
181.382095
 20
69.859472
 30
0.0
 40
3.2
210
0.0
220
0.0
230
1.0
100
AcDbArc
 50
69.635865
 51
110.364135
  0
CIRCLE
  5
1EC
100
AcDbEntity
  8
1
390
0
  6
DOT
 62
     9
100
AcDbCircle
 10
181.382095
 20
69.859472
 30
0.0
 40
2.5
210
0.0
220
0.0
230
1.0
  0
LINE
  5
1ED
100
AcDbEntity
  8
1
390
0
  6
DOT
 62
     9
100
AcDbLine
 10
179.745788
 20
72.609472
 30
0.0
 11
179.882095
 21
72.609472
 31
0.0
  0
LINE
  5
1EE
100
AcDbEntity
  8
1
390
0
  6
DOT
 62
     9
100
AcDbLine
 10
179.882095
 20
72.609472
 30
0.0
 11
179.951186
 21
72.609472
 31
0.0
  0
LINE
  5
1EF
100
AcDbEntity
  8
1
390
0
  6
DOT
 62
     9
100
AcDbLine
 10
179.951186
 20
72.609472
 30
0.0
 11
182.813004
 21
72.609472
 31
0.0
  0
LINE
  5
1F0
100
AcDbEntity
  8
1
390
0
  6
DOT
 62
     9
100
AcDbLine
 10
182.813004
 20
72.609472
 30
0.0
 11
182.882095
 21
72.609472
 31
0.0
  0
LINE
  5
1F1
100
AcDbEntity
  8
1
390
0
  6
DOT
 62
     9
100
AcDbLine
 10
182.882095
 20
72.609472
 30
0.0
 11
183.018402
 21
72.609472
 31
0.0
  0
LINE
  5
1F2
100
AcDbEntity
  8
1
390
0
  6
DOT
 62
     9
100
AcDbLine
 10
183.018402
 20
67.109472
 30
0.0
 11
182.813004
 21
67.109472
 31
0.0
  0
LINE
  5
1F3
100
AcDbEntity
  8
1
390
0
  6
DOT
 62
     9
100
AcDbLine
 10
182.813004
 20
67.109472
 30
0.0
 11
179.951186
 21
67.109472
 31
0.0
  0
LINE
  5
1F4
100
AcDbEntity
  8
1
390
0
  6
DOT
 62
     9
100
AcDbLine
 10
179.951186
 20
67.109472
 30
0.0
 11
179.745788
 21
67.109472
 31
0.0
  0
CIRCLE
  5
1F5
100
AcDbEntity
  8
1
390
0
  6
DOT
 62
     9
100
AcDbCircle
 10
181.382095
 20
69.859472
 30
0.0
 40
2.675
210
0.0
220
0.0
230
0.9999999999999999
  0
ARC
  5
1F6
100
AcDbEntity
  8
1
390
0
  6
DOT
 62
     9
100
AcDbCircle
 10
181.382095
 20
69.859472
 30
0.0
 40
3.075
210
0.0
220
0.0
230
1.0
100
AcDbArc
 50
90.0
 51
103.899449
  0
ARC
  5
1F7
100
AcDbEntity
  8
1
390
0
  6
DOT
 62
     9
100
AcDbCircle
 10
181.382095
 20
69.859472
 30
0.0
 40
3.075
210
0.0
220
0.0
230
1.0
100
AcDbArc
 50
103.899449
 51
116.580197
  0
ARC
  5
1F8
100
AcDbEntity
  8
1
390
0
  6
DOT
 62
     9
100
AcDbCircle
 10
181.382095
 20
69.859472
 30
0.0
 40
3.075
210
0.0
220
0.0
230
1.0
100
AcDbArc
 50
116.580197
 51
119.196404
  0
ARC
  5
1F9
100
AcDbEntity
  8
1
390
0
  6
DOT
 62
     9
100
AcDbCircle
 10
181.382095
 20
69.859472
 30
0.0
 40
3.075
210
0.0
220
0.0
230
1.0
100
AcDbArc
 50
119.196404
 51
139.427742
  0
ARC
  5
1FA
100
AcDbEntity
  8
1
390
0
  6
DOT
 62
     9
100
AcDbCircle
 10
181.382095
 20
69.859472
 30
0.0
 40
3.075
210
0.0
220
0.0
230
1.0
100
AcDbArc
 50
139.427742
 51
167.319617
  0
ARC
  5
1FB
100
AcDbEntity
  8
1
390
0
  6
DOT
 62
     9
100
AcDbCircle
 10
181.382095
 20
69.859472
 30
0.0
 40
3.075
210
0.0
220
0.0
230
1.0
100
AcDbArc
 50
167.319617
 51
192.680383
  0
ARC
  5
1FC
100
AcDbEntity
  8
1
390
0
  6
DOT
 62
     9
100
AcDbCircle
 10
181.382095
 20
69.859472
 30
0.0
 40
3.075
210
0.0
220
0.0
230
1.0
100
AcDbArc
 50
192.680383
 51
216.416624
  0
ARC
  5
1FD
100
AcDbEntity
  8
1
390
0
  6
DOT
 62
     9
100
AcDbCircle
 10
181.382095
 20
69.859472
 30
0.0
 40
3.075
210
0.0
220
0.0
230
1.0
100
AcDbArc
 50
216.416624
 51
243.419803
  0
ARC
  5
1FE
100
AcDbEntity
  8
1
390
0
  6
DOT
 62
     9
100
AcDbCircle
 10
181.382095
 20
69.859472
 30
0.0
 40
3.075
210
0.0
220
0.0
230
1.0
100
AcDbArc
 50
243.419803
 51
256.100551
  0
ARC
  5
1FF
100
AcDbEntity
  8
1
390
0
  6
DOT
 62
     9
100
AcDbCircle
 10
181.382095
 20
69.859472
 30
0.0
 40
3.075
210
0.0
220
0.0
230
1.0
100
AcDbArc
 50
256.100551
 51
283.899449
  0
ARC
  5
200
100
AcDbEntity
  8
1
390
0
  6
DOT
 62
     9
100
AcDbCircle
 10
181.382095
 20
69.859472
 30
0.0
 40
3.075
210
0.0
220
0.0
230
1.0
100
AcDbArc
 50
283.899449
 51
296.580197
  0
ARC
  5
201
100
AcDbEntity
  8
1
390
0
  6
DOT
 62
     9
100
AcDbCircle
 10
181.382095
 20
69.859472
 30
0.0
 40
3.075
210
0.0
220
0.0
230
1.0
100
AcDbArc
 50
296.580197
 51
323.583376
  0
ARC
  5
202
100
AcDbEntity
  8
1
390
0
  6
DOT
 62
     9
100
AcDbCircle
 10
181.382095
 20
69.859472
 30
0.0
 40
3.075
210
0.0
220
0.0
230
1.0
100
AcDbArc
 50
323.583376
 51
347.319617
  0
ARC
  5
203
100
AcDbEntity
  8
1
390
0
  6
DOT
 62
     9
100
AcDbCircle
 10
181.382095
 20
69.859472
 30
0.0
 40
3.075
210
0.0
220
0.0
230
1.0
100
AcDbArc
 50
347.319617
 51
12.680383
  0
ARC
  5
204
100
AcDbEntity
  8
1
390
0
  6
DOT
 62
     9
100
AcDbCircle
 10
181.382095
 20
69.859472
 30
0.0
 40
3.075
210
0.0
220
0.0
230
1.0
100
AcDbArc
 50
12.680383
 51
40.572258
  0
ARC
  5
205
100
AcDbEntity
  8
1
390
0
  6
DOT
 62
     9
100
AcDbCircle
 10
181.382095
 20
69.859472
 30
0.0
 40
3.075
210
0.0
220
0.0
230
1.0
100
AcDbArc
 50
40.572258
 51
60.803596
  0
ARC
  5
206
100
AcDbEntity
  8
1
390
0
  6
DOT
 62
     9
100
AcDbCircle
 10
181.382095
 20
69.859472
 30
0.0
 40
3.075
210
0.0
220
0.0
230
1.0
100
AcDbArc
 50
60.803596
 51
63.419803
  0
ARC
  5
207
100
AcDbEntity
  8
1
390
0
  6
DOT
 62
     9
100
AcDbCircle
 10
181.382095
 20
69.859472
 30
0.0
 40
3.075
210
0.0
220
0.0
230
1.0
100
AcDbArc
 50
63.419803
 51
76.100551
  0
ARC
  5
208
100
AcDbEntity
  8
1
390
0
  6
DOT
 62
     9
100
AcDbCircle
 10
181.382095
 20
69.859472
 30
0.0
 40
3.075
210
0.0
220
0.0
230
1.0
100
AcDbArc
 50
76.100551
 51
90.0
  0
ARC
  5
209
100
AcDbEntity
  8
1
390
0
  6
DOT
 62
     9
100
AcDbCircle
 10
181.382095
 20
69.859472
 30
0.0
 40
3.175
210
0.0
220
0.0
230
1.0
100
AcDbArc
 50
340.888268
 51
360.0
  0
ARC
  5
20A
100
AcDbEntity
  8
1
390
0
  6
DOT
 62
     9
100
AcDbCircle
 10
181.382095
 20
69.859472
 30
0.0
 40
3.175
210
0.0
220
0.0
230
1.0
100
AcDbArc
 50
325.463639
 51
340.888268
  0
ARC
  5
20B
100
AcDbEntity
  8
1
390
0
  6
DOT
 62
     9
100
AcDbCircle
 10
181.382095
 20
69.859472
 30
0.0
 40
3.175
210
0.0
220
0.0
230
1.0
100
AcDbArc
 50
299.986667
 51
325.463639
  0
ARC
  5
20C
100
AcDbEntity
  8
1
390
0
  6
DOT
 62
     9
100
AcDbCircle
 10
181.382095
 20
69.859472
 30
0.0
 40
3.175
210
0.0
220
0.0
230
1.0
100
AcDbArc
 50
289.059956
 51
299.986667
  0
ARC
  5
20D
100
AcDbEntity
  8
1
390
0
  6
DOT
 62
     9
100
AcDbCircle
 10
181.382095
 20
69.859472
 30
0.0
 40
3.175
210
0.0
220
0.0
230
1.0
100
AcDbArc
 50
250.940044
 51
289.059956
  0
ARC
  5
20E
100
AcDbEntity
  8
1
390
0
  6
DOT
 62
     9
100
AcDbCircle
 10
181.382095
 20
69.859472
 30
0.0
 40
3.175
210
0.0
220
0.0
230
1.0
100
AcDbArc
 50
240.013333
 51
250.940044
  0
ARC
  5
20F
100
AcDbEntity
  8
1
390
0
  6
DOT
 62
     9
100
AcDbCircle
 10
181.382095
 20
69.859472
 30
0.0
 40
3.175
210
0.0
220
0.0
230
1.0
100
AcDbArc
 50
214.536361
 51
240.013333
  0
ARC
  5
210
100
AcDbEntity
  8
1
390
0
  6
DOT
 62
     9
100
AcDbCircle
 10
181.382095
 20
69.859472
 30
0.0
 40
3.175
210
0.0
220
0.0
230
1.0
100
AcDbArc
 50
199.111732
 51
214.536361
  0
ARC
  5
211
100
AcDbEntity
  8
1
390
0
  6
DOT
 62
     9
100
AcDbCircle
 10
181.382095
 20
69.859472
 30
0.0
 40
3.175
210
0.0
220
0.0
230
1.0
100
AcDbArc
 50
160.888268
 51
199.111732
  0
ARC
  5
212
100
AcDbEntity
  8
1
390
0
  6
DOT
 62
     9
100
AcDbCircle
 10
181.382095
 20
69.859472
 30
0.0
 40
3.175
210
0.0
220
0.0
230
1.0
100
AcDbArc
 50
140.955687
 51
160.888268
  0
ARC
  5
213
100
AcDbEntity
  8
1
390
0
  6
DOT
 62
     9
100
AcDbCircle
 10
181.382095
 20
69.859472
 30
0.0
 40
3.175
210
0.0
220
0.0
230
1.0
100
AcDbArc
 50
119.986667
 51
140.955687
  0
ARC
  5
214
100
AcDbEntity
  8
1
390
0
  6
DOT
 62
     9
100
AcDbCircle
 10
181.382095
 20
69.859472
 30
0.0
 40
3.175
210
0.0
220
0.0
230
1.0
100
AcDbArc
 50
118.192861
 51
119.986667
  0
ARC
  5
215
100
AcDbEntity
  8
1
390
0
  6
DOT
 62
     9
100
AcDbCircle
 10
181.382095
 20
69.859472
 30
0.0
 40
3.175
210
0.0
220
0.0
230
1.0
100
AcDbArc
 50
109.059956
 51
118.192861
  0
ARC
  5
216
100
AcDbEntity
  8
1
390
0
  6
DOT
 62
     9
100
AcDbCircle
 10
181.382095
 20
69.859472
 30
0.0
 40
3.175
210
0.0
220
0.0
230
1.0
100
AcDbArc
 50
70.940044
 51
109.059956
  0
ARC
  5
217
100
AcDbEntity
  8
1
390
0
  6
DOT
 62
     9
100
AcDbCircle
 10
181.382095
 20
69.859472
 30
0.0
 40
3.175
210
0.0
220
0.0
230
1.0
100
AcDbArc
 50
61.807139
 51
70.940044
  0
ARC
  5
218
100
AcDbEntity
  8
1
390
0
  6
DOT
 62
     9
100
AcDbCircle
 10
181.382095
 20
69.859472
 30
0.0
 40
3.175
210
0.0
220
0.0
230
1.0
100
AcDbArc
 50
60.013333
 51
61.807139
  0
ARC
  5
219
100
AcDbEntity
  8
1
390
0
  6
DOT
 62
     9
100
AcDbCircle
 10
181.382095
 20
69.859472
 30
0.0
 40
3.175
210
0.0
220
0.0
230
1.0
100
AcDbArc
 50
39.044313
 51
60.013333
  0
ARC
  5
21A
100
AcDbEntity
  8
1
390
0
  6
DOT
 62
     9
100
AcDbCircle
 10
181.382095
 20
69.859472
 30
0.0
 40
3.175
210
0.0
220
0.0
230
1.0
100
AcDbArc
 50
19.111732
 51
39.044313
  0
ARC
  5
21B
100
AcDbEntity
  8
1
390
0
  6
DOT
 62
     9
100
AcDbCircle
 10
181.382095
 20
69.859472
 30
0.0
 40
3.175
210
0.0
220
0.0
230
1.0
100
AcDbArc
 50
0.0
 51
19.111732
  0
CIRCLE
  5
21C
100
AcDbEntity
  8
1
390
0
  6
DOT
 62
     9
100
AcDbCircle
 10
181.382095
 20
69.859472
 30
0.0
 40
3.0
210
0.0
220
0.0
230
1.0
  0
CIRCLE
  5
21D
100
AcDbEntity
  8
1
390
0
  6
DOT
 62
     9
100
AcDbCircle
 10
181.382095
 20
69.859472
 30
0.0
 40
2.475
210
0.0
220
0.0
230
1.0
  0
LINE
  5
21E
100
AcDbEntity
  8
1
390
0
  6
Continuous
 62
     7
100
AcDbLine
 10
178.382095
 20
71.859472
 30
0.0
 11
178.382095
 21
68.159472
 31
0.0
  0
LINE
  5
21F
100
AcDbEntity
  8
1
390
0
  6
Continuous
 62
     7
100
AcDbLine
 10
184.382095
 20
68.159472
 30
0.0
 11
184.382095
 21
71.859472
 31
0.0
  0
ARC
  5
220
100
AcDbEntity
  8
1
390
0
  6
Continuous
 62
     7
100
AcDbCircle
 10
178.482095
 20
68.159472
 30
0.0
 40
0.1
210
0.0
220
0.0
230
1.0
100
AcDbArc
 50
180.0
 51
270.0
  0
ARC
  5
221
100
AcDbEntity
  8
1
390
0
  6
Continuous
 62
     7
100
AcDbCircle
 10
184.282095
 20
68.159472
 30
0.0
 40
0.1
210
0.0
220
0.0
230
1.0
100
AcDbArc
 50
270.0
 51
360.0
  0
LINE
  5
222
100
AcDbEntity
  8
1
390
0
  6
Continuous
 62
     7
100
AcDbLine
 10
178.882095
 20
68.059472
 30
0.0
 11
179.082095
 21
67.859472
 31
0.0
  0
LINE
  5
223
100
AcDbEntity
  8
1
390
0
  6
Continuous
 62
     7
100
AcDbLine
 10
183.682095
 20
67.859472
 30
0.0
 11
183.882095
 21
68.059472
 31
0.0
  0
LINE
  5
224
100
AcDbEntity
  8
1
390
0
  6
Continuous
 62
     7
100
AcDbLine
 10
179.882095
 20
467.859472
 30
0.0
 11
179.882095
 21
71.859472
 31
0.0
  0
LINE
  5
225
100
AcDbEntity
  8
1
390
0
  6
Continuous
 62
     7
100
AcDbLine
 10
182.882095
 20
71.859472
 30
0.0
 11
182.882095
 21
467.859472
 31
0.0
  0
CIRCLE
  5
226
100
AcDbEntity
  8
1
390
0
  6
Continuous
 62
     7
100
AcDbCircle
 10
342.944691
 20
530.576824
 30
0.0
 40
1.5
210
0.0
220
0.0
230
1.0
  0
CIRCLE
  5
227
100
AcDbEntity
  8
1
390
0
  6
Continuous
 62
     7
100
AcDbCircle
 10
342.944691
 20
530.576824
 30
0.0
 40
3.0
210
0.0
220
0.0
230
1.0
  0
ARC
  5
228
100
AcDbEntity
  8
1
390
0
  6
Continuous
 62
     7
100
AcDbCircle
 10
347.007941
 20
536.276824
 30
0.0
 40
4.0
210
0.0
220
0.0
230
1.0
100
AcDbArc
 50
234.516796
 51
258.463041
  0
POLYLINE
  5
229
100
AcDbEntity
  8
1
390
0
  6
Continuous
 62
     7
100
AcDb2dPolyline
 66
     1
 10
0.0
 20
0.0
 30
0.0
 40
3.0
 41
3.0
  0
VERTEX
  5
22A
100
AcDbEntity
  8
1
390
0
 62
     7
100
AcDbVertex
100
AcDb2dVertex
 10
346.459287
 20
528.883455
 30
0.0
  0
VERTEX
  5
22B
100
AcDbEntity
  8
1
390
0
 62
     7
100
AcDbVertex
100
AcDb2dVertex
 10
346.496822
 20
528.979579
 30
0.0
  0
VERTEX
  5
22C
100
AcDbEntity
  8
1
390
0
 62
     7
100
AcDbVertex
100
AcDb2dVertex
 10
346.478692
 20
529.106993
 30
0.0
 42
0.117185
  0
VERTEX
  5
22D
100
AcDbEntity
  8
1
390
0
 62
     7
100
AcDbVertex
100
AcDb2dVertex
 10
345.934085
 20
530.077629
 30
0.0
  0
SEQEND
  5
22E
100
AcDbEntity
  8
0
390
0
  0
ARC
  5
22F
100
AcDbEntity
  8
1
390
0
  6
Continuous
 62
     7
100
AcDbCircle
 10
346.007941
 20
529.775804
 30
0.0
 40
1.0
210
0.0
220
0.0
230
1.0
100
AcDbArc
 50
281.536959
 51
296.83009
  0
LINE
  5
230
100
AcDbEntity
  8
1
390
0
  6
Continuous
 62
     7
100
AcDbLine
 10
360.944691
 20
528.876824
 30
0.0
 11
360.944691
 21
532.276824
 31
0.0
  0
LINE
  5
231
100
AcDbEntity
  8
1
390
0
  6
DOT
 62
     9
100
AcDbLine
 10
346.445932
 20
532.276824
 30
0.0
 11
346.469376
 21
532.265019
 31
0.0
  0
POLYLINE
  5
232
100
AcDbEntity
  8
1
390
0
  6
Continuous
 62
     7
100
AcDb2dPolyline
 66
     1
 10
0.0
 20
0.0
 30
0.0
 40
3.0
 41
3.0
  0
VERTEX
  5
233
100
AcDbEntity
  8
1
390
0
 62
     7
100
AcDbVertex
100
AcDb2dVertex
 10
345.934085
 20
531.07602
 30
0.0
 42
0.12413
  0
VERTEX
  5
234
100
AcDbEntity
  8
1
390
0
 62
     7
100
AcDbVertex
100
AcDb2dVertex
 10
346.487411
 20
532.087785
 30
0.0
  0
VERTEX
  5
235
100
AcDbEntity
  8
1
390
0
 62
     7
100
AcDbVertex
100
AcDb2dVertex
 10
346.495454
 20
532.20284
 30
0.0
  0
VERTEX
  5
236
100
AcDbEntity
  8
1
390
0
 62
     7
100
AcDbVertex
100
AcDb2dVertex
 10
346.459287
 20
532.270194
 30
0.0
  0
SEQEND
  5
237
100
AcDbEntity
  8
0
390
0
  0
POLYLINE
  5
238
100
AcDbEntity
  8
1
390
0
  6
DOT
 62
     9
100
AcDb2dPolyline
 66
     1
 10
0.0
 20
0.0
 30
0.0
 40
3.0
 41
3.0
  0
VERTEX
  5
239
100
AcDbEntity
  8
1
390
0
 62
     9
100
AcDbVertex
100
AcDb2dVertex
 10
346.469376
 20
532.265019
 30
0.0
  0
VERTEX
  5
23A
100
AcDbEntity
  8
1
390
0
 62
     9
100
AcDbVertex
100
AcDb2dVertex
 10
346.522572
 20
532.156507
 30
0.0
  0
VERTEX
  5
23B
100
AcDbEntity
  8
1
390
0
 62
     9
100
AcDbVertex
100
AcDb2dVertex
 10
346.515427
 20
532.054923
 30
0.0
 42
-0.128623
  0
VERTEX
  5
23C
100
AcDbEntity
  8
1
390
0
 62
     9
100
AcDbVertex
100
AcDb2dVertex
 10
346.011402
 20
531.11374
 30
0.0
  0
SEQEND
  5
23D
100
AcDbEntity
  8
0
390
0
  0
LINE
  5
23E
100
AcDbEntity
  8
1
390
0
  6
DOT
 62
     9
100
AcDbLine
 10
346.011402
 20
531.11374
 30
0.0
 11
345.913405
 21
531.008955
 31
0.0
  0
LINE
  5
23F
100
AcDbEntity
  8
1
390
0
  6
DOT
 62
     9
100
AcDbLine
 10
345.913405
 20
530.144693
 30
0.0
 11
346.011402
 21
530.039908
 31
0.0
  0
POLYLINE
  5
240
100
AcDbEntity
  8
1
390
0
  6
DOT
 62
     9
100
AcDb2dPolyline
 66
     1
 10
0.0
 20
0.0
 30
0.0
 40
3.0
 41
3.0
  0
VERTEX
  5
241
100
AcDbEntity
  8
1
390
0
 62
     9
100
AcDbVertex
100
AcDb2dVertex
 10
346.011402
 20
530.039908
 30
0.0
 42
-0.126867
  0
VERTEX
  5
242
100
AcDbEntity
  8
1
390
0
 62
     9
100
AcDbVertex
100
AcDb2dVertex
 10
346.514685
 20
529.103163
 30
0.0
  0
VERTEX
  5
243
100
AcDbEntity
  8
1
390
0
 62
     9
100
AcDbVertex
100
AcDb2dVertex
 10
346.522683
 20
528.999303
 30
0.0
  0
VERTEX
  5
244
100
AcDbEntity
  8
1
390
0
 62
     9
100
AcDbVertex
100
AcDb2dVertex
 10
346.489594
 20
528.903451
 30
0.0
  0
VERTEX
  5
245
100
AcDbEntity
  8
1
390
0
 62
     9
100
AcDbVertex
100
AcDb2dVertex
 10
346.469376
 20
528.88863
 30
0.0
  0
SEQEND
  5
246
100
AcDbEntity
  8
0
390
0
  0
LINE
  5
247
100
AcDbEntity
  8
1
390
0
  6
Continuous
 62
     7
100
AcDbLine
 10
345.934085
 20
530.077629
 30
0.0
 11
345.907453
 21
530.105608
 31
0.0
  0
LINE
  5
248
100
AcDbEntity
  8
1
390
0
  6
Continuous
 62
     7
100
AcDbLine
 10
345.907453
 20
531.04804
 30
0.0
 11
345.934085
 21
531.07602
 31
0.0
  0
ARC
  5
249
100
AcDbEntity
  8
1
390
0
  6
DOT
 62
     9
100
AcDbCircle
 10
342.944691
 20
530.576824
 30
0.0
 40
3.0
210
0.0
220
0.0
230
1.0
100
AcDbArc
 50
0.0
 51
8.2819
  0
ARC
  5
24A
100
AcDbEntity
  8
1
390
0
  6
Continuous
 62
     7
100
AcDbCircle
 10
346.007941
 20
531.377845
 30
0.0
 40
1.0
210
0.0
220
0.0
230
1.0
100
AcDbArc
 50
63.16991
 51
78.463041
  0
ARC
  5
24B
100
AcDbEntity
  8
1
390
0
  6
Continuous
 62
     7
100
AcDbCircle
 10
347.007941
 20
524.876824
 30
0.0
 40
4.0
210
0.0
220
0.0
230
1.0
100
AcDbArc
 50
101.536959
 51
125.483204
  0
LINE
  5
24C
100
AcDbEntity
  8
1
390
0
  6
Continuous
 62
     7
100
AcDbLine
 10
365.944691
 20
529.176824
 30
0.0
 11
365.944691
 21
531.976824
 31
0.0
  0
CIRCLE
  5
24D
100
AcDbEntity
  8
1
390
0
  6
DOT
 62
     9
100
AcDbCircle
 10
342.944691
 20
530.576824
 30
0.0
 40
2.5
210
0.0
220
0.0
230
1.0
  0
CIRCLE
  5
24E
100
AcDbEntity
  8
1
390
0
  6
DOT
 62
     9
100
AcDbCircle
 10
342.944691
 20
530.576824
 30
0.0
 40
2.3
210
0.0
220
0.0
230
1.0
  0
LINE
  5
24F
100
AcDbEntity
  8
1
390
0
  6
Continuous
 62
     7
100
AcDbLine
 10
360.944691
 20
532.276824
 30
0.0
 11
346.446109
 21
532.276824
 31
0.0
  0
LINE
  5
250
100
AcDbEntity
  8
1
390
0
  6
Continuous
 62
     7
100
AcDbLine
 10
346.445999
 20
528.876824
 30
0.0
 11
360.944691
 21
528.876824
 31
0.0
  0
LINE
  5
251
100
AcDbEntity
  8
1
390
0
  6
Continuous
 62
     7
100
AcDbLine
 10
365.944691
 20
531.976824
 30
0.0
 11
360.944691
 21
531.976824
 31
0.0
  0
LINE
  5
252
100
AcDbEntity
  8
1
390
0
  6
Continuous
 62
     7
100
AcDbLine
 10
360.944691
 20
529.176824
 30
0.0
 11
365.944691
 21
529.176824
 31
0.0
  0
LINE
  5
253
100
AcDbEntity
  8
1
390
0
  6
Continuous
 62
     7
100
AcDbLine
 10
416.455928
 20
531.826824
 30
0.0
 11
365.944691
 21
531.826824
 31
0.0
  0
LINE
  5
254
100
AcDbEntity
  8
1
390
0
  6
Continuous
 62
     7
100
AcDbLine
 10
365.944691
 20
529.326824
 30
0.0
 11
415.876218
 21
529.326824
 31
0.0
  0
LINE
  5
255
100
AcDbEntity
  8
1
390
0
  6
Continuous
 62
     7
100
AcDbLine
 10
509.006668
 20
527.376824
 30
0.0
 11
509.006668
 21
533.776824
 31
0.0
  0
LINE
  5
256
100
AcDbEntity
  8
1
390
0
  6
Continuous
 62
     7
100
AcDbLine
 10
502.606668
 20
533.776824
 30
0.0
 11
502.606668
 21
531.690377
 31
0.0
  0
LINE
  5
257
100
AcDbEntity
  8
1
390
0
  6
DOT
 62
     9
100
AcDbLine
 10
504.506668
 20
529.463271
 30
0.0
 11
502.606668
 21
529.463271
 31
0.0
  0
LINE
  5
258
100
AcDbEntity
  8
1
390
0
  6
Continuous
 62
     7
100
AcDbLine
 10
502.606668
 20
529.463271
 30
0.0
 11
502.606668
 21
527.376824
 31
0.0
  0
LINE
  5
259
100
AcDbEntity
  8
1
390
0
  6
Continuous
 62
     7
100
AcDbLine
 10
504.506668
 20
529.463271
 30
0.0
 11
502.606668
 21
529.463271
 31
0.0
  0
LINE
  5
25A
100
AcDbEntity
  8
1
390
0
  6
Continuous
 62
     7
100
AcDbLine
 10
504.506668
 20
531.690377
 30
0.0
 11
502.606668
 21
531.690377
 31
0.0
  0
LINE
  5
25B
100
AcDbEntity
  8
1
390
0
  6
Continuous
 62
     7
100
AcDbLine
 10
504.506668
 20
531.690377
 30
0.0
 11
504.506668
 21
529.463271
 31
0.0
  0
LINE
  5
25C
100
AcDbEntity
  8
1
390
0
  6
Continuous
 62
     7
100
AcDbLine
 10
514.476612
 20
527.401824
 30
0.0
 11
514.476612
 21
533.751824
 31
0.0
  0
LINE
  5
25D
100
AcDbEntity
  8
1
390
0
  6
Continuous
 62
     7
100
AcDbLine
 10
514.576612
 20
533.651824
 30
0.0
 11
514.576612
 21
527.501824
 31
0.0
  0
LINE
  5
25E
100
AcDbEntity
  8
1
390
0
  6
Continuous
 62
     7
100
AcDbLine
 10
512.176612
 20
533.751824
 30
0.0
 11
512.176612
 21
527.401824
 31
0.0
  0
LINE
  5
25F
100
AcDbEntity
  8
1
390
0
  6
Continuous
 62
     7
100
AcDbLine
 10
512.076612
 20
527.501824
 30
0.0
 11
512.076612
 21
530.576824
 31
0.0
  0
LINE
  5
260
100
AcDbEntity
  8
1
390
0
  6
Continuous
 62
     7
100
AcDbLine
 10
512.076612
 20
530.576824
 30
0.0
 11
512.076612
 21
533.651824
 31
0.0
  0
LINE
  5
261
100
AcDbEntity
  8
1
390
0
  6
Continuous
 62
     7
100
AcDbLine
 10
519.476612
 20
527.401824
 30
0.0
 11
519.476612
 21
533.751824
 31
0.0
  0
LINE
  5
262
100
AcDbEntity
  8
1
390
0
  6
Continuous
 62
     7
100
AcDbLine
 10
519.576612
 20
533.651824
 30
0.0
 11
519.576612
 21
527.501824
 31
0.0
  0
LINE
  5
263
100
AcDbEntity
  8
1
390
0
  6
Continuous
 62
     7
100
AcDbLine
 10
517.176612
 20
533.751824
 30
0.0
 11
517.176612
 21
527.401824
 31
0.0
  0
LINE
  5
264
100
AcDbEntity
  8
1
390
0
  6
Continuous
 62
     7
100
AcDbLine
 10
517.076612
 20
527.501824
 30
0.0
 11
517.076612
 21
530.576824
 31
0.0
  0
LINE
  5
265
100
AcDbEntity
  8
1
390
0
  6
Continuous
 62
     7
100
AcDbLine
 10
517.076612
 20
530.576824
 30
0.0
 11
517.076612
 21
533.651824
 31
0.0
  0
LINE
  5
266
100
AcDbEntity
  8
1
390
0
  6
Continuous
 62
     7
100
AcDbLine
 10
502.506668
 20
527.476824
 30
0.0
 11
502.506668
 21
529.795799
 31
0.0
  0
LINE
  5
267
100
AcDbEntity
  8
1
390
0
  6
Continuous
 62
     7
100
AcDbLine
 10
489.506668
 20
527.476824
 30
0.0
 11
489.506668
 21
530.576824
 31
0.0
  0
LINE
  5
268
100
AcDbEntity
  8
1
390
0
  6
Continuous
 62
     7
100
AcDbLine
 10
502.506668
 20
531.357849
 30
0.0
 11
502.506668
 21
533.676824
 31
0.0
  0
LINE
  5
269
100
AcDbEntity
  8
1
390
0
  6
Continuous
 62
     7
100
AcDbLine
 10
489.506668
 20
530.576824
 30
0.0
 11
489.506668
 21
533.676824
 31
0.0
  0
LINE
  5
26A
100
AcDbEntity
  8
1
390
0
  6
Continuous
 62
     7
100
AcDbLine
 10
502.506668
 20
529.795799
 30
0.0
 11
502.506668
 21
531.357849
 31
0.0
  0
LINE
  5
26B
100
AcDbEntity
  8
1
390
0
  6
Continuous
 62
     7
100
AcDbLine
 10
488.006668
 20
527.921727
 30
0.0
 11
488.006668
 21
530.576824
 31
0.0
  0
LINE
  5
26C
100
AcDbEntity
  8
1
390
0
  6
Continuous
 62
     7
100
AcDbLine
 10
488.006668
 20
530.576824
 30
0.0
 11
488.006668
 21
533.231921
 31
0.0
  0
POLYLINE
  5
26D
100
AcDbEntity
  8
1
390
0
  6
Continuous
 62
     7
100
AcDb2dPolyline
 66
     1
 10
0.0
 20
0.0
 30
0.0
 40
3.0
 41
3.0
  0
VERTEX
  5
26E
100
AcDbEntity
  8
1
390
0
 62
     7
100
AcDbVertex
100
AcDb2dVertex
 10
502.606668
 20
531.690377
 30
0.0
  0
VERTEX
  5
26F
100
AcDbEntity
  8
1
390
0
 62
     7
100
AcDbVertex
100
AcDb2dVertex
 10
502.585413
 20
531.627738
 30
0.0
  0
VERTEX
  5
270
100
AcDbEntity
  8
1
390
0
 62
     7
100
AcDbVertex
100
AcDb2dVertex
 10
502.54362
 20
531.493594
 30
0.0
  0
VERTEX
  5
271
100
AcDbEntity
  8
1
390
0
 62
     7
100
AcDbVertex
100
AcDb2dVertex
 10
502.506668
 20
531.357849
 30
0.0
  0
SEQEND
  5
272
100
AcDbEntity
  8
0
390
0
  0
POLYLINE
  5
273
100
AcDbEntity
  8
1
390
0
  6
DOT
 62
     9
100
AcDb2dPolyline
 66
     1
 10
0.0
 20
0.0
 30
0.0
 40
3.0
 41
3.0
  0
VERTEX
  5
274
100
AcDbEntity
  8
1
390
0
 62
     9
100
AcDbVertex
100
AcDb2dVertex
 10
502.506668
 20
531.357849
 30
0.0
  0
VERTEX
  5
275
100
AcDbEntity
  8
1
390
0
 62
     9
100
AcDbVertex
100
AcDb2dVertex
 10
502.552956
 20
531.525048
 30
0.0
  0
VERTEX
  5
276
100
AcDbEntity
  8
1
390
0
 62
     9
100
AcDbVertex
100
AcDb2dVertex
 10
502.606668
 20
531.690377
 30
0.0
  0
SEQEND
  5
277
100
AcDbEntity
  8
0
390
0
  0
POLYLINE
  5
278
100
AcDbEntity
  8
1
390
0
  6
Continuous
 62
     7
100
AcDb2dPolyline
 66
     1
 10
0.0
 20
0.0
 30
0.0
 40
3.0
 41
3.0
  0
VERTEX
  5
279
100
AcDbEntity
  8
1
390
0
 62
     7
100
AcDbVertex
100
AcDb2dVertex
 10
502.506668
 20
529.795799
 30
0.0
  0
VERTEX
  5
27A
100
AcDbEntity
  8
1
390
0
 62
     7
100
AcDbVertex
100
AcDb2dVertex
 10
502.552956
 20
529.6286
 30
0.0
  0
VERTEX
  5
27B
100
AcDbEntity
  8
1
390
0
 62
     7
100
AcDbVertex
100
AcDb2dVertex
 10
502.606668
 20
529.463271
 30
0.0
  0
SEQEND
  5
27C
100
AcDbEntity
  8
0
390
0
  0
POLYLINE
  5
27D
100
AcDbEntity
  8
1
390
0
  6
DOT
 62
     9
100
AcDb2dPolyline
 66
     1
 10
0.0
 20
0.0
 30
0.0
 40
3.0
 41
3.0
  0
VERTEX
  5
27E
100
AcDbEntity
  8
1
390
0
 62
     9
100
AcDbVertex
100
AcDb2dVertex
 10
502.606668
 20
529.463271
 30
0.0
  0
VERTEX
  5
27F
100
AcDbEntity
  8
1
390
0
 62
     9
100
AcDbVertex
100
AcDb2dVertex
 10
502.553053
 20
529.628277
 30
0.0
  0
VERTEX
  5
280
100
AcDbEntity
  8
1
390
0
 62
     9
100
AcDbVertex
100
AcDb2dVertex
 10
502.506668
 20
529.795799
 30
0.0
  0
SEQEND
  5
281
100
AcDbEntity
  8
0
390
0
  0
LINE
  5
282
100
AcDbEntity
  8
1
390
0
  6
Continuous
 62
     7
100
AcDbLine
 10
522.576612
 20
527.676824
 30
0.0
 11
522.576612
 21
530.576824
 31
0.0
  0
LINE
  5
283
100
AcDbEntity
  8
1
390
0
  6
Continuous
 62
     7
100
AcDbLine
 10
522.576612
 20
530.576824
 30
0.0
 11
522.576612
 21
533.476824
 31
0.0
  0
LINE
  5
284
100
AcDbEntity
  8
1
390
0
  6
Continuous
 62
     7
100
AcDbLine
 10
511.176612
 20
527.376824
 30
0.0
 11
511.176612
 21
528.940517
 31
0.0
  0
LINE
  5
285
100
AcDbEntity
  8
1
390
0
  6
Continuous
 62
     7
100
AcDbLine
 10
509.576612
 20
527.376824
 30
0.0
 11
509.576612
 21
528.940517
 31
0.0
  0
LINE
  5
286
100
AcDbEntity
  8
1
390
0
  6
DOT
 62
     9
100
AcDbLine
 10
511.176612
 20
528.940517
 30
0.0
 11
509.576612
 21
528.940517
 31
0.0
  0
LINE
  5
287
100
AcDbEntity
  8
1
390
0
  6
Continuous
 62
     7
100
AcDbLine
 10
511.176612
 20
528.940517
 30
0.0
 11
509.576612
 21
528.940517
 31
0.0
  0
LINE
  5
288
100
AcDbEntity
  8
1
390
0
  6
Continuous
 62
     7
100
AcDbLine
 10
511.176612
 20
532.213131
 30
0.0
 11
509.576612
 21
532.213131
 31
0.0
  0
LINE
  5
289
100
AcDbEntity
  8
1
390
0
  6
Continuous
 62
     7
100
AcDbLine
 10
511.176612
 20
528.940517
 30
0.0
 11
511.176612
 21
532.213131
 31
0.0
  0
LINE
  5
28A
100
AcDbEntity
  8
1
390
0
  6
Continuous
 62
     7
100
AcDbLine
 10
509.576612
 20
532.213131
 30
0.0
 11
509.576612
 21
528.940517
 31
0.0
  0
LINE
  5
28B
100
AcDbEntity
  8
1
390
0
  6
Continuous
 62
     7
100
AcDbLine
 10
511.176612
 20
532.213131
 30
0.0
 11
511.176612
 21
533.776824
 31
0.0
  0
LINE
  5
28C
100
AcDbEntity
  8
1
390
0
  6
Continuous
 62
     7
100
AcDbLine
 10
509.576612
 20
532.213131
 30
0.0
 11
509.576612
 21
533.776824
 31
0.0
  0
LINE
  5
28D
100
AcDbEntity
  8
1
390
0
  6
Continuous
 62
     7
100
AcDbLine
 10
475.506668
 20
528.576824
 30
0.0
 11
475.506668
 21
530.576824
 31
0.0
  0
LINE
  5
28E
100
AcDbEntity
  8
1
390
0
  6
Continuous
 62
     7
100
AcDbLine
 10
475.506668
 20
530.576824
 30
0.0
 11
475.506668
 21
532.576824
 31
0.0
  0
LINE
  5
28F
100
AcDbEntity
  8
1
390
0
  6
Continuous
 62
     7
100
AcDbLine
 10
530.576612
 20
532.801824
 30
0.0
 11
530.576612
 21
530.576824
 31
0.0
  0
LINE
  5
290
100
AcDbEntity
  8
1
390
0
  6
Continuous
 62
     7
100
AcDbLine
 10
530.576612
 20
530.576824
 30
0.0
 11
530.576612
 21
528.351824
 31
0.0
  0
LINE
  5
291
100
AcDbEntity
  8
1
390
0
  6
Continuous
 62
     7
100
AcDbLine
 10
509.006668
 20
533.776824
 30
0.0
 11
502.606668
 21
533.776824
 31
0.0
  0
LINE
  5
292
100
AcDbEntity
  8
1
390
0
  6
Continuous
 62
     7
100
AcDbLine
 10
502.606668
 20
527.376824
 30
0.0
 11
509.006668
 21
527.376824
 31
0.0
  0
LINE
  5
293
100
AcDbEntity
  8
1
390
0
  6
Continuous
 62
     7
100
AcDbLine
 10
514.476612
 20
527.401824
 30
0.0
 11
514.576612
 21
527.501824
 31
0.0
  0
LINE
  5
294
100
AcDbEntity
  8
1
390
0
  6
Continuous
 62
     7
100
AcDbLine
 10
514.576612
 20
533.651824
 30
0.0
 11
514.476612
 21
533.751824
 31
0.0
  0
LINE
  5
295
100
AcDbEntity
  8
1
390
0
  6
Continuous
 62
     7
100
AcDbLine
 10
512.176612
 20
533.751824
 30
0.0
 11
512.076612
 21
533.651824
 31
0.0
  0
LINE
  5
296
100
AcDbEntity
  8
1
390
0
  6
Continuous
 62
     7
100
AcDbLine
 10
512.076612
 20
527.501824
 30
0.0
 11
512.176612
 21
527.401824
 31
0.0
  0
LINE
  5
297
100
AcDbEntity
  8
1
390
0
  6
Continuous
 62
     7
100
AcDbLine
 10
512.176612
 20
527.401824
 30
0.0
 11
514.476612
 21
527.401824
 31
0.0
  0
LINE
  5
298
100
AcDbEntity
  8
1
390
0
  6
Continuous
 62
     7
100
AcDbLine
 10
514.476612
 20
533.751824
 30
0.0
 11
512.176612
 21
533.751824
 31
0.0
  0
LINE
  5
299
100
AcDbEntity
  8
1
390
0
  6
Continuous
 62
     7
100
AcDbLine
 10
519.476612
 20
527.401824
 30
0.0
 11
519.576612
 21
527.501824
 31
0.0
  0
LINE
  5
29A
100
AcDbEntity
  8
1
390
0
  6
Continuous
 62
     7
100
AcDbLine
 10
519.576612
 20
533.651824
 30
0.0
 11
519.476612
 21
533.751824
 31
0.0
  0
LINE
  5
29B
100
AcDbEntity
  8
1
390
0
  6
Continuous
 62
     7
100
AcDbLine
 10
517.176612
 20
527.401824
 30
0.0
 11
519.476612
 21
527.401824
 31
0.0
  0
LINE
  5
29C
100
AcDbEntity
  8
1
390
0
  6
Continuous
 62
     7
100
AcDbLine
 10
519.476612
 20
533.751824
 30
0.0
 11
517.176612
 21
533.751824
 31
0.0
  0
LINE
  5
29D
100
AcDbEntity
  8
1
390
0
  6
Continuous
 62
     7
100
AcDbLine
 10
517.176612
 20
533.751824
 30
0.0
 11
517.076612
 21
533.651824
 31
0.0
  0
LINE
  5
29E
100
AcDbEntity
  8
1
390
0
  6
Continuous
 62
     7
100
AcDbLine
 10
517.076612
 20
527.501824
 30
0.0
 11
517.176612
 21
527.401824
 31
0.0
  0
LINE
  5
29F
100
AcDbEntity
  8
1
390
0
  6
Continuous
 62
     7
100
AcDbLine
 10
489.506668
 20
527.476824
 30
0.0
 11
502.506668
 21
527.476824
 31
0.0
  0
LINE
  5
2A0
100
AcDbEntity
  8
1
390
0
  6
Continuous
 62
     7
100
AcDbLine
 10
502.506668
 20
533.676824
 30
0.0
 11
489.506668
 21
533.676824
 31
0.0
  0
LINE
  5
2A1
100
AcDbEntity
  8
1
390
0
  6
Continuous
 62
     7
100
AcDbLine
 10
489.506668
 20
533.676824
 30
0.0
 11
488.006668
 21
533.231921
 31
0.0
  0
LINE
  5
2A2
100
AcDbEntity
  8
1
390
0
  6
Continuous
 62
     7
100
AcDbLine
 10
488.006668
 20
527.921727
 30
0.0
 11
489.506668
 21
527.476824
 31
0.0
  0
LINE
  5
2A3
100
AcDbEntity
  8
1
390
0
  6
Continuous
 62
     7
100
AcDbLine
 10
514.576612
 20
527.576824
 30
0.0
 11
517.076612
 21
527.576824
 31
0.0
  0
LINE
  5
2A4
100
AcDbEntity
  8
1
390
0
  6
Continuous
 62
     7
100
AcDbLine
 10
517.076612
 20
533.576824
 30
0.0
 11
514.576612
 21
533.576824
 31
0.0
  0
LINE
  5
2A5
100
AcDbEntity
  8
1
390
0
  6
Continuous
 62
     7
100
AcDbLine
 10
519.576612
 20
527.576824
 30
0.0
 11
522.476612
 21
527.576824
 31
0.0
  0
LINE
  5
2A6
100
AcDbEntity
  8
1
390
0
  6
Continuous
 62
     7
100
AcDbLine
 10
522.476612
 20
533.576824
 30
0.0
 11
519.576612
 21
533.576824
 31
0.0
  0
LINE
  5
2A7
100
AcDbEntity
  8
1
390
0
  6
Continuous
 62
     7
100
AcDbLine
 10
502.606668
 20
533.776824
 30
0.0
 11
502.506668
 21
533.676824
 31
0.0
  0
LINE
  5
2A8
100
AcDbEntity
  8
1
390
0
  6
Continuous
 62
     7
100
AcDbLine
 10
502.506668
 20
527.476824
 30
0.0
 11
502.606668
 21
527.376824
 31
0.0
  0
ARC
  5
2A9
100
AcDbEntity
  8
1
390
0
  6
Continuous
 62
     7
100
AcDbCircle
 10
522.476612
 20
527.676824
 30
0.0
 40
0.1
210
0.0
220
0.0
230
1.0
100
AcDbArc
 50
270.0
 51
360.0
  0
ARC
  5
2AA
100
AcDbEntity
  8
1
390
0
  6
Continuous
 62
     7
100
AcDbCircle
 10
522.476612
 20
533.476824
 30
0.0
 40
0.1
210
0.0
220
0.0
230
1.0
100
AcDbArc
 50
0.0
 51
90.0
  0
LINE
  5
2AB
100
AcDbEntity
  8
1
390
0
  6
Continuous
 62
     7
100
AcDbLine
 10
509.576612
 20
527.376824
 30
0.0
 11
511.176612
 21
527.376824
 31
0.0
  0
LINE
  5
2AC
100
AcDbEntity
  8
1
390
0
  6
Continuous
 62
     7
100
AcDbLine
 10
511.176612
 20
533.776824
 30
0.0
 11
509.576612
 21
533.776824
 31
0.0
  0
LINE
  5
2AD
100
AcDbEntity
  8
1
390
0
  6
Continuous
 62
     7
100
AcDbLine
 10
511.176612
 20
527.901824
 30
0.0
 11
512.076612
 21
527.901824
 31
0.0
  0
LINE
  5
2AE
100
AcDbEntity
  8
1
390
0
  6
Continuous
 62
     7
100
AcDbLine
 10
512.076612
 20
533.251824
 30
0.0
 11
511.176612
 21
533.251824
 31
0.0
  0
LINE
  5
2AF
100
AcDbEntity
  8
1
390
0
  6
Continuous
 62
     7
100
AcDbLine
 10
488.006668
 20
533.231921
 30
0.0
 11
475.506668
 21
532.576824
 31
0.0
  0
LINE
  5
2B0
100
AcDbEntity
  8
1
390
0
  6
Continuous
 62
     7
100
AcDbLine
 10
475.506668
 20
528.576824
 30
0.0
 11
488.006668
 21
527.921727
 31
0.0
  0
LINE
  5
2B1
100
AcDbEntity
  8
1
390
0
  6
Continuous
 62
     7
100
AcDbLine
 10
509.006668
 20
528.076824
 30
0.0
 11
509.576612
 21
528.076824
 31
0.0
  0
LINE
  5
2B2
100
AcDbEntity
  8
1
390
0
  6
Continuous
 62
     7
100
AcDbLine
 10
509.576612
 20
533.076824
 30
0.0
 11
509.006668
 21
533.076824
 31
0.0
  0
LINE
  5
2B3
100
AcDbEntity
  8
1
390
0
  6
Continuous
 62
     7
100
AcDbLine
 10
522.576612
 20
528.101824
 30
0.0
 11
530.326612
 21
528.101824
 31
0.0
  0
LINE
  5
2B4
100
AcDbEntity
  8
1
390
0
  6
Continuous
 62
     7
100
AcDbLine
 10
530.326612
 20
533.051824
 30
0.0
 11
522.576612
 21
533.051824
 31
0.0
  0
ARC
  5
2B5
100
AcDbEntity
  8
1
390
0
  6
Continuous
 62
     7
100
AcDbCircle
 10
530.326612
 20
532.801824
 30
0.0
 40
0.25
210
0.0
220
0.0
230
1.0
100
AcDbArc
 50
0.0
 51
90.0
  0
ARC
  5
2B6
100
AcDbEntity
  8
1
390
0
  6
Continuous
 62
     7
100
AcDbCircle
 10
530.326612
 20
528.351824
 30
0.0
 40
0.25
210
0.0
220
0.0
230
1.0
100
AcDbArc
 50
270.0
 51
360.0
  0
LINE
  5
2B7
100
AcDbEntity
  8
1
390
0
  6
Continuous
 62
     7
100
AcDbLine
 10
475.506668
 20
531.826824
 30
0.0
 11
421.467713
 21
531.826824
 31
0.0
  0
LINE
  5
2B8
100
AcDbEntity
  8
1
390
0
  6
Continuous
 62
     7
100
AcDbLine
 10
420.912157
 20
529.326824
 30
0.0
 11
475.506668
 21
529.326824
 31
0.0
  0
LINE
  5
2BA
100
AcDbEntity
  8
5
390
0
  6
Continuous
 62
    11
100
AcDbLine
 10
414.790615
 20
527.389707
 30
0.0
 11
416.263778
 21
527.470782
 31
0.0
  0
LINE
  5
2BB
100
AcDbEntity
  8
5
390
0
  6
Continuous
 62
    11
100
AcDbLine
 10
419.790615
 20
527.389707
 30
0.0
 11
421.263778
 21
527.470782
 31
0.0
  0
POINT
  5
2BC
100
AcDbEntity
  8
5
390
0
 62
     9
100
AcDbPoint
 10
416.908862
 20
533.780102
 30
0.0
  0
POINT
  5
2BD
100
AcDbEntity
  8
5
390
0
 62
     9
100
AcDbPoint
 10
415.508707
 20
527.741935
 30
0.0
  0
LINE
  5
2BE
100
AcDbEntity
  8
1
390
0
  6
Continuous
 62
     9
100
AcDbLine
 10
416.908862
 20
533.780102
 30
0.0
 11
415.508707
 21
527.741935
 31
0.0
  0
POINT
  5
2BF
100
AcDbEntity
  8
5
390
0
 62
     9
100
AcDbPoint
 10
421.940668
 20
533.955121
 30
0.0
  0
POINT
  5
2C0
100
AcDbEntity
  8
5
390
0
 62
     9
100
AcDbPoint
 10
420.540513
 20
527.654425
 30
0.0
  0
LINE
  5
2C1
100
AcDbEntity
  8
1
390
0
  6
Continuous
 62
     9
100
AcDbLine
 10
421.940668
 20
533.955121
 30
0.0
 11
420.540513
 21
527.654425
 31
0.0
  0
LINE
  5
2C3
100
AcDbEntity
  8
1
390
0
  6
CENTER
 62
     1
100
AcDbLine
 10
338.944691
 20
530.576824
 30
0.0
 11
532.109233
 21
530.576824
 31
0.0
  0
LINE
  5
2C4
100
AcDbEntity
  8
1
390
0
  6
CENTER
 62
     1
100
AcDbLine
 10
342.944691
 20
526.576824
 30
0.0
 11
342.944691
 21
534.576824
 31
0.0
  0
LINE
  5
2C5
100
AcDbEntity
  8
1
390
0
  6
CENTER
 62
     1
100
AcDbLine
 10
342.944691
 20
468.859472
 30
0.0
 11
342.944691
 21
66.938496
 31
0.0
  0
LINE
  5
2C6
100
AcDbEntity
  8
1
390
0
  6
CENTER
 62
     1
100
AcDbLine
 10
531.892454
 20
69.859472
 30
0.0
 11
344.944691
 21
69.859472
 31
0.0
  0
LINE
  5
2C7
100
AcDbEntity
  8
1
390
0
  6
CENTER
 62
     1
100
AcDbLine
 10
181.382095
 20
67.157527
 30
0.0
 11
181.382095
 21
468.859472
 31
0.0
  0
POINT
  5
2C8
100
AcDbEntity
  8
5
390
0
 62
     9
100
AcDbPoint
 10
185.27429
 20
67.157527
 30
0.0
  0
POINT
  5
2C9
100
AcDbEntity
  8
5
390
0
 62
     9
100
AcDbPoint
 10
345.681151
 20
66.938496
 30
0.0
  0
POINT
  5
2CA
100
AcDbEntity
  8
5
390
0
 62
     9
100
AcDbPoint
 10
531.892454
 20
83.094885
 30
0.0
  0
POINT
  5
2CB
100
AcDbEntity
  8
5
390
0
 62
     9
100
AcDbPoint
 10
532.109233
 20
554.013317
 30
0.0
  0
POINT
  5
2CC
100
AcDbEntity
  8
1
390
0
 62
     9
100
AcDbPoint
 10
345.944691
 20
530.576824
 30
0.0
  0
INSERT
  5
2DE
100
AcDbEntity
  8
1
390
0
100
AcDbBlockReference
  2
AID1019
 10
0.0
 20
0.0
 30
0.0
  0
INSERT
  5
2F1
100
AcDbEntity
  8
1
390
0
100
AcDbBlockReference
  2
AID1032
 10
0.0
 20
0.0
 30
0.0
  0
INSERT
  5
302
100
AcDbEntity
  8
1
390
0
100
AcDbBlockReference
  2
AID1047
 10
0.0
 20
0.0
 30
0.0
  0
INSERT
  5
314
100
AcDbEntity
  8
1
390
0
100
AcDbBlockReference
  2
AID1058
 10
0.0
 20
0.0
 30
0.0
  0
POINT
  5
315
100
AcDbEntity
  8
1
390
0
 62
     9
100
AcDbPoint
 10
345.944691
 20
530.576824
 30
0.0
  0
INSERT
  5
327
100
AcDbEntity
  8
1
390
0
100
AcDbBlockReference
  2
AID1073
 10
0.0
 20
0.0
 30
0.0
  0
INSERT
  5
33A
100
AcDbEntity
  8
1
390
0
100
AcDbBlockReference
  2
AID1086
 10
0.0
 20
0.0
 30
0.0
  0
POINT
  5
33B
100
AcDbEntity
  8
1
390
0
 62
     9
100
AcDbPoint
 10
345.944691
 20
68.159472
 30
0.0
  0
INSERT
  5
350
100
AcDbEntity
  8
1
390
0
100
AcDbBlockReference
  2
AID1103
 10
0.0
 20
0.0
 30
0.0
  0
INSERT
  5
364
100
AcDbEntity
  8
1
390
0
100
AcDbBlockReference
  2
AID1122
 10
0.0
 20
0.0
 30
0.0
  0
INSERT
  5
376
100
AcDbEntity
  8
1
390
0
100
AcDbBlockReference
  2
AID1139
 10
0.0
 20
0.0
 30
0.0
  0
INSERT
  5
37B
100
AcDbEntity
  8
1
390
0
100
AcDbBlockReference
  2
AID1152
 10
0.0
 20
0.0
 30
0.0
  0
INSERT
  5
380
100
AcDbEntity
  8
1
390
0
100
AcDbBlockReference
  2
AID1155
 10
0.0
 20
0.0
 30
0.0
  0
INSERT
  5
385
100
AcDbEntity
  8
1
390
0
100
AcDbBlockReference
  2
AID1158
 10
0.0
 20
0.0
 30
0.0
  0
ENDSEC
  0
SECTION
  2
OBJECTS
  0
DICTIONARY
  5
19
100
AcDbDictionary
280
     0
281
     1
  3
ACAD_GROUP
350
1A
  3
ACAD_MLINESTYLE
350
1B
  3
ACAD_LAYOUT
350
1E
  3
ACAD_PLOTSETTINGS
350
22
  3
ACAD_PLOTSTYLENAME
350
1F
  3
ACAD_WIPEOUT_VARS
350
23
  0
DICTIONARY
  5
1A
102
{ACAD_REACTORS
330
19
102
}
100
AcDbDictionary
280
     0
281
     1
  0
DICTIONARY
  5
1B
102
{ACAD_REACTORS
330
19
102
}
100
AcDbDictionary
280
     0
281
     1
  3
Standard
350
1C
  0
MLINESTYLE
  5
1C
102
{ACAD_REACTORS
330
1B
102
}
100
AcDbMlineStyle
  2
Standard
 70
     0
  3

 62
     0
 51
90.0
 52
90.0
 71
     2
 49
0.5
 62
   256
  6
ByLayer
 49
-0.5
 62
   256
  6
ByLayer
  0
ACDBDICTIONARYWDFLT
  5
1F
102
{ACAD_REACTORS
330
19
102
}
100
AcDbDictionary
281
     1
  3
Normal
350
1D
100
AcDbDictionaryWithDefault
340
1D
  0
ACDBPLACEHOLDER
  5
1D
102
{ACAD_REACTORS
330
1F
102
}
  0
LAYOUT
  5
20
102
{ACAD_REACTORS
330
1E
102
}
100
AcDbPlotSettings
  1

  2

  4

  6

 40
0.0
 41
0.0
 42
0.0
 43
0.0
 44
0.0
 45
0.0
 46
0.0
 47
0.0
 48
0.0
 49
0.0
140
0.0
141
0.0
142
1.0
143
1.0
 70
  1024
 72
     0
 73
     0
 74
     0
  7

 75
     0
147
1.0
148
0.0
149
0.0
100
AcDbLayout
  1
Model
 70
     0
 71
     0
 10
0.0
 20
0.0
 11
0.0
 21
0.0
 12
0.0
 22
0.0
 32
0.0
 14
0.0
 24
0.0
 34
0.0
 15
0.0
 25
0.0
 35
0.0
146
0.0
 13
0.0
 23
0.0
 33
0.0
 16
0.0
 26
0.0
 36
0.0
 17
0.0
 27
0.0
 37
0.0
 76
     0
330
A
331
0
345
0
346
0
  0
LAYOUT
  5
21
102
{ACAD_REACTORS
330
1E
102
}
100
AcDbPlotSettings
  1

  2

  4

  6

 40
0.0
 41
0.0
 42
0.0
 43
0.0
 44
0.0
 45
0.0
 46
0.0
 47
0.0
 48
0.0
 49
0.0
140
0.0
141
0.0
142
1.0
143
1.0
 70
     0
 72
     0
 73
     0
 74
     0
  7

 75
     0
147
1.0
148
0.0
149
0.0
100
AcDbLayout
  1
Layout1
 70
     0
 71
     0
 10
0.0
 20
0.0
 11
0.0
 21
0.0
 12
0.0
 22
0.0
 32
0.0
 14
0.0
 24
0.0
 34
0.0
 15
0.0
 25
0.0
 35
0.0
146
0.0
 13
0.0
 23
0.0
 33
0.0
 16
0.0
 26
0.0
 36
0.0
 17
0.0
 27
0.0
 37
0.0
 76
     0
330
B
331
0
345
0
346
0
  0
DICTIONARY
  5
1E
102
{ACAD_REACTORS
330
19
102
}
100
AcDbDictionary
280
     0
281
     1
  3
Layout1
350
21
  3
Model
350
20
  0
DICTIONARY
  5
22
102
{ACAD_REACTORS
330
19
102
}
100
AcDbDictionary
280
     0
281
     1
  0
WIPEOUTVARIABLES
  5
23
100
AcDbWipeoutVariables
 70
     1
  0
ENDSEC
  0
EOF
