  0
SECTION
  2
HEADER
  9
$ACADVER
  1
AC1015
  9
$ACADMAINTVER
 70
     6
  9
$DWGCODEPAGE
  3
DOS932
  9
$INSBASE
 10
0.0
 20
0.0
 30
0.0
  9
$EXTMIN
 10
0.0
 20
0.0
 30
0.0
  9
$EXTMAX
 10
410.0
 20
287.0
 30
10.0
  9
$LIMMIN
 10
0.0
 20
0.0
  9
$LIMMAX
 10
410.0
 20
287.0
  9
$ORTHOMODE
 70
     0
  9
$REGENMODE
 70
     1
  9
$FILLMODE
 70
     1
  9
$QTEXTMODE
 70
     0
  9
$MIRRTEXT
 70
     1
  9
$LTSCALE
 40
10.0
  9
$ATTMODE
 70
     1
  9
$TEXTSIZE
 40
0.2
  9
$TRACEWID
 40
0.05
  9
$TEXTSTYLE
  7
Standard
  9
$CLAYER
  8
0
  9
$CELTYPE
  6
Continuous
  9
$CECOLOR
 62
   256
  9
$CELTSCALE
 40
1.0
  9
$DISPSILH
 70
     0
  9
$DIMSCALE
 40
1.0
  9
$DIMASZ
 40
3.2
  9
$DIMEXO
 40
3.2
  9
$DIMDLI
 40
0.38
  9
$DIMRND
 40
0.0
  9
$DIMDLE
 40
0.0
  9
$DIMEXE
 40
2.4
  9
$DIMTP
 40
0.0
  9
$DIMTM
 40
0.0
  9
$DIMTXT
 40
8.0
  9
$DIMCEN
 40
0.09
  9
$DIMTSZ
 40
0.0
  9
$DIMTOL
 70
     0
  9
$DIMLIM
 70
     0
  9
$DIMTIH
 70
     0
  9
$DIMTOH
 70
     0
  9
$DIMSE1
 70
     0
  9
$DIMSE2
 70
     0
  9
$DIMTAD
 70
     1
  9
$DIMZIN
 70
     0
  9
$DIMBLK
  1

  9
$DIMASO
 70
     1
  9
$DIMSHO
 70
     1
  9
$DIMPOST
  1

  9
$DIMAPOST
  1

  9
$DIMALT
 70
     0
  9
$DIMALTD
 70
     2
  9
$DIMALTF
 40
25.4
  9
$DIMLFAC
 40
1.0
  9
$DIMTOFL
 70
     0
  9
$DIMTVP
 40
0.0
  9
$DIMTIX
 70
     0
  9
$DIMSOXD
 70
     0
  9
$DIMSAH
 70
     0
  9
$DIMBLK1
  1

  9
$DIMBLK2
  1

  9
$DIMSTYLE
  2
Standard
  9
$DIMCLRD
 70
     7
  9
$DIMCLRE
 70
     7
  9
$DIMCLRT
 70
     7
  9
$DIMTFAC
 40
0.6
  9
$DIMGAP
 40
4.0
  9
$DIMJUST
 70
     0
  9
$DIMSD1
 70
     0
  9
$DIMSD2
 70
     0
  9
$DIMTOLJ
 70
     1
  9
$DIMTZIN
 70
     0
  9
$DIMALTZ
 70
     0
  9
$DIMALTTZ
 70
     0
  9
$DIMUPT
 70
     0
  9
$DIMDEC
 70
     6
  9
$DIMTDEC
 70
     4
  9
$DIMALTU
 70
     2
  9
$DIMALTTD
 70
     2
  9
$DIMTXSTY
  7
Standard
  9
$DIMAUNIT
 70
     0
  9
$DIMADEC
 70
     0
  9
$DIMALTRND
 40
0.0
  9
$DIMAZIN
 70
     0
  9
$DIMDSEP
 70
     0
  9
$DIMATFIT
 70
     3
  9
$DIMFRAC
 70
     0
  9
$DIMLDRBLK
  1

  9
$DIMLUNIT
 70
     2
  9
$DIMLWD
 70
     0
  9
$DIMLWE
 70
     0
  9
$DIMTMOVE
 70
     0
  9
$LUNITS
 70
     2
  9
$LUPREC
 70
     4
  9
$SKETCHINC
 40
0.1
  9
$FILLETRAD
 40
0.0
  9
$AUNITS
 70
     0
  9
$AUPREC
 70
     0
  9
$MENU
  1
acad
  9
$ELEVATION
 40
0.0
  9
$PELEVATION
 40
0.0
  9
$THICKNESS
 40
0.0
  9
$LIMCHECK
 70
     0
  9
$CHAMFERA
 40
0.0
  9
$CHAMFERB
 40
0.0
  9
$CHAMFERC
 40
0.0
  9
$CHAMFERD
 40
0.0
  9
$SKPOLY
 70
     0
  9
$TDCREATE
 40
2458421.494027778
  9
$TDUCREATE
 40
0.000000000
  9
$TDUPDATE
 40
2458421.118981482
  9
$TDUUPDATE
 40
0.000000000
  9
$TDINDWG
 40
0.0000000000
  9
$TDUSRTIMER
 40
0.0000000000
  9
$USRTIMER
 70
     1
  9
$ANGBASE
 50
0.0
  9
$ANGDIR
 70
     0
  9
$PDMODE
 70
     0
  9
$PDSIZE
 40
0.0
  9
$PLINEWID
 40
0.0
  9
$SPLFRAME
 70
     0
  9
$SPLINETYPE
 70
     6
  9
$SPLINESEGS
 70
     8
  9
$HANDSEED
  5
3BE
  9
$SURFTAB1
 70
     6
  9
$SURFTAB2
 70
     6
  9
$SURFTYPE
 70
     6
  9
$SURFU
 70
     6
  9
$SURFV
 70
     6
  9
$UCSBASE
  2

  9
$UCSNAME
  2

  9
$UCSORG
 10
0.0
 20
0.0
 30
0.0
  9
$UCSXDIR
 10
1.0
 20
0.0
 30
0.0
  9
$UCSYDIR
 10
0.0
 20
1.0
 30
0.0
  9
$UCSORTHOREF
  2

  9
$UCSORTHOVIEW
 70
     0
  9
$UCSORGTOP
 10
0.0
 20
0.0
 30
0.0
  9
$UCSORGBOTTOM
 10
0.0
 20
0.0
 30
0.0
  9
$UCSORGLEFT
 10
0.0
 20
0.0
 30
0.0
  9
$UCSORGRIGHT
 10
0.0
 20
0.0
 30
0.0
  9
$UCSORGFRONT
 10
0.0
 20
0.0
 30
0.0
  9
$UCSORGBACK
 10
0.0
 20
0.0
 30
0.0
  9
$PUCSBASE
  2

  9
$PUCSNAME
  2

  9
$PUCSORG
 10
0.0
 20
0.0
 30
0.0
  9
$PUCSXDIR
 10
1.0
 20
0.0
 30
0.0
  9
$PUCSYDIR
 10
0.0
 20
1.0
 30
0.0
  9
$PUCSORTHOREF
  2

  9
$PUCSORTHOVIEW
 70
     0
  9
$PUCSORGTOP
 10
0.0
 20
0.0
 30
0.0
  9
$PUCSORGBOTTOM
 10
0.0
 20
0.0
 30
0.0
  9
$PUCSORGLEFT
 10
0.0
 20
0.0
 30
0.0
  9
$PUCSORGRIGHT
 10
0.0
 20
0.0
 30
0.0
  9
$PUCSORGFRONT
 10
0.0
 20
0.0
 30
0.0
  9
$PUCSORGBACK
 10
0.0
 20
0.0
 30
0.0
  9
$USERI1
 70
     0
  9
$USERI2
 70
     0
  9
$USERI3
 70
     0
  9
$USERI4
 70
     0
  9
$USERI5
 70
     0
  9
$USERR1
 40
0.0
  9
$USERR2
 40
0.0
  9
$USERR3
 40
0.0
  9
$USERR4
 40
0.0
  9
$USERR5
 40
0.0
  9
$WORLDVIEW
 70
     1
  9
$SHADEDGE
 70
     3
  9
$SHADEDIF
 70
    70
  9
$TILEMODE
 70
     1
  9
$MAXACTVP
 70
    16
  9
$PINSBASE
 10
0.0
 20
0.0
 30
0.0
  9
$PLIMCHECK
 70
     0
  9
$PEXTMIN
 10
1.000000E+20
 20
1.000000E+20
 30
1.000000E+20
  9
$PEXTMAX
 10
-1.000000E+20
 20
-1.000000E+20
 30
-1.000000E+20
  9
$PLIMMIN
 10
0.0
 20
0.0
  9
$PLIMMAX
 10
12.0
 20
9.0
  9
$UNITMODE
 70
     0
  9
$VISRETAIN
 70
     0
  9
$PLINEGEN
 70
     1
  9
$PSLTSCALE
 70
     0
  9
$TREEDEPTH
 70
  3020
  9
$CMLSTYLE
  2
Standard
  9
$CMLJUST
 70
     0
  9
$CMLSCALE
 40
1.0
  9
$PROXYGRAPHICS
 70
     0
  9
$MEASUREMENT
 70
     0
  9
$CELWEIGHT
370
     0
  9
$ENDCAPS
280
     0
  9
$JOINSTYLE
280
     0
  9
$LWDISPLAY
290
     0
  9
$INSUNITS
 70
     0
  9
$HYPERLINKBASE
  1

  9
$STYLESHEET
  1

  9
$XEDIT
290
     1
  9
$CEPSNTYPE
380
     0
  9
$PSTYLEMODE
290
     1
  9
$FINGERPRINTGUID
  2

  9
$VERSIONGUID
  2

  9
$EXTNAMES
290
     1
  9
$PSVPSCALE
 40
0.0
  0
ENDSEC
  0
SECTION
  2
CLASSES
  0
CLASS
  1
LWPOLYLINE
  2
AcDbPolyline
  3
AutoCAD 2000
 90
        0
280
     0
281
     1
  0
CLASS
  1
IMAGE
  2
AcDbRasterImage
  3
ISM
 90
      127
280
     0
281
     1
  0
CLASS
  1
OLE2FRAME
  2
AcDbOle2Frame
  3
AutoCAD 2000
 90
        0
280
     0
281
     1
  0
CLASS
  1
HATCH
  2
AcDbHatch
  3
AutoCAD 2000
 90
        0
280
     0
281
     1
  0
CLASS
  1
DICTIONARYVAR
  2
AcDbDictionaryVar
  3
AutoCAD 2000
 90
        0
280
     0
281
     0
  0
CLASS
  1
RASTERVARIABLES
  2
AcDbRasterVariables
  3
ISM
 90
        0
280
     0
281
     0
  0
CLASS
  1
IMAGEDEF
  2
AcDbRasterImageDef
  3
ISM
 90
        0
280
     0
281
     0
  0
CLASS
  1
IMAGEDEF_REACTOR
  2
AcDbRasterImageDefReactor
  3
ISM
 90
        1
280
     0
281
     0
  0
CLASS
  1
IDBUFFER
  2
AcDbIdBuffer
  3
AutoCAD 2000
 90
        0
280
     0
281
     0
  0
CLASS
  1
SPATIAL_FILTER
  2
AcDbSpatialFilter
  3
AutoCAD 2000
 90
        0
280
     0
281
     0
  0
CLASS
  1
XRECORD
  2
AcDbXrecord
  3
AutoCAD 2000
 90
        0
280
     0
281
     0
  0
CLASS
  1
SORTENTSTABLE
  2
AcDbSortentsTable
  3
AutoCAD 2000
 90
        0
280
     0
281
     0
  0
CLASS
  1
LAYER_INDEX
  2
AcDbLayerIndex
  3
AutoCAD 2000
 90
        0
280
     0
281
     0
  0
CLASS
  1
SPATIAL_INDEX
  2
AcDbSpatialIndex
  3
AutoCAD 2000
 90
        0
280
     0
281
     0
  0
CLASS
  1
OBJECT_PTR
  2
CAseDLPNTableRecord
  3
"ASE-LPNTableRecord"
 90
        1
280
     0
281
     0
  0
CLASS
  1
LAYOUT
  2
AcDbLayout
  3
AutoCAD 2000
 90
        0
280
     0
281
     0
  0
CLASS
  1
PLOTSETTINGS
  2
AcDbPlotSettings
  3
AutoCAD 2000
 90
        0
280
     0
281
     0
  0
CLASS
  1
ACDBDICTIONARYWDFLT
  2
AcDbDictionaryWithDefault
  3
AutoCAD 2000
 90
        0
280
     0
281
     0
  0
CLASS
  1
ACDBPLACEHOLDER
  2
AcDbPlaceHolder
  3
AutoCAD 2000
 90
        0
280
     0
281
     0
  0
CLASS
  1
VBA_PROJECT
  2
AcDbVbaProject
  3
acadvba
 90
        0
280
     0
281
     0
  0
CLASS
  1
WIPEOUT
  2
AcDbWipeout
  3
WipeOut|AutoCAD Express Tool|expresstools@autodesk.com
 90
      127
280
     0
281
     1
  0
CLASS
  1
WIPEOUTVARIABLES
  2
AcDbWipeoutVariables
  3
WipeOut|AutoCAD Express Tool|expresstools@autodesk.com
 90
        0
280
     0
281
     0
  0
CLASS
  1
RTEXT
  2
RText
  3
RText|AutoCAD Express Tool|expresstools@autodesk.com
 90
        0
280
     0
281
     1
  0
CLASS
  1
ARCALIGNEDTEXT
  2
AcDbArcAlignedText
  3
ATEXT|AutoCAD Express Tool|expresstools@autodesk.com
 90
        0
280
     0
281
     1
  0
ENDSEC
  0
SECTION
  2
TABLES
  0
TABLE
  2
VPORT
  5
7
100
AcDbSymbolTable
 70
     1
  0
VPORT
  5
15
100
AcDbSymbolTableRecord
100
AcDbViewportTableRecord
  2
*ACTIVE
 70
     0
 10
0.0
 20
0.0
 11
1.0
 21
1.0
 12
6.591288
 22
4.579184
 13
0.0
 23
0.0
 14
1.0
 24
1.0
 15
0.0
 25
0.0
 16
0.0
 26
0.0
 36
1.0
 17
0.0
 27
0.0
 37
0.0
 40
9.158369
 41
0.688564
 42
50.0
 43
0.0
 44
0.0
 50
0.0
 51
0.0
 71
     0
 72
   100
 73
     1
 74
     1
 75
     0
 76
     0
 77
     0
 78
     0
281
     0
 65
     0
110
0.0
120
0.0
130
0.0
111
1.0
121
0.0
131
0.0
112
0.0
122
1.0
132
0.0
345
0
346
0
 79
     0
146
0.0
  0
ENDTAB
  0
TABLE
  2
LTYPE
  5
4
100
AcDbSymbolTable
 70
     5
  0
LTYPE
  5
11
100
AcDbSymbolTableRecord
100
AcDbLinetypeTableRecord
  2
ByBlock
 70
    64
  3

 72
    65
 73
     0
 40
0.0
  0
LTYPE
  5
12
100
AcDbSymbolTableRecord
100
AcDbLinetypeTableRecord
  2
ByLayer
 70
    64
  3

 72
    65
 73
     0
 40
0.0
  0
LTYPE
  5
13
100
AcDbSymbolTableRecord
100
AcDbLinetypeTableRecord
  2
Continuous
 70
    64
  3
Solid line
 72
    65
 73
     0
 40
0.0
  0
LTYPE
  5
BA
100
AcDbSymbolTableRecord
100
AcDbLinetypeTableRecord
  2
DOT
 70
    64
  3
..............................................
 72
    65
 73
     2
 40
0.5
 49
0.25
 74
     0
 49
-0.25
 74
     0
  0
LTYPE
  5
2D1
100
AcDbSymbolTableRecord
100
AcDbLinetypeTableRecord
  2
CENTER
 70
    64
  3
____ _ ____ _ ____ _ ____ _ ____ _ ____ _ ____
 72
    65
 73
     4
 40
2.0
 49
1.25
 74
     0
 49
-0.25
 74
     0
 49
0.25
 74
     0
 49
-0.25
 74
     0
  0
ENDTAB
  0
TABLE
  2
LAYER
  5
2
100
AcDbSymbolTable
 70
     4
  0
LAYER
  5
14
100
AcDbSymbolTableRecord
100
AcDbLayerTableRecord
  2
0
 70
     0
 62
     7
  6
Continuous
290
     1
370
    -3
390
1D
  0
LAYER
  5
27
100
AcDbSymbolTableRecord
100
AcDbLayerTableRecord
  2
256
 70
     0
 62
     7
  6
Continuous
290
     1
370
    -3
390
1D
  0
LAYER
  5
B8
100
AcDbSymbolTableRecord
100
AcDbLayerTableRecord
  2
1
 70
     0
 62
     7
  6
Continuous
290
     1
370
    -3
390
1D
  0
LAYER
  5
2C8
100
AcDbSymbolTableRecord
100
AcDbLayerTableRecord
  2
5
 70
     0
 62
     7
  6
Continuous
290
     1
370
    -3
390
1D
  0
ENDTAB
  0
TABLE
  2
STYLE
  5
3
100
AcDbSymbolTable
 70
     1
  0
STYLE
  5
17
100
AcDbSymbolTableRecord
100
AcDbTextStyleTableRecord
  2
Standard
 70
     0
 40
0.0
 41
1.0
 50
0.0
 71
     0
 42
0.0
  3
ＭＳ Ｐゴシック
  4

1001
ACAD
1000
ＭＳ Ｐゴシック
1071
        0
  0
ENDTAB
  0
TABLE
  2
VIEW
  5
5
100
AcDbSymbolTable
 70
     0
  0
ENDTAB
  0
TABLE
  2
UCS
  5
6
100
AcDbSymbolTable
 70
     0
  0
ENDTAB
  0
TABLE
  2
APPID
  5
8
100
AcDbSymbolTable
 70
     2
  0
APPID
  5
16
100
AcDbSymbolTableRecord
100
AcDbRegAppTableRecord
  2
ACAD
 70
     0
  0
APPID
  5
26
100
AcDbSymbolTableRecord
100
AcDbRegAppTableRecord
  2
TOPsolid_Design
 70
     0
  0
ENDTAB
  0
TABLE
  2
DIMSTYLE
  5
9
100
AcDbSymbolTable
 70
     1
100
AcDbDimStyleTable
 71
     0
  0
DIMSTYLE
105
18
100
AcDbSymbolTableRecord
100
AcDbDimStyleTableRecord
  2
Standard
 70
     0
  3

  4

 40
1.0
 41
3.2
 42
3.2
 43
0.38
 44
2.4
 45
0.0
 46
0.0
 47
0.0
 48
0.0
 71
     0
 72
     0
 73
     0
 74
     0
 75
     0
 76
     0
 77
     1
 78
     0
 79
     0
140
8.0
141
0.09
142
0.0
143
25.4
144
1.0
145
0.0
146
0.6
147
4.0
148
0.0
170
     0
171
     2
172
     0
173
     0
174
     0
175
     0
176
     7
177
     7
178
     7
179
     0
271
     6
272
     4
273
     2
274
     2
275
     0
276
     0
277
     2
278
    46
279
     0
280
     0
281
     0
282
     0
283
     1
284
     0
285
     0
286
     0
288
     0
289
     3
340
17
341
0
342
0
343
0
344
0
371
    -2
372
    -2
  0
ENDTAB
  0
TABLE
  2
BLOCK_RECORD
  5
1
100
AcDbSymbolTable
 70
    15
  0
BLOCK_RECORD
  5
A
100
AcDbSymbolTableRecord
100
AcDbBlockTableRecord
  2
*MODEL_SPACE
340
20
  0
BLOCK_RECORD
  5
B
100
AcDbSymbolTableRecord
100
AcDbBlockTableRecord
  2
*PAPER_SPACE
340
21
  0
BLOCK_RECORD
  5
B3
100
AcDbSymbolTableRecord
100
AcDbBlockTableRecord
  2
AID278
340
0
102
{BLKREFS
331
B7
102
}
  0
BLOCK_RECORD
  5
2DB
100
AcDbSymbolTableRecord
100
AcDbBlockTableRecord
  2
AID1043
340
0
102
{BLKREFS
331
2EC
102
}
  0
BLOCK_RECORD
  5
2ED
100
AcDbSymbolTableRecord
100
AcDbBlockTableRecord
  2
AID1056
340
0
102
{BLKREFS
331
2FF
102
}
  0
BLOCK_RECORD
  5
300
100
AcDbSymbolTableRecord
100
AcDbBlockTableRecord
  2
AID1071
340
0
102
{BLKREFS
331
310
102
}
  0
BLOCK_RECORD
  5
311
100
AcDbSymbolTableRecord
100
AcDbBlockTableRecord
  2
AID1082
340
0
102
{BLKREFS
331
322
102
}
  0
BLOCK_RECORD
  5
324
100
AcDbSymbolTableRecord
100
AcDbBlockTableRecord
  2
AID1097
340
0
102
{BLKREFS
331
335
102
}
  0
BLOCK_RECORD
  5
336
100
AcDbSymbolTableRecord
100
AcDbBlockTableRecord
  2
AID1110
340
0
102
{BLKREFS
331
34A
102
}
  0
BLOCK_RECORD
  5
34B
100
AcDbSymbolTableRecord
100
AcDbBlockTableRecord
  2
AID1129
340
0
102
{BLKREFS
331
35D
102
}
  0
BLOCK_RECORD
  5
35F
100
AcDbSymbolTableRecord
100
AcDbBlockTableRecord
  2
AID1146
340
0
102
{BLKREFS
331
373
102
}
  0
BLOCK_RECORD
  5
374
100
AcDbSymbolTableRecord
100
AcDbBlockTableRecord
  2
AID1165
340
0
102
{BLKREFS
331
387
102
}
  0
BLOCK_RECORD
  5
389
100
AcDbSymbolTableRecord
100
AcDbBlockTableRecord
  2
AID1184
340
0
102
{BLKREFS
331
39A
102
}
  0
BLOCK_RECORD
  5
39B
100
AcDbSymbolTableRecord
100
AcDbBlockTableRecord
  2
AID1197
340
0
102
{BLKREFS
331
3AE
102
}
  0
BLOCK_RECORD
  5
3AF
100
AcDbSymbolTableRecord
100
AcDbBlockTableRecord
  2
AID1214
340
0
102
{BLKREFS
331
3B3
102
}
  0
BLOCK_RECORD
  5
3B4
100
AcDbSymbolTableRecord
100
AcDbBlockTableRecord
  2
AID1217
340
0
102
{BLKREFS
331
3B8
102
}
  0
BLOCK_RECORD
  5
3B9
100
AcDbSymbolTableRecord
100
AcDbBlockTableRecord
  2
AID1220
340
0
102
{BLKREFS
331
3BD
102
}
  0
ENDTAB
  0
ENDSEC
  0
SECTION
  2
BLOCKS
  0
BLOCK
  5
D
100
AcDbEntity
  8
0
390
0
100
AcDbBlockBegin
  2
*MODEL_SPACE
 70
     0
 10
0.0
 20
0.0
 30
0.0
  3
*MODEL_SPACE
  1

  0
ENDBLK
  5
E
100
AcDbEntity
  8
0
390
0
100
AcDbBlockEnd
  0
BLOCK
  5
F
100
AcDbEntity
 67
     1
  8
0
390
0
100
AcDbBlockBegin
  2
*PAPER_SPACE
 70
     0
 10
0.0
 20
0.0
 30
0.0
  3
*PAPER_SPACE
  1

  0
ENDBLK
  5
10
100
AcDbEntity
 67
     1
  8
0
390
0
100
AcDbBlockEnd
  0
BLOCK
  5
B4
100
AcDbEntity
  8
0
390
0
100
AcDbBlockBegin
  2
AID278
 70
     0
 10
0.0
 20
0.0
 30
0.0
  3
D_GROUP
  1

  0
MTEXT
  5
B5
100
AcDbEntity
  8
256
390
0
 62
     7
100
AcDbMText
 10
406.171318
 20
6.951938
 30
0.0
 40
3.0
 41
7.472727
 71
     7
 72
     1
  1
A3
210
0.0
220
0.0
230
1.0
 73
     1
 44
1.0
  0
ENDBLK
  5
B6
100
AcDbEntity
  8
0
390
0
100
AcDbBlockEnd
  0
BLOCK
  5
2DC
100
AcDbEntity
  8
0
390
0
100
AcDbBlockBegin
  2
AID1043
 70
     0
 10
0.0
 20
0.0
 30
0.0
  3
D_GROUP
  1

  0
MTEXT
  5
2DD
100
AcDbEntity
  8
1
390
0
 62
     2
100
AcDbMText
 10
157.35692
 20
245.440864
 30
0.0
 40
6.0
 41
11.781818
 71
     7
 72
     1
  1
15
210
0.0
220
0.0
230
1.0
 73
     1
 44
1.0
  0
LINE
  5
2DE
100
AcDbEntity
  8
1
390
0
  6
Continuous
 62
    11
100
AcDbLine
 10
168.538738
 20
244.268137
 30
0.0
 11
153.538738
 21
244.268137
 31
0.0
  0
LINE
  5
2DF
100
AcDbEntity
  8
1
390
0
  6
Continuous
 62
    11
100
AcDbLine
 10
168.538738
 20
234.77067
 30
0.0
 11
168.538738
 21
246.068137
 31
0.0
  0
LINE
  5
2E0
100
AcDbEntity
  8
1
390
0
  6
Continuous
 62
    11
100
AcDbLine
 10
153.538738
 20
233.07067
 30
0.0
 11
153.538738
 21
246.068137
 31
0.0
  0
POLYLINE
  5
2E1
100
AcDbEntity
  8
1
390
0
  6
Continuous
 62
    11
100
AcDb2dPolyline
 66
     1
 10
0.0
 20
0.0
 30
0.0
 40
3.0
 41
3.0
  0
VERTEX
  5
2E2
100
AcDbEntity
  8
1
390
0
 62
    11
100
AcDbVertex
100
AcDb2dVertex
 10
164.038738
 20
245.168137
 30
0.0
  0
VERTEX
  5
2E3
100
AcDbEntity
  8
1
390
0
 62
    11
100
AcDbVertex
100
AcDb2dVertex
 10
168.538738
 20
244.268137
 30
0.0
  0
VERTEX
  5
2E4
100
AcDbEntity
  8
1
390
0
 62
    11
100
AcDbVertex
100
AcDb2dVertex
 10
164.038738
 20
243.368137
 30
0.0
  0
SEQEND
  5
2E5
100
AcDbEntity
  8
0
390
0
  0
POLYLINE
  5
2E6
100
AcDbEntity
  8
1
390
0
  6
Continuous
 62
    11
100
AcDb2dPolyline
 66
     1
 10
0.0
 20
0.0
 30
0.0
 40
3.0
 41
3.0
  0
VERTEX
  5
2E7
100
AcDbEntity
  8
1
390
0
 62
    11
100
AcDbVertex
100
AcDb2dVertex
 10
158.038738
 20
243.368137
 30
0.0
  0
VERTEX
  5
2E8
100
AcDbEntity
  8
1
390
0
 62
    11
100
AcDbVertex
100
AcDb2dVertex
 10
153.538738
 20
244.268137
 30
0.0
  0
VERTEX
  5
2E9
100
AcDbEntity
  8
1
390
0
 62
    11
100
AcDbVertex
100
AcDb2dVertex
 10
158.038738
 20
245.168137
 30
0.0
  0
SEQEND
  5
2EA
100
AcDbEntity
  8
0
390
0
  0
ENDBLK
  5
2EB
100
AcDbEntity
  8
0
390
0
100
AcDbBlockEnd
  0
BLOCK
  5
2EE
100
AcDbEntity
  8
0
390
0
100
AcDbBlockBegin
  2
AID1056
 70
     0
 10
0.0
 20
0.0
 30
0.0
  3
D_GROUP
  1

  0
MTEXT
  5
2EF
100
AcDbEntity
  8
1
390
0
 62
     2
100
AcDbMText
 10
176.849646
 20
238.179761
 30
0.0
 40
6.0
 41
9.490909
 71
     7
 72
     1
  1
Φ
210
0.0
220
0.0
230
1.0
 11
0.0
 21
1.0
 31
0.0
 73
     1
 44
1.0
  0
MTEXT
  5
2F0
100
AcDbEntity
  8
1
390
0
 62
     2
100
AcDbMText
 10
176.849646
 20
244.125216
 30
0.0
 40
6.0
 41
15.654545
 71
     7
 72
     1
  1
3.4
210
0.0
220
0.0
230
1.0
 11
0.0
 21
1.0
 31
0.0
 73
     1
 44
1.0
  0
LINE
  5
2F1
100
AcDbEntity
  8
1
390
0
  6
Continuous
 62
    11
100
AcDbLine
 10
178.022374
 20
252.907034
 30
0.0
 11
178.022374
 21
220.57067
 31
0.0
  0
LINE
  5
2F2
100
AcDbEntity
  8
1
390
0
  6
Continuous
 62
    11
100
AcDbLine
 10
170.338738
 20
232.97067
 30
0.0
 11
179.822374
 21
232.97067
 31
0.0
  0
LINE
  5
2F3
100
AcDbEntity
  8
1
390
0
  6
Continuous
 62
    11
100
AcDbLine
 10
170.338738
 20
229.57067
 30
0.0
 11
179.822374
 21
229.57067
 31
0.0
  0
POLYLINE
  5
2F4
100
AcDbEntity
  8
1
390
0
  6
Continuous
 62
    11
100
AcDb2dPolyline
 66
     1
 10
0.0
 20
0.0
 30
0.0
 40
3.0
 41
3.0
  0
VERTEX
  5
2F5
100
AcDbEntity
  8
1
390
0
 62
    11
100
AcDbVertex
100
AcDb2dVertex
 10
177.122374
 20
237.47067
 30
0.0
  0
VERTEX
  5
2F6
100
AcDbEntity
  8
1
390
0
 62
    11
100
AcDbVertex
100
AcDb2dVertex
 10
178.022374
 20
232.97067
 30
0.0
  0
VERTEX
  5
2F7
100
AcDbEntity
  8
1
390
0
 62
    11
100
AcDbVertex
100
AcDb2dVertex
 10
178.922374
 20
237.47067
 30
0.0
  0
SEQEND
  5
2F8
100
AcDbEntity
  8
0
390
0
  0
POLYLINE
  5
2F9
100
AcDbEntity
  8
1
390
0
  6
Continuous
 62
    11
100
AcDb2dPolyline
 66
     1
 10
0.0
 20
0.0
 30
0.0
 40
3.0
 41
3.0
  0
VERTEX
  5
2FA
100
AcDbEntity
  8
1
390
0
 62
    11
100
AcDbVertex
100
AcDb2dVertex
 10
178.922374
 20
225.07067
 30
0.0
  0
VERTEX
  5
2FB
100
AcDbEntity
  8
1
390
0
 62
    11
100
AcDbVertex
100
AcDb2dVertex
 10
178.022374
 20
229.57067
 30
0.0
  0
VERTEX
  5
2FC
100
AcDbEntity
  8
1
390
0
 62
    11
100
AcDbVertex
100
AcDb2dVertex
 10
177.122374
 20
225.07067
 30
0.0
  0
SEQEND
  5
2FD
100
AcDbEntity
  8
0
390
0
  0
ENDBLK
  5
2FE
100
AcDbEntity
  8
0
390
0
100
AcDbBlockEnd
  0
BLOCK
  5
301
100
AcDbEntity
  8
0
390
0
100
AcDbBlockBegin
  2
AID1071
 70
     0
 10
0.0
 20
0.0
 30
0.0
  3
D_GROUP
  1

  0
MTEXT
  5
302
100
AcDbEntity
  8
1
390
0
 62
     2
100
AcDbMText
 10
194.888325
 20
237.729761
 30
0.0
 40
6.0
 41
9.490909
 71
     7
 72
     1
  1
Φ
210
0.0
220
0.0
230
1.0
 11
0.0
 21
1.0
 31
0.0
 73
     1
 44
1.0
  0
MTEXT
  5
303
100
AcDbEntity
  8
1
390
0
 62
     2
100
AcDbMText
 10
194.888325
 20
243.675216
 30
0.0
 40
6.0
 41
15.381818
 71
     7
 72
     1
  1
2.5
210
0.0
220
0.0
230
1.0
 11
0.0
 21
1.0
 31
0.0
 73
     1
 44
1.0
  0
LINE
  5
304
100
AcDbEntity
  8
1
390
0
  6
Continuous
 62
    11
100
AcDbLine
 10
196.061052
 20
221.02067
 30
0.0
 11
196.061052
 21
252.32067
 31
0.0
  0
POLYLINE
  5
305
100
AcDbEntity
  8
1
390
0
  6
Continuous
 62
    11
100
AcDb2dPolyline
 66
     1
 10
0.0
 20
0.0
 30
0.0
 40
3.0
 41
3.0
  0
VERTEX
  5
306
100
AcDbEntity
  8
1
390
0
 62
    11
100
AcDbVertex
100
AcDb2dVertex
 10
196.961052
 20
225.52067
 30
0.0
  0
VERTEX
  5
307
100
AcDbEntity
  8
1
390
0
 62
    11
100
AcDbVertex
100
AcDb2dVertex
 10
196.061052
 20
230.02067
 30
0.0
  0
VERTEX
  5
308
100
AcDbEntity
  8
1
390
0
 62
    11
100
AcDbVertex
100
AcDb2dVertex
 10
195.161052
 20
225.52067
 30
0.0
  0
SEQEND
  5
309
100
AcDbEntity
  8
0
390
0
  0
POLYLINE
  5
30A
100
AcDbEntity
  8
1
390
0
  6
Continuous
 62
    11
100
AcDb2dPolyline
 66
     1
 10
0.0
 20
0.0
 30
0.0
 40
3.0
 41
3.0
  0
VERTEX
  5
30B
100
AcDbEntity
  8
1
390
0
 62
    11
100
AcDbVertex
100
AcDb2dVertex
 10
195.161052
 20
237.02067
 30
0.0
  0
VERTEX
  5
30C
100
AcDbEntity
  8
1
390
0
 62
    11
100
AcDbVertex
100
AcDb2dVertex
 10
196.061052
 20
232.52067
 30
0.0
  0
VERTEX
  5
30D
100
AcDbEntity
  8
1
390
0
 62
    11
100
AcDbVertex
100
AcDb2dVertex
 10
196.961052
 20
237.02067
 30
0.0
  0
SEQEND
  5
30E
100
AcDbEntity
  8
0
390
0
  0
ENDBLK
  5
30F
100
AcDbEntity
  8
0
390
0
100
AcDbBlockEnd
  0
BLOCK
  5
312
100
AcDbEntity
  8
0
390
0
100
AcDbBlockBegin
  2
AID1082
 70
     0
 10
0.0
 20
0.0
 30
0.0
  3
D_GROUP
  1

  0
MTEXT
  5
313
100
AcDbEntity
  8
1
390
0
 62
     2
100
AcDbMText
 10
250.544892
 20
246.147628
 30
0.0
 40
6.0
 41
12.545455
 71
     7
 72
     1
  1
55
210
0.0
220
0.0
230
1.0
 73
     1
 44
1.0
  0
LINE
  5
314
100
AcDbEntity
  8
1
390
0
  6
Continuous
 62
    11
100
AcDbLine
 10
281.570773
 20
244.974901
 30
0.0
 11
226.500829
 21
244.974901
 31
0.0
  0
LINE
  5
315
100
AcDbEntity
  8
1
390
0
  6
Continuous
 62
    11
100
AcDbLine
 10
281.570773
 20
235.29567
 30
0.0
 11
281.570773
 21
246.774901
 31
0.0
  0
LINE
  5
316
100
AcDbEntity
  8
1
390
0
  6
Continuous
 62
    11
100
AcDbLine
 10
226.500829
 20
235.07067
 30
0.0
 11
226.500829
 21
246.774901
 31
0.0
  0
POLYLINE
  5
317
100
AcDbEntity
  8
1
390
0
  6
Continuous
 62
    11
100
AcDb2dPolyline
 66
     1
 10
0.0
 20
0.0
 30
0.0
 40
3.0
 41
3.0
  0
VERTEX
  5
318
100
AcDbEntity
  8
1
390
0
 62
    11
100
AcDbVertex
100
AcDb2dVertex
 10
277.070773
 20
245.874901
 30
0.0
  0
VERTEX
  5
319
100
AcDbEntity
  8
1
390
0
 62
    11
100
AcDbVertex
100
AcDb2dVertex
 10
281.570773
 20
244.974901
 30
0.0
  0
VERTEX
  5
31A
100
AcDbEntity
  8
1
390
0
 62
    11
100
AcDbVertex
100
AcDb2dVertex
 10
277.070773
 20
244.074901
 30
0.0
  0
SEQEND
  5
31B
100
AcDbEntity
  8
0
390
0
  0
POLYLINE
  5
31C
100
AcDbEntity
  8
1
390
0
  6
Continuous
 62
    11
100
AcDb2dPolyline
 66
     1
 10
0.0
 20
0.0
 30
0.0
 40
3.0
 41
3.0
  0
VERTEX
  5
31D
100
AcDbEntity
  8
1
390
0
 62
    11
100
AcDbVertex
100
AcDb2dVertex
 10
231.000829
 20
244.074901
 30
0.0
  0
VERTEX
  5
31E
100
AcDbEntity
  8
1
390
0
 62
    11
100
AcDbVertex
100
AcDb2dVertex
 10
226.500829
 20
244.974901
 30
0.0
  0
VERTEX
  5
31F
100
AcDbEntity
  8
1
390
0
 62
    11
100
AcDbVertex
100
AcDb2dVertex
 10
231.000829
 20
245.874901
 30
0.0
  0
SEQEND
  5
320
100
AcDbEntity
  8
0
390
0
  0
ENDBLK
  5
321
100
AcDbEntity
  8
0
390
0
100
AcDbBlockEnd
  0
BLOCK
  5
325
100
AcDbEntity
  8
0
390
0
100
AcDbBlockBegin
  2
AID1097
 70
     0
 10
0.0
 20
0.0
 30
0.0
  3
D_GROUP
  1

  0
MTEXT
  5
326
100
AcDbEntity
  8
1
390
0
 62
     2
100
AcDbMText
 10
210.327483
 20
212.568595
 30
0.0
 40
6.0
 41
25.963636
 71
     7
 72
     1
  1
1000
210
0.0
220
0.0
230
1.0
 73
     1
 44
1.0
  0
LINE
  5
327
100
AcDbEntity
  8
1
390
0
  6
Continuous
 62
    11
100
AcDbLine
 10
281.570773
 20
211.42314
 30
0.0
 11
153.538738
 21
211.42314
 31
0.0
  0
LINE
  5
328
100
AcDbEntity
  8
1
390
0
  6
Continuous
 62
    11
100
AcDbLine
 10
281.570773
 20
227.24567
 30
0.0
 11
281.570773
 21
209.62314
 31
0.0
  0
LINE
  5
329
100
AcDbEntity
  8
1
390
0
  6
Continuous
 62
    11
100
AcDbLine
 10
153.538738
 20
229.47067
 30
0.0
 11
153.538738
 21
209.62314
 31
0.0
  0
POLYLINE
  5
32A
100
AcDbEntity
  8
1
390
0
  6
Continuous
 62
    11
100
AcDb2dPolyline
 66
     1
 10
0.0
 20
0.0
 30
0.0
 40
3.0
 41
3.0
  0
VERTEX
  5
32B
100
AcDbEntity
  8
1
390
0
 62
    11
100
AcDbVertex
100
AcDb2dVertex
 10
277.070773
 20
212.32314
 30
0.0
  0
VERTEX
  5
32C
100
AcDbEntity
  8
1
390
0
 62
    11
100
AcDbVertex
100
AcDb2dVertex
 10
281.570773
 20
211.42314
 30
0.0
  0
VERTEX
  5
32D
100
AcDbEntity
  8
1
390
0
 62
    11
100
AcDbVertex
100
AcDb2dVertex
 10
277.070773
 20
210.52314
 30
0.0
  0
SEQEND
  5
32E
100
AcDbEntity
  8
0
390
0
  0
POLYLINE
  5
32F
100
AcDbEntity
  8
1
390
0
  6
Continuous
 62
    11
100
AcDb2dPolyline
 66
     1
 10
0.0
 20
0.0
 30
0.0
 40
3.0
 41
3.0
  0
VERTEX
  5
330
100
AcDbEntity
  8
1
390
0
 62
    11
100
AcDbVertex
100
AcDb2dVertex
 10
158.038738
 20
210.52314
 30
0.0
  0
VERTEX
  5
331
100
AcDbEntity
  8
1
390
0
 62
    11
100
AcDbVertex
100
AcDb2dVertex
 10
153.538738
 20
211.42314
 30
0.0
  0
VERTEX
  5
332
100
AcDbEntity
  8
1
390
0
 62
    11
100
AcDbVertex
100
AcDb2dVertex
 10
158.038738
 20
212.32314
 30
0.0
  0
SEQEND
  5
333
100
AcDbEntity
  8
0
390
0
  0
ENDBLK
  5
334
100
AcDbEntity
  8
0
390
0
100
AcDbBlockEnd
  0
BLOCK
  5
337
100
AcDbEntity
  8
0
390
0
100
AcDbBlockBegin
  2
AID1110
 70
     0
 10
0.0
 20
0.0
 30
0.0
  3
D_GROUP
  1

  0
MTEXT
  5
338
100
AcDbEntity
  8
1
390
0
 62
     2
100
AcDbMText
 10
156.497829
 20
185.645978
 30
0.0
 40
6.0
 41
9.490909
 71
     7
 72
     1
  1
Φ
210
0.0
220
0.0
230
1.0
 73
     1
 44
1.0
  0
MTEXT
  5
339
100
AcDbEntity
  8
1
390
0
 62
     2
100
AcDbMText
 10
162.443284
 20
185.645978
 30
0.0
 40
6.0
 41
14.618182
 71
     7
 72
     1
  1
1.5
210
0.0
220
0.0
230
1.0
 73
     1
 44
1.0
  0
MTEXT
  5
33A
100
AcDbEntity
  8
1
390
0
 62
     2
100
AcDbMText
 10
173.488738
 20
184.445978
 30
0.0
 40
4.2
 41
25.658182
 71
     7
 72
     1
  1
-0.005
210
0.0
220
0.0
230
1.0
 73
     1
 44
1.0
  0
MTEXT
  5
33B
100
AcDbEntity
  8
1
390
0
 62
     2
100
AcDbMText
 10
173.488738
 20
189.333251
 30
0.0
 40
4.2
 41
4.2
 71
     7
 72
     1
  1
　0
210
0.0
220
0.0
230
1.0
 73
     1
 44
1.0
  0
LINE
  5
33C
100
AcDbEntity
  8
1
390
0
  6
Continuous
 62
    11
100
AcDbLine
 10
140.788738
 20
183.265069
 30
0.0
 11
187.051465
 21
183.265069
 31
0.0
  0
LINE
  5
33D
100
AcDbEntity
  8
1
390
0
  6
Continuous
 62
    11
100
AcDbLine
 10
149.788738
 20
172.883177
 30
0.0
 11
149.788738
 21
185.065069
 31
0.0
  0
LINE
  5
33E
100
AcDbEntity
  8
1
390
0
  6
Continuous
 62
    11
100
AcDbLine
 10
151.288738
 20
172.883177
 30
0.0
 11
151.288738
 21
185.065069
 31
0.0
  0
POLYLINE
  5
33F
100
AcDbEntity
  8
1
390
0
  6
Continuous
 62
    11
100
AcDb2dPolyline
 66
     1
 10
0.0
 20
0.0
 30
0.0
 40
3.0
 41
3.0
  0
VERTEX
  5
340
100
AcDbEntity
  8
1
390
0
 62
    11
100
AcDbVertex
100
AcDb2dVertex
 10
145.288738
 20
182.365069
 30
0.0
  0
VERTEX
  5
341
100
AcDbEntity
  8
1
390
0
 62
    11
100
AcDbVertex
100
AcDb2dVertex
 10
149.788738
 20
183.265069
 30
0.0
  0
VERTEX
  5
342
100
AcDbEntity
  8
1
390
0
 62
    11
100
AcDbVertex
100
AcDb2dVertex
 10
145.288738
 20
184.165069
 30
0.0
  0
SEQEND
  5
343
100
AcDbEntity
  8
0
390
0
  0
POLYLINE
  5
344
100
AcDbEntity
  8
1
390
0
  6
Continuous
 62
    11
100
AcDb2dPolyline
 66
     1
 10
0.0
 20
0.0
 30
0.0
 40
3.0
 41
3.0
  0
VERTEX
  5
345
100
AcDbEntity
  8
1
390
0
 62
    11
100
AcDbVertex
100
AcDb2dVertex
 10
155.788738
 20
184.165069
 30
0.0
  0
VERTEX
  5
346
100
AcDbEntity
  8
1
390
0
 62
    11
100
AcDbVertex
100
AcDb2dVertex
 10
151.288738
 20
183.265069
 30
0.0
  0
VERTEX
  5
347
100
AcDbEntity
  8
1
390
0
 62
    11
100
AcDbVertex
100
AcDb2dVertex
 10
155.788738
 20
182.365069
 30
0.0
  0
SEQEND
  5
348
100
AcDbEntity
  8
0
390
0
  0
ENDBLK
  5
349
100
AcDbEntity
  8
0
390
0
100
AcDbBlockEnd
  0
BLOCK
  5
34C
100
AcDbEntity
  8
0
390
0
100
AcDbBlockBegin
  2
AID1129
 70
     0
 10
0.0
 20
0.0
 30
0.0
  3
D_GROUP
  1

  0
MTEXT
  5
34D
100
AcDbEntity
  8
1
390
0
 62
     2
100
AcDbMText
 10
156.747829
 20
100.546762
 30
0.0
 40
6.0
 41
9.490909
 71
     7
 72
     1
  1
Φ
210
0.0
220
0.0
230
1.0
 73
     1
 44
1.0
  0
MTEXT
  5
34E
100
AcDbEntity
  8
1
390
0
 62
     2
100
AcDbMText
 10
162.693284
 20
100.546762
 30
0.0
 40
6.0
 41
5.563636
 71
     7
 72
     1
  1
2
210
0.0
220
0.0
230
1.0
 73
     1
 44
1.0
  0
MTEXT
  5
34F
100
AcDbEntity
  8
1
390
0
 62
     2
100
AcDbMText
 10
168.829647
 20
99.346762
 30
0.0
 40
4.2
 41
19.434545
 71
     7
 72
     1
  1
-0.01
210
0.0
220
0.0
230
1.0
 73
     1
 44
1.0
  0
MTEXT
  5
350
100
AcDbEntity
  8
1
390
0
 62
     2
100
AcDbMText
 10
168.829647
 20
104.234035
 30
0.0
 40
4.2
 41
4.2
 71
     7
 72
     1
  1
　0
210
0.0
220
0.0
230
1.0
 73
     1
 44
1.0
  0
LINE
  5
351
100
AcDbEntity
  8
1
390
0
  6
Continuous
 62
    11
100
AcDbLine
 10
179.280556
 20
98.184944
 30
0.0
 11
140.538738
 21
98.184944
 31
0.0
  0
POLYLINE
  5
352
100
AcDbEntity
  8
1
390
0
  6
Continuous
 62
    11
100
AcDb2dPolyline
 66
     1
 10
0.0
 20
0.0
 30
0.0
 40
3.0
 41
3.0
  0
VERTEX
  5
353
100
AcDbEntity
  8
1
390
0
 62
    11
100
AcDbVertex
100
AcDb2dVertex
 10
156.038738
 20
99.084944
 30
0.0
  0
VERTEX
  5
354
100
AcDbEntity
  8
1
390
0
 62
    11
100
AcDbVertex
100
AcDb2dVertex
 10
151.538738
 20
98.184944
 30
0.0
  0
VERTEX
  5
355
100
AcDbEntity
  8
1
390
0
 62
    11
100
AcDbVertex
100
AcDb2dVertex
 10
156.038738
 20
97.284944
 30
0.0
  0
SEQEND
  5
356
100
AcDbEntity
  8
0
390
0
  0
POLYLINE
  5
357
100
AcDbEntity
  8
1
390
0
  6
Continuous
 62
    11
100
AcDb2dPolyline
 66
     1
 10
0.0
 20
0.0
 30
0.0
 40
3.0
 41
3.0
  0
VERTEX
  5
358
100
AcDbEntity
  8
1
390
0
 62
    11
100
AcDbVertex
100
AcDb2dVertex
 10
145.038738
 20
97.284944
 30
0.0
  0
VERTEX
  5
359
100
AcDbEntity
  8
1
390
0
 62
    11
100
AcDbVertex
100
AcDb2dVertex
 10
149.538738
 20
98.184944
 30
0.0
  0
VERTEX
  5
35A
100
AcDbEntity
  8
1
390
0
 62
    11
100
AcDbVertex
100
AcDb2dVertex
 10
145.038738
 20
99.084944
 30
0.0
  0
SEQEND
  5
35B
100
AcDbEntity
  8
0
390
0
  0
ENDBLK
  5
35C
100
AcDbEntity
  8
0
390
0
100
AcDbBlockEnd
  0
BLOCK
  5
360
100
AcDbEntity
  8
0
390
0
100
AcDbBlockBegin
  2
AID1146
 70
     0
 10
0.0
 20
0.0
 30
0.0
  3
D_GROUP
  1

  0
MTEXT
  5
361
100
AcDbEntity
  8
1
390
0
 62
     2
100
AcDbMText
 10
158.747829
 20
60.671083
 30
0.0
 40
6.0
 41
9.490909
 71
     7
 72
     1
  1
Φ
210
0.0
220
0.0
230
1.0
 73
     1
 44
1.0
  0
MTEXT
  5
362
100
AcDbEntity
  8
1
390
0
 62
     2
100
AcDbMText
 10
164.693284
 20
60.671083
 30
0.0
 40
6.0
 41
5.454545
 71
     7
 72
     1
  1
6
210
0.0
220
0.0
230
1.0
 73
     1
 44
1.0
  0
MTEXT
  5
363
100
AcDbEntity
  8
1
390
0
 62
     2
100
AcDbMText
 10
170.802375
 20
59.471083
 30
0.0
 40
4.2
 41
14.547273
 71
     7
 72
     1
  1
-0.1
210
0.0
220
0.0
230
1.0
 73
     1
 44
1.0
  0
MTEXT
  5
364
100
AcDbEntity
  8
1
390
0
 62
     2
100
AcDbMText
 10
170.802375
 20
64.358355
 30
0.0
 40
4.2
 41
4.2
 71
     7
 72
     1
  1
　0
210
0.0
220
0.0
230
1.0
 73
     1
 44
1.0
  0
LINE
  5
365
100
AcDbEntity
  8
1
390
0
  6
Continuous
 62
    11
100
AcDbLine
 10
138.538738
 20
58.309265
 30
0.0
 11
178.809647
 21
58.309265
 31
0.0
  0
LINE
  5
366
100
AcDbEntity
  8
1
390
0
  6
Continuous
 62
    11
100
AcDbLine
 10
147.538738
 20
69.583177
 30
0.0
 11
147.538738
 21
56.509265
 31
0.0
  0
LINE
  5
367
100
AcDbEntity
  8
1
390
0
  6
Continuous
 62
    11
100
AcDbLine
 10
153.538738
 20
69.583177
 30
0.0
 11
153.538738
 21
56.509265
 31
0.0
  0
POLYLINE
  5
368
100
AcDbEntity
  8
1
390
0
  6
Continuous
 62
    11
100
AcDb2dPolyline
 66
     1
 10
0.0
 20
0.0
 30
0.0
 40
3.0
 41
3.0
  0
VERTEX
  5
369
100
AcDbEntity
  8
1
390
0
 62
    11
100
AcDbVertex
100
AcDb2dVertex
 10
143.038738
 20
57.409265
 30
0.0
  0
VERTEX
  5
36A
100
AcDbEntity
  8
1
390
0
 62
    11
100
AcDbVertex
100
AcDb2dVertex
 10
147.538738
 20
58.309265
 30
0.0
  0
VERTEX
  5
36B
100
AcDbEntity
  8
1
390
0
 62
    11
100
AcDbVertex
100
AcDb2dVertex
 10
143.038738
 20
59.209265
 30
0.0
  0
SEQEND
  5
36C
100
AcDbEntity
  8
0
390
0
  0
POLYLINE
  5
36D
100
AcDbEntity
  8
1
390
0
  6
Continuous
 62
    11
100
AcDb2dPolyline
 66
     1
 10
0.0
 20
0.0
 30
0.0
 40
3.0
 41
3.0
  0
VERTEX
  5
36E
100
AcDbEntity
  8
1
390
0
 62
    11
100
AcDbVertex
100
AcDb2dVertex
 10
158.038738
 20
59.209265
 30
0.0
  0
VERTEX
  5
36F
100
AcDbEntity
  8
1
390
0
 62
    11
100
AcDbVertex
100
AcDb2dVertex
 10
153.538738
 20
58.309265
 30
0.0
  0
VERTEX
  5
370
100
AcDbEntity
  8
1
390
0
 62
    11
100
AcDbVertex
100
AcDb2dVertex
 10
158.038738
 20
57.409265
 30
0.0
  0
SEQEND
  5
371
100
AcDbEntity
  8
0
390
0
  0
ENDBLK
  5
372
100
AcDbEntity
  8
0
390
0
100
AcDbBlockEnd
  0
BLOCK
  5
375
100
AcDbEntity
  8
0
390
0
100
AcDbBlockBegin
  2
AID1165
 70
     0
 10
0.0
 20
0.0
 30
0.0
  3
D_GROUP
  1

  0
MTEXT
  5
376
100
AcDbEntity
  8
1
390
0
 62
     2
100
AcDbMText
 10
134.668013
 20
81.137723
 30
0.0
 40
6.0
 41
6.054545
 71
     7
 72
     1
  1
4
210
0.0
220
0.0
230
1.0
 11
0.0
 21
1.0
 31
0.0
 73
     1
 44
1.0
  0
MTEXT
  5
377
100
AcDbEntity
  8
1
390
0
 62
     2
100
AcDbMText
 10
135.868013
 20
87.41045
 30
0.0
 40
4.2
 41
14.547273
 71
     7
 72
     1
  1
-0.1
210
0.0
220
0.0
230
1.0
 11
0.0
 21
1.0
 31
0.0
 73
     1
 44
1.0
  0
MTEXT
  5
378
100
AcDbEntity
  8
1
390
0
 62
     2
100
AcDbMText
 10
130.98074
 20
87.41045
 30
0.0
 40
4.2
 41
4.2
 71
     7
 72
     1
  1
　0
210
0.0
220
0.0
230
1.0
 11
0.0
 21
1.0
 31
0.0
 73
     1
 44
1.0
  0
LINE
  5
379
100
AcDbEntity
  8
1
390
0
  6
Continuous
 62
    11
100
AcDbLine
 10
137.029831
 20
62.083177
 30
0.0
 11
137.029831
 21
95.417723
 31
0.0
  0
LINE
  5
37A
100
AcDbEntity
  8
1
390
0
  6
Continuous
 62
    11
100
AcDbLine
 10
146.438738
 20
71.083177
 30
0.0
 11
135.229831
 21
71.083177
 31
0.0
  0
LINE
  5
37B
100
AcDbEntity
  8
1
390
0
  6
Continuous
 62
    11
100
AcDbLine
 10
145.738738
 20
75.083177
 30
0.0
 11
135.229831
 21
75.083177
 31
0.0
  0
POLYLINE
  5
37C
100
AcDbEntity
  8
1
390
0
  6
Continuous
 62
    11
100
AcDb2dPolyline
 66
     1
 10
0.0
 20
0.0
 30
0.0
 40
3.0
 41
3.0
  0
VERTEX
  5
37D
100
AcDbEntity
  8
1
390
0
 62
    11
100
AcDbVertex
100
AcDb2dVertex
 10
137.929831
 20
66.583177
 30
0.0
  0
VERTEX
  5
37E
100
AcDbEntity
  8
1
390
0
 62
    11
100
AcDbVertex
100
AcDb2dVertex
 10
137.029831
 20
71.083177
 30
0.0
  0
VERTEX
  5
37F
100
AcDbEntity
  8
1
390
0
 62
    11
100
AcDbVertex
100
AcDb2dVertex
 10
136.129831
 20
66.583177
 30
0.0
  0
SEQEND
  5
380
100
AcDbEntity
  8
0
390
0
  0
POLYLINE
  5
381
100
AcDbEntity
  8
1
390
0
  6
Continuous
 62
    11
100
AcDb2dPolyline
 66
     1
 10
0.0
 20
0.0
 30
0.0
 40
3.0
 41
3.0
  0
VERTEX
  5
382
100
AcDbEntity
  8
1
390
0
 62
    11
100
AcDbVertex
100
AcDb2dVertex
 10
136.129831
 20
79.583177
 30
0.0
  0
VERTEX
  5
383
100
AcDbEntity
  8
1
390
0
 62
    11
100
AcDbVertex
100
AcDb2dVertex
 10
137.029831
 20
75.083177
 30
0.0
  0
VERTEX
  5
384
100
AcDbEntity
  8
1
390
0
 62
    11
100
AcDbVertex
100
AcDb2dVertex
 10
137.929831
 20
79.583177
 30
0.0
  0
SEQEND
  5
385
100
AcDbEntity
  8
0
390
0
  0
ENDBLK
  5
386
100
AcDbEntity
  8
0
390
0
100
AcDbBlockEnd
  0
BLOCK
  5
38A
100
AcDbEntity
  8
0
390
0
100
AcDbBlockBegin
  2
AID1184
 70
     0
 10
0.0
 20
0.0
 30
0.0
  3
D_GROUP
  1

  0
MTEXT
  5
38B
100
AcDbEntity
  8
1
390
0
 62
     2
100
AcDbMText
 10
123.734853
 20
87.592268
 30
0.0
 40
6.0
 41
12.981818
 71
     7
 72
     1
  1
40
210
0.0
220
0.0
230
1.0
 11
0.0
 21
1.0
 31
0.0
 73
     1
 44
1.0
  0
LINE
  5
38C
100
AcDbEntity
  8
1
390
0
  6
Continuous
 62
    11
100
AcDbLine
 10
124.880308
 20
71.083177
 30
0.0
 11
124.880308
 21
111.083177
 31
0.0
  0
LINE
  5
38D
100
AcDbEntity
  8
1
390
0
  6
Continuous
 62
    11
100
AcDbLine
 10
146.438738
 20
71.083177
 30
0.0
 11
123.080308
 21
71.083177
 31
0.0
  0
LINE
  5
38E
100
AcDbEntity
  8
1
390
0
  6
Continuous
 62
    11
100
AcDbLine
 10
147.988738
 20
111.083177
 30
0.0
 11
123.080308
 21
111.083177
 31
0.0
  0
POLYLINE
  5
38F
100
AcDbEntity
  8
1
390
0
  6
Continuous
 62
    11
100
AcDb2dPolyline
 66
     1
 10
0.0
 20
0.0
 30
0.0
 40
3.0
 41
3.0
  0
VERTEX
  5
390
100
AcDbEntity
  8
1
390
0
 62
    11
100
AcDbVertex
100
AcDb2dVertex
 10
125.780308
 20
75.583177
 30
0.0
  0
VERTEX
  5
391
100
AcDbEntity
  8
1
390
0
 62
    11
100
AcDbVertex
100
AcDb2dVertex
 10
124.880308
 20
71.083177
 30
0.0
  0
VERTEX
  5
392
100
AcDbEntity
  8
1
390
0
 62
    11
100
AcDbVertex
100
AcDb2dVertex
 10
123.980308
 20
75.583177
 30
0.0
  0
SEQEND
  5
393
100
AcDbEntity
  8
0
390
0
  0
POLYLINE
  5
394
100
AcDbEntity
  8
1
390
0
  6
Continuous
 62
    11
100
AcDb2dPolyline
 66
     1
 10
0.0
 20
0.0
 30
0.0
 40
3.0
 41
3.0
  0
VERTEX
  5
395
100
AcDbEntity
  8
1
390
0
 62
    11
100
AcDbVertex
100
AcDb2dVertex
 10
123.980308
 20
106.583177
 30
0.0
  0
VERTEX
  5
396
100
AcDbEntity
  8
1
390
0
 62
    11
100
AcDbVertex
100
AcDb2dVertex
 10
124.880308
 20
111.083177
 30
0.0
  0
VERTEX
  5
397
100
AcDbEntity
  8
1
390
0
 62
    11
100
AcDbVertex
100
AcDb2dVertex
 10
125.780308
 20
106.583177
 30
0.0
  0
SEQEND
  5
398
100
AcDbEntity
  8
0
390
0
  0
ENDBLK
  5
399
100
AcDbEntity
  8
0
390
0
100
AcDbBlockEnd
  0
BLOCK
  5
39C
100
AcDbEntity
  8
0
390
0
100
AcDbBlockBegin
  2
AID1197
 70
     0
 10
0.0
 20
0.0
 30
0.0
  3
D_GROUP
  1

  0
MTEXT
  5
39D
100
AcDbEntity
  8
1
390
0
 62
     2
100
AcDbMText
 10
108.76493
 20
110.02545
 30
0.0
 40
6.0
 41
18.981818
 71
     7
 72
     1
  1
100
210
0.0
220
0.0
230
1.0
 11
0.0
 21
1.0
 31
0.0
 73
     1
 44
1.0
  0
MTEXT
  5
39E
100
AcDbEntity
  8
1
390
0
 62
     2
100
AcDbMText
 10
109.96493
 20
123.252723
 30
0.0
 40
4.2
 41
15.883636
 71
     7
 72
     1
  1
+0.5
210
0.0
220
0.0
230
1.0
 11
0.0
 21
1.0
 31
0.0
 73
     1
 44
1.0
  0
MTEXT
  5
39F
100
AcDbEntity
  8
1
390
0
 62
     2
100
AcDbMText
 10
105.077657
 20
123.252723
 30
0.0
 40
4.2
 41
16.036364
 71
     7
 72
     1
  1
+2.0
210
0.0
220
0.0
230
1.0
 11
0.0
 21
1.0
 31
0.0
 73
     1
 44
1.0
  0
LINE
  5
3A0
100
AcDbEntity
  8
1
390
0
  6
Continuous
 62
    11
100
AcDbLine
 10
111.145839
 20
71.083177
 30
0.0
 11
111.145839
 21
171.083177
 31
0.0
  0
LINE
  5
3A1
100
AcDbEntity
  8
1
390
0
  6
Continuous
 62
    11
100
AcDbLine
 10
146.438738
 20
71.083177
 30
0.0
 11
109.345839
 21
71.083177
 31
0.0
  0
LINE
  5
3A2
100
AcDbEntity
  8
1
390
0
  6
Continuous
 62
    11
100
AcDbLine
 10
147.988738
 20
171.083177
 30
0.0
 11
109.345839
 21
171.083177
 31
0.0
  0
POLYLINE
  5
3A3
100
AcDbEntity
  8
1
390
0
  6
Continuous
 62
    11
100
AcDb2dPolyline
 66
     1
 10
0.0
 20
0.0
 30
0.0
 40
3.0
 41
3.0
  0
VERTEX
  5
3A4
100
AcDbEntity
  8
1
390
0
 62
    11
100
AcDbVertex
100
AcDb2dVertex
 10
112.045839
 20
75.583177
 30
0.0
  0
VERTEX
  5
3A5
100
AcDbEntity
  8
1
390
0
 62
    11
100
AcDbVertex
100
AcDb2dVertex
 10
111.145839
 20
71.083177
 30
0.0
  0
VERTEX
  5
3A6
100
AcDbEntity
  8
1
390
0
 62
    11
100
AcDbVertex
100
AcDb2dVertex
 10
110.245839
 20
75.583177
 30
0.0
  0
SEQEND
  5
3A7
100
AcDbEntity
  8
0
390
0
  0
POLYLINE
  5
3A8
100
AcDbEntity
  8
1
390
0
  6
Continuous
 62
    11
100
AcDb2dPolyline
 66
     1
 10
0.0
 20
0.0
 30
0.0
 40
3.0
 41
3.0
  0
VERTEX
  5
3A9
100
AcDbEntity
  8
1
390
0
 62
    11
100
AcDbVertex
100
AcDb2dVertex
 10
110.245839
 20
166.583177
 30
0.0
  0
VERTEX
  5
3AA
100
AcDbEntity
  8
1
390
0
 62
    11
100
AcDbVertex
100
AcDb2dVertex
 10
111.145839
 20
171.083177
 30
0.0
  0
VERTEX
  5
3AB
100
AcDbEntity
  8
1
390
0
 62
    11
100
AcDbVertex
100
AcDb2dVertex
 10
112.045839
 20
166.583177
 30
0.0
  0
SEQEND
  5
3AC
100
AcDbEntity
  8
0
390
0
  0
ENDBLK
  5
3AD
100
AcDbEntity
  8
0
390
0
100
AcDbBlockEnd
  0
BLOCK
  5
3B0
100
AcDbEntity
  8
0
390
0
100
AcDbBlockBegin
  2
AID1214
 70
     0
 10
0.0
 20
0.0
 30
0.0
  3
D_GROUP
  1

  0
MTEXT
  5
3B1
100
AcDbEntity
  8
1
390
0
 62
     7
100
AcDbMText
 10
353.197228
 20
39.524667
 30
0.0
 40
4.0
 41
106.981818
 71
     7
 72
     1
  1
エジェクタピン形圧力センサ
210
0.0
220
0.0
230
1.0
 73
     1
 44
1.0
  0
ENDBLK
  5
3B2
100
AcDbEntity
  8
0
390
0
100
AcDbBlockEnd
  0
BLOCK
  5
3B5
100
AcDbEntity
  8
0
390
0
100
AcDbBlockBegin
  2
AID1217
 70
     0
 10
0.0
 20
0.0
 30
0.0
  3
D_GROUP
  1

  0
MTEXT
  5
3B6
100
AcDbEntity
  8
1
390
0
 62
     7
100
AcDbMText
 10
364.248123
 20
28.937823
 30
0.0
 40
4.0
 41
62.254545
 71
     7
 72
     1
  1
SSEQ-01.5X100
210
0.0
220
0.0
230
1.0
 73
     1
 44
1.0
  0
ENDBLK
  5
3B7
100
AcDbEntity
  8
0
390
0
100
AcDbBlockEnd
  0
BLOCK
  5
3BA
100
AcDbEntity
  8
0
390
0
100
AcDbBlockBegin
  2
AID1220
 70
     0
 10
0.0
 20
0.0
 30
0.0
  3
D_GROUP
  1

  0
MTEXT
  5
3BB
100
AcDbEntity
  8
1
390
0
 62
     7
100
AcDbMText
 10
323.421834
 20
31.689152
 30
0.0
 40
5.0
 41
14.045455
 71
     7
 72
     1
  1
1：1
210
0.0
220
0.0
230
1.0
 73
     1
 44
1.0
  0
ENDBLK
  5
3BC
100
AcDbEntity
  8
0
390
0
100
AcDbBlockEnd
  0
ENDSEC
  0
SECTION
  2
ENTITIES
  0
LINE
  5
28
100
AcDbEntity
  8
256
390
0
  6
Continuous
 62
     8
100
AcDbLine
 10
222.0
 20
34.5
 30
0.0
 11
271.0
 21
34.5
 31
0.0
  0
LINE
  5
29
100
AcDbEntity
  8
256
390
0
  6
Continuous
 62
     8
100
AcDbLine
 10
390.25
 20
277.0
 30
0.0
 11
390.25
 21
287.0
 31
0.0
  0
LINE
  5
2A
100
AcDbEntity
  8
256
390
0
  6
Continuous
 62
     8
100
AcDbLine
 10
229.511017
 20
262.368011
 30
0.0
 11
234.511017
 21
262.368011
 31
0.0
  0
LINE
  5
2B
100
AcDbEntity
  8
256
390
0
  6
Continuous
 62
     8
100
AcDbLine
 10
222.0
 20
38.0
 30
0.0
 11
271.0
 21
38.0
 31
0.0
  0
LINE
  5
2C
100
AcDbEntity
  8
256
390
0
  6
Continuous
 62
     8
100
AcDbLine
 10
237.0
 20
287.0
 30
0.0
 11
237.0
 21
257.0
 31
0.0
  0
LINE
  5
2D
100
AcDbEntity
  8
256
390
0
  6
Continuous
 62
     8
100
AcDbLine
 10
303.8
 20
48.0
 30
0.0
 11
303.8
 21
10.0
 31
0.0
  0
LINE
  5
2E
100
AcDbEntity
  8
256
390
0
  6
Continuous
 62
     8
100
AcDbLine
 10
385.25
 20
277.0
 30
0.0
 11
385.25
 21
287.0
 31
0.0
  0
LINE
  5
2F
100
AcDbEntity
  8
256
390
0
  6
Continuous
 62
     8
100
AcDbLine
 10
287.4
 20
31.0
 30
0.0
 11
287.4
 21
10.0
 31
0.0
  0
LINE
  5
30
100
AcDbEntity
  8
256
390
0
  6
Continuous
 62
     8
100
AcDbLine
 10
253.750031
 20
44.0
 30
0.0
 11
253.750031
 21
10.0
 31
0.0
  0
LINE
  5
31
100
AcDbEntity
  8
256
390
0
  6
Continuous
 62
     8
100
AcDbLine
 10
410.0
 20
10.0
 30
0.0
 11
410.0
 21
287.0
 31
0.0
  0
LINE
  5
32
100
AcDbEntity
  8
256
390
0
  6
Continuous
 62
     8
100
AcDbLine
 10
335.25
 20
15.666667
 30
0.0
 11
335.25
 21
48.0
 31
0.0
  0
LINE
  5
33
100
AcDbEntity
  8
256
390
0
  6
Continuous
 62
     8
100
AcDbLine
 10
410.0
 20
287.0
 30
0.0
 11
10.0
 21
287.0
 31
0.0
  0
LINE
  5
34
100
AcDbEntity
  8
256
390
0
  6
Continuous
 62
     8
100
AcDbLine
 10
362.0
 20
287.0
 30
0.0
 11
362.0
 21
257.0
 31
0.0
  0
LINE
  5
35
100
AcDbEntity
  8
256
390
0
  6
Continuous
 62
     8
100
AcDbLine
 10
410.0
 20
267.0
 30
0.0
 11
227.0
 21
267.0
 31
0.0
  0
LINE
  5
36
100
AcDbEntity
  8
256
390
0
  6
Continuous
 62
     8
100
AcDbLine
 10
410.0
 20
277.0
 30
0.0
 11
227.0
 21
277.0
 31
0.0
  0
LINE
  5
37
100
AcDbEntity
  8
256
390
0
  6
Continuous
 62
     8
100
AcDbLine
 10
271.0
 20
41.0
 30
0.0
 11
335.25
 21
41.0
 31
0.0
  0
LINE
  5
38
100
AcDbEntity
  8
256
390
0
  6
Continuous
 62
     8
100
AcDbLine
 10
222.0
 20
44.0
 30
0.0
 11
271.0
 21
44.0
 31
0.0
  0
LINE
  5
39
100
AcDbEntity
  8
256
390
0
  6
Continuous
 62
     8
100
AcDbLine
 10
232.011017
 20
261.664886
 30
0.0
 11
229.511017
 21
257.368011
 31
0.0
  0
LINE
  5
3A
100
AcDbEntity
  8
256
390
0
  6
Continuous
 62
     8
100
AcDbLine
 10
248.000031
 20
38.0
 30
0.0
 11
222.0
 21
44.0
 31
0.0
  0
LINE
  5
3B
100
AcDbEntity
  8
256
390
0
  6
Continuous
 62
     8
100
AcDbLine
 10
357.0
 20
262.0
 30
0.0
 11
227.0
 21
262.0
 31
0.0
  0
LINE
  5
3C
100
AcDbEntity
  8
256
390
0
  6
Continuous
 62
     8
100
AcDbLine
 10
222.0
 20
31.0
 30
0.0
 11
320.25
 21
31.0
 31
0.0
  0
LINE
  5
3D
100
AcDbEntity
  8
256
390
0
  6
Continuous
 62
     8
100
AcDbLine
 10
234.511017
 20
267.368011
 30
0.0
 11
232.011017
 21
271.664886
 31
0.0
  0
LINE
  5
3E
100
AcDbEntity
  8
256
390
0
  6
Continuous
 62
     8
100
AcDbLine
 10
385.25
 20
282.0
 30
0.0
 11
362.0
 21
282.0
 31
0.0
  0
LINE
  5
3F
100
AcDbEntity
  8
256
390
0
  6
Continuous
 62
     8
100
AcDbLine
 10
10.0
 20
10.0
 30
0.0
 11
410.0
 21
10.0
 31
0.0
  0
LINE
  5
40
100
AcDbEntity
  8
256
390
0
  6
Continuous
 62
     8
100
AcDbLine
 10
222.0
 20
48.0
 30
0.0
 11
410.0
 21
48.0
 31
0.0
  0
LINE
  5
41
100
AcDbEntity
  8
256
390
0
  6
Continuous
 62
     8
100
AcDbLine
 10
227.000031
 20
10.0
 30
0.0
 11
410.0
 21
10.0
 31
0.0
  0
LINE
  5
42
100
AcDbEntity
  8
256
390
0
  6
Continuous
 62
     8
100
AcDbLine
 10
342.0
 20
287.0
 30
0.0
 11
342.0
 21
257.0
 31
0.0
  0
LINE
  5
43
100
AcDbEntity
  8
256
390
0
  6
Continuous
 62
     8
100
AcDbLine
 10
222.0
 20
13.5
 30
0.0
 11
271.000031
 21
13.5
 31
0.0
  0
LINE
  5
44
100
AcDbEntity
  8
256
390
0
  6
Continuous
 62
     8
100
AcDbLine
 10
222.0
 20
20.5
 30
0.0
 11
271.0
 21
20.5
 31
0.0
  0
LINE
  5
45
100
AcDbEntity
  8
256
390
0
  6
Continuous
 62
     8
100
AcDbLine
 10
222.0
 20
27.5
 30
0.0
 11
271.0
 21
27.5
 31
0.0
  0
LINE
  5
46
100
AcDbEntity
  8
256
390
0
  6
Continuous
 62
     8
100
AcDbLine
 10
248.000031
 20
44.0
 30
0.0
 11
248.000031
 21
10.0
 31
0.0
  0
LINE
  5
47
100
AcDbEntity
  8
256
390
0
  6
Continuous
 62
     8
100
AcDbLine
 10
222.0
 20
48.0
 30
0.0
 11
222.0
 21
10.0
 31
0.0
  0
LINE
  5
48
100
AcDbEntity
  8
256
390
0
  6
Continuous
 62
     8
100
AcDbLine
 10
232.011017
 20
276.664886
 30
0.0
 11
229.511017
 21
272.368011
 31
0.0
  0
LINE
  5
49
100
AcDbEntity
  8
256
390
0
  6
Continuous
 62
     8
100
AcDbLine
 10
357.0
 20
282.0
 30
0.0
 11
227.0
 21
282.0
 31
0.0
  0
LINE
  5
4A
100
AcDbEntity
  8
256
390
0
  6
Continuous
 62
     8
100
AcDbLine
 10
229.511017
 20
267.368011
 30
0.0
 11
234.511017
 21
267.368011
 31
0.0
  0
LINE
  5
4B
100
AcDbEntity
  8
256
390
0
  6
Continuous
 62
     8
100
AcDbLine
 10
222.0
 20
24.0
 30
0.0
 11
271.0
 21
24.0
 31
0.0
  0
LINE
  5
4C
100
AcDbEntity
  8
256
390
0
  6
Continuous
 62
     8
100
AcDbLine
 10
232.011017
 20
281.664886
 30
0.0
 11
229.511017
 21
277.368011
 31
0.0
  0
LINE
  5
4D
100
AcDbEntity
  8
256
390
0
  6
Continuous
 62
     8
100
AcDbLine
 10
265.250031
 20
44.0
 30
0.0
 11
265.250031
 21
10.0
 31
0.0
  0
LINE
  5
4E
100
AcDbEntity
  8
256
390
0
  6
Continuous
 62
     8
100
AcDbLine
 10
229.511017
 20
277.368011
 30
0.0
 11
234.511017
 21
277.368011
 31
0.0
  0
LINE
  5
4F
100
AcDbEntity
  8
256
390
0
  6
Continuous
 62
     8
100
AcDbLine
 10
320.25
 20
10.0
 30
0.0
 11
320.25
 21
48.0
 31
0.0
  0
LINE
  5
50
100
AcDbEntity
  8
256
390
0
  6
Continuous
 62
     8
100
AcDbLine
 10
232.011017
 20
271.664886
 30
0.0
 11
229.511017
 21
267.368011
 31
0.0
  0
LINE
  5
51
100
AcDbEntity
  8
256
390
0
  6
Continuous
 62
     8
100
AcDbLine
 10
234.511017
 20
277.368011
 30
0.0
 11
232.011017
 21
281.664886
 31
0.0
  0
LINE
  5
52
100
AcDbEntity
  8
256
390
0
  6
Continuous
 62
     8
100
AcDbLine
 10
222.0
 20
17.0
 30
0.0
 11
271.0
 21
17.0
 31
0.0
  0
LINE
  5
53
100
AcDbEntity
  8
256
390
0
  6
Continuous
 62
     8
100
AcDbLine
 10
271.0
 20
48.0
 30
0.0
 11
271.0
 21
10.0
 31
0.0
  0
LINE
  5
54
100
AcDbEntity
  8
256
390
0
  6
Continuous
 62
     8
100
AcDbLine
 10
357.0
 20
287.0
 30
0.0
 11
357.0
 21
257.0
 31
0.0
  0
LINE
  5
55
100
AcDbEntity
  8
256
390
0
  6
Continuous
 62
     8
100
AcDbLine
 10
335.25
 20
35.0
 30
0.0
 11
410.0
 21
35.0
 31
0.0
  0
LINE
  5
56
100
AcDbEntity
  8
256
390
0
  6
Continuous
 62
     8
100
AcDbLine
 10
227.0
 20
287.0
 30
0.0
 11
227.0
 21
257.0
 31
0.0
  0
LINE
  5
57
100
AcDbEntity
  8
256
390
0
  6
Continuous
 62
     8
100
AcDbLine
 10
327.0
 20
287.0
 30
0.0
 11
327.0
 21
257.0
 31
0.0
  0
LINE
  5
58
100
AcDbEntity
  8
256
390
0
  6
Continuous
 62
     8
100
AcDbLine
 10
229.511017
 20
272.368011
 30
0.0
 11
234.511017
 21
272.368011
 31
0.0
  0
LINE
  5
59
100
AcDbEntity
  8
256
390
0
  6
Continuous
 62
     8
100
AcDbLine
 10
259.500031
 20
44.0
 30
0.0
 11
259.500031
 21
10.0
 31
0.0
  0
LINE
  5
5A
100
AcDbEntity
  8
256
390
0
  6
Continuous
 62
     8
100
AcDbLine
 10
320.25
 20
15.666667
 30
0.0
 11
410.0
 21
15.666667
 31
0.0
  0
LINE
  5
5B
100
AcDbEntity
  8
256
390
0
  6
Continuous
 62
     8
100
AcDbLine
 10
229.511017
 20
257.368011
 30
0.0
 11
234.511017
 21
257.368011
 31
0.0
  0
LINE
  5
5C
100
AcDbEntity
  8
256
390
0
  6
Continuous
 62
     8
100
AcDbLine
 10
232.011017
 20
266.664886
 30
0.0
 11
229.511017
 21
262.368011
 31
0.0
  0
LINE
  5
5D
100
AcDbEntity
  8
256
390
0
  6
Continuous
 62
     8
100
AcDbLine
 10
410.0
 20
257.0
 30
0.0
 11
227.0
 21
257.0
 31
0.0
  0
LINE
  5
5E
100
AcDbEntity
  8
256
390
0
  6
Continuous
 62
     8
100
AcDbLine
 10
234.511017
 20
257.368011
 30
0.0
 11
232.011017
 21
261.664886
 31
0.0
  0
LINE
  5
5F
100
AcDbEntity
  8
256
390
0
  6
Continuous
 62
     8
100
AcDbLine
 10
271.0
 20
26.5
 30
0.0
 11
410.0
 21
26.5
 31
0.0
  0
LINE
  5
60
100
AcDbEntity
  8
256
390
0
  6
Continuous
 62
     8
100
AcDbLine
 10
10.0
 20
10.0
 30
0.0
 11
10.0
 21
287.0
 31
0.0
  0
LINE
  5
61
100
AcDbEntity
  8
256
390
0
  6
Continuous
 62
     8
100
AcDbLine
 10
234.511017
 20
262.368011
 30
0.0
 11
232.011017
 21
266.664886
 31
0.0
  0
LINE
  5
62
100
AcDbEntity
  8
256
390
0
  6
Continuous
 62
     8
100
AcDbLine
 10
350.25
 20
15.666667
 30
0.0
 11
350.25
 21
48.0
 31
0.0
  0
LINE
  5
63
100
AcDbEntity
  8
256
390
0
  6
Continuous
 62
     8
100
AcDbLine
 10
307.164695
 20
32.573373
 30
0.0
 11
314.235801
 21
39.644442
 31
0.0
  0
LINE
  5
64
100
AcDbEntity
  8
256
390
0
  6
Continuous
 62
     8
100
AcDbLine
 10
357.0
 20
272.0
 30
0.0
 11
227.0
 21
272.0
 31
0.0
  0
LINE
  5
65
100
AcDbEntity
  8
256
390
0
  6
Continuous
 62
     8
100
AcDbLine
 10
234.511017
 20
272.368011
 30
0.0
 11
232.011017
 21
276.664886
 31
0.0
  0
MTEXT
  5
66
100
AcDbEntity
  8
256
390
0
 62
     8
100
AcDbMText
 10
262.375031
 20
28.244792
 30
0.0
 40
1.75
 41
4.55
 71
     8
 72
     1
  1
0.5  
210
0.0
220
0.0
230
1.0
 73
     1
 44
1.0
  0
MTEXT
  5
67
100
AcDbEntity
  8
256
390
0
 62
     8
100
AcDbMText
 10
250.875031
 20
21.244792
 30
0.0
 40
1.75
 41
4.55
 71
     8
 72
     1
  1
0.2  
210
0.0
220
0.0
230
1.0
 73
     1
 44
1.0
  0
MTEXT
  5
68
100
AcDbEntity
  8
256
390
0
 62
     8
100
AcDbMText
 10
250.875031
 20
28.244792
 30
0.0
 40
1.75
 41
3.993182
 71
     8
 72
     1
  1
0.1  
210
0.0
220
0.0
230
1.0
 73
     1
 44
1.0
  0
MTEXT
  5
69
100
AcDbEntity
  8
256
390
0
 62
     8
100
AcDbMText
 10
250.875031
 20
17.744792
 30
0.0
 40
1.75
 41
4.55
 71
     8
 72
     1
  1
0.3  
210
0.0
220
0.0
230
1.0
 73
     1
 44
1.0
  0
MTEXT
  5
6A
100
AcDbEntity
  8
256
390
0
 62
     8
100
AcDbMText
 10
287.02719
 20
42.856306
 30
0.0
 40
3.386667
 41
24.56873
 71
     8
 72
     1
  1
材    質  
210
0.0
220
0.0
230
0.9999999999999999
 73
     1
 44
1.0
  0
MTEXT
  5
6B
100
AcDbEntity
  8
256
390
0
 62
     8
100
AcDbMText
 10
256.625031
 20
35.244792
 30
0.0
 40
1.75
 41
3.993182
 71
     8
 72
     1
  1
0.1  
210
0.0
220
0.0
230
1.0
 73
     1
 44
1.0
  0
MTEXT
  5
6C
100
AcDbEntity
  8
256
390
0
 62
     8
100
AcDbMText
 10
268.125015
 20
14.244792
 30
0.0
 40
1.75
 41
1.590909
 71
     8
 72
     1
  1
6  
210
0.0
220
0.0
230
1.0
 73
     1
 44
1.0
  0
MTEXT
  5
6D
100
AcDbEntity
  8
256
390
0
 62
     8
100
AcDbMText
 10
268.125015
 20
21.244792
 30
0.0
 40
1.75
 41
4.486364
 71
     8
 72
     1
  1
2.5  
210
0.0
220
0.0
230
1.0
 73
     1
 44
1.0
  0
MTEXT
  5
6E
100
AcDbEntity
  8
256
390
0
 62
     8
100
AcDbMText
 10
312.52208
 20
42.980576
 30
0.0
 40
3.386667
 41
17.518305
 71
     8
 72
     1
  1
個 数  
210
0.0
220
0.0
230
0.9999999999999999
 73
     1
 44
1.0
  0
MTEXT
  5
6F
100
AcDbEntity
  8
256
390
0
 62
     8
100
AcDbMText
 10
360.130196
 20
257.742347
 30
0.0
 40
2.822222
 41
5.926666
 71
     8
 72
     1
  1
理  
210
0.0
220
0.0
230
1.0
 73
     1
 44
1.0
  0
MTEXT
  5
70
100
AcDbEntity
  8
256
390
0
 62
     8
100
AcDbMText
 10
257.063488
 20
41.133356
 30
0.0
 40
1.7952
 41
7.6704
 71
     8
 72
     1
  1
中級  
210
0.0
220
0.0
230
1.0
 73
     1
 44
1.0
  0
MTEXT
  5
71
100
AcDbEntity
  8
256
390
0
 62
     8
100
AcDbMText
 10
268.763424
 20
39.076539
 30
0.0
 40
2.0
 41
7.581818
 71
     8
 72
     1
  1
v %%p  
210
0.0
220
0.0
230
1.0
 73
     1
 44
1.0
  0
MTEXT
  5
72
100
AcDbEntity
  8
256
390
0
 62
     8
100
AcDbMText
 10
246.361108
 20
10.744792
 30
0.0
 40
1.75
 41
35.111364
 71
     9
 72
     1
  1
2000を超え4000以下  
210
0.0
220
0.0
230
1.0
 73
     1
 44
1.0
  0
MTEXT
  5
73
100
AcDbEntity
  8
256
390
0
 62
     8
100
AcDbMText
 10
315.229673
 20
32.880846
 30
0.0
 40
3.386667
 41
10.375516
 71
     8
 72
     1
  1
1台  
210
0.0
220
0.0
230
0.9999999999999999
 73
     1
 44
1.0
  0
MTEXT
  5
74
100
AcDbEntity
  8
256
390
0
 62
     8
100
AcDbMText
 10
246.383663
 20
21.244792
 30
0.0
 40
1.75
 41
32.056818
 71
     9
 72
     1
  1
 120を超え 400以下  
210
0.0
220
0.0
230
1.0
 73
     1
 44
1.0
  0
MTEXT
  5
75
100
AcDbEntity
  8
256
390
0
 62
     8
100
AcDbMText
 10
388.380196
 20
278.047566
 30
0.0
 40
3.386667
 41
6.958061
 71
     8
 72
     1
  1
取  
210
0.0
220
0.0
230
0.9999999999999999
 73
     1
 44
1.0
  0
MTEXT
  5
76
100
AcDbEntity
  8
256
390
0
 62
     8
100
AcDbMText
 10
388.380196
 20
282.575181
 30
0.0
 40
3.386667
 41
6.68097
 71
     8
 72
     1
  1
面  
210
0.0
220
0.0
230
0.9999999999999999
 73
     1
 44
1.0
  0
MTEXT
  5
77
100
AcDbEntity
  8
256
390
0
 62
     8
100
AcDbMText
 10
230.223858
 20
38.623908
 30
0.0
 40
1.5
 41
24.272727
 71
     8
 72
     1
  1
寸法の区分(mm)  
210
0.0
220
0.0
230
1.0
 73
     1
 44
1.0
  0
MTEXT
  5
78
100
AcDbEntity
  8
256
390
0
 62
     8
100
AcDbMText
 10
343.211504
 20
19.692223
 30
0.0
 40
3.386667
 41
16.902547
 71
     8
 72
     1
  1
図 番  
210
0.0
220
0.0
230
0.9999999999999999
 73
     1
 44
1.0
  0
MTEXT
  5
79
100
AcDbEntity
  8
256
390
0
 62
     8
100
AcDbMText
 10
262.375031
 20
31.744792
 30
0.0
 40
1.75
 41
4.55
 71
     8
 72
     1
  1
0.3  
210
0.0
220
0.0
230
1.0
 73
     1
 44
1.0
  0
MTEXT
  5
7A
100
AcDbEntity
  8
256
390
0
 62
     8
100
AcDbMText
 10
360.130196
 20
268.089407
 30
0.0
 40
3.386667
 41
7.112001
 71
     8
 72
     1
  1
理  
210
0.0
220
0.0
230
0.9999999999999999
 73
     1
 44
1.0
  0
MTEXT
  5
7B
100
AcDbEntity
  8
256
390
0
 62
     8
100
AcDbMText
 10
246.369552
 20
14.244792
 30
0.0
 40
1.75
 41
34.888636
 71
     9
 72
     1
  1
1000を超え2000以下  
210
0.0
220
0.0
230
1.0
 73
     1
 44
1.0
  0
MTEXT
  5
7C
100
AcDbEntity
  8
256
390
0
 62
     8
100
AcDbMText
 10
268.125015
 20
24.744792
 30
0.0
 40
1.75
 41
4.263636
 71
     8
 72
     1
  1
1.5  
210
0.0
220
0.0
230
1.0
 73
     1
 44
1.0
  0
MTEXT
  5
7D
100
AcDbEntity
  8
256
390
0
 62
     8
100
AcDbMText
 10
262.375031
 20
35.244792
 30
0.0
 40
1.75
 41
4.55
 71
     8
 72
     1
  1
0.2  
210
0.0
220
0.0
230
1.0
 73
     1
 44
1.0
  0
MTEXT
  5
7E
100
AcDbEntity
  8
256
390
0
 62
     8
100
AcDbMText
 10
351.983257
 20
283.013492
 30
0.0
 40
3.386667
 41
21.551517
 71
     8
 72
     1
  1
年月日     
210
0.0
220
0.0
230
0.9999999999999999
 73
     1
 44
1.0
  0
MTEXT
  5
7F
100
AcDbEntity
  8
256
390
0
 62
     8
100
AcDbMText
 10
250.875031
 20
31.744792
 30
0.0
 40
1.75
 41
6.586364
 71
     8
 72
     1
  1
0.05  
210
0.0
220
0.0
230
1.0
 73
     1
 44
1.0
  0
MTEXT
  5
80
100
AcDbEntity
  8
256
390
0
 62
     8
100
AcDbMText
 10
250.875031
 20
35.244792
 30
0.0
 40
1.75
 41
6.586364
 71
     8
 72
     1
  1
0.05  
210
0.0
220
0.0
230
1.0
 73
     1
 44
1.0
  0
MTEXT
  5
81
100
AcDbEntity
  8
256
390
0
 62
     8
100
AcDbMText
 10
262.375031
 20
10.744792
 30
0.0
 40
1.75
 41
1.765909
 71
     8
 72
     1
  1
4  
210
0.0
220
0.0
230
1.0
 73
     1
 44
1.0
  0
MTEXT
  5
82
100
AcDbEntity
  8
256
390
0
 62
     8
100
AcDbMText
 10
343.259623
 20
40.051182
 30
0.0
 40
3.386667
 41
17.210426
 71
     8
 72
     1
  1
名 称  
210
0.0
220
0.0
230
0.9999999999999999
 73
     1
 44
1.0
  0
MTEXT
  5
83
100
AcDbEntity
  8
256
390
0
 62
     8
100
AcDbMText
 10
280.042689
 20
27.073014
 30
0.0
 40
3.386667
 41
17.241214
 71
     8
 72
     1
  1
設 計  
210
0.0
220
0.0
230
0.9999999999999999
 73
     1
 44
1.0
  0
MTEXT
  5
84
100
AcDbEntity
  8
256
390
0
 62
     8
100
AcDbMText
 10
268.125015
 20
17.744792
 30
0.0
 40
1.75
 41
1.765909
 71
     8
 72
     1
  1
4  
210
0.0
220
0.0
230
1.0
 73
     1
 44
1.0
  0
MTEXT
  5
85
100
AcDbEntity
  8
256
390
0
 62
     8
100
AcDbMText
 10
256.625031
 20
28.244792
 30
0.0
 40
1.75
 41
4.55
 71
     8
 72
     1
  1
0.2  
210
0.0
220
0.0
230
1.0
 73
     1
 44
1.0
  0
MTEXT
  5
86
100
AcDbEntity
  8
256
390
0
 62
     8
100
AcDbMText
 10
246.368174
 20
17.744792
 30
0.0
 40
1.75
 41
33.138636
 71
     9
 72
     1
  1
 400を超え1000以下  
210
0.0
220
0.0
230
1.0
 73
     1
 44
1.0
  0
MTEXT
  5
87
100
AcDbEntity
  8
256
390
0
 62
     8
100
AcDbMText
 10
250.875031
 20
14.244792
 30
0.0
 40
1.75
 41
4.55
 71
     8
 72
     1
  1
0.5  
210
0.0
220
0.0
230
1.0
 73
     1
 44
1.0
  0
MTEXT
  5
88
100
AcDbEntity
  8
256
390
0
 62
     8
100
AcDbMText
 10
257.26344
 20
39.076539
 30
0.0
 40
2.0
 41
8.563636
 71
     8
 72
     1
  1
m %%p  
210
0.0
220
0.0
230
1.0
 73
     1
 44
1.0
  0
MTEXT
  5
89
100
AcDbEntity
  8
256
390
0
 62
     8
100
AcDbMText
 10
246.444454
 20
35.244792
 30
0.0
 40
1.75
 41
29.543182
 71
     9
 72
     1
  1
 0.5を超え   3以下  
210
0.0
220
0.0
230
1.0
 73
     1
 44
1.0
  0
MTEXT
  5
8A
100
AcDbEntity
  8
256
390
0
 62
     8
100
AcDbMText
 10
246.445896
 20
31.744792
 30
0.0
 40
1.75
 41
26.615909
 71
     9
 72
     1
  1
   3を超え   6以下  
210
0.0
220
0.0
230
1.0
 73
     1
 44
1.0
  0
MTEXT
  5
8B
100
AcDbEntity
  8
256
390
0
 62
     8
100
AcDbMText
 10
343.228244
 20
29.512776
 30
0.0
 40
2.54
 41
22.998545
 71
     8
 72
     1
  1
部品番号  
210
0.0
220
0.0
230
1.0
 73
     1
 44
1.0
  0
MTEXT
  5
8C
100
AcDbEntity
  8
256
390
0
 62
     8
100
AcDbMText
 10
251.19527
 20
41.133356
 30
0.0
 40
1.7952
 41
8.04576
 71
     8
 72
     1
  1
精級  
210
0.0
220
0.0
230
1.0
 73
     1
 44
1.0
  0
MTEXT
  5
8D
100
AcDbEntity
  8
256
390
0
 62
     8
100
AcDbMText
 10
246.399214
 20
24.744792
 30
0.0
 40
1.75
 41
30.243182
 71
     9
 72
     1
  1
  30を超え 120以下  
210
0.0
220
0.0
230
1.0
 73
     1
 44
1.0
  0
MTEXT
  5
8E
100
AcDbEntity
  8
256
390
0
 62
     8
100
AcDbMText
 10
262.375031
 20
24.744792
 30
0.0
 40
1.75
 41
4.565909
 71
     8
 72
     1
  1
0.8  
210
0.0
220
0.0
230
1.0
 73
     1
 44
1.0
  0
MTEXT
  5
8F
100
AcDbEntity
  8
256
390
0
 62
     8
100
AcDbMText
 10
242.4153
 20
40.925781
 30
0.0
 40
1.5
 41
13.636364
 71
     8
 72
     1
  1
公差等級  
210
0.0
220
0.0
230
1.0
 73
     1
 44
1.0
  0
MTEXT
  5
90
100
AcDbEntity
  8
256
390
0
 62
     8
100
AcDbMText
 10
246.430153
 20
28.244792
 30
0.0
 40
1.75
 41
27.395455
 71
     9
 72
     1
  1
   6を超え  30以下  
210
0.0
220
0.0
230
1.0
 73
     1
 44
1.0
  0
MTEXT
  5
91
100
AcDbEntity
  8
256
390
0
 62
     8
100
AcDbMText
 10
285.330511
 20
282.942152
 30
0.0
 40
3.386667
 41
59.482188
 71
     8
 72
     1
  1
訂    正    内    容  
210
0.0
220
0.0
230
0.9999999999999999
 73
     1
 44
1.0
  0
MTEXT
  5
92
100
AcDbEntity
  8
256
390
0
 62
     8
100
AcDbMText
 10
256.625031
 20
24.744792
 30
0.0
 40
1.75
 41
4.55
 71
     8
 72
     1
  1
0.3  
210
0.0
220
0.0
230
1.0
 73
     1
 44
1.0
  0
MTEXT
  5
93
100
AcDbEntity
  8
256
390
0
 62
     8
100
AcDbMText
 10
262.375031
 20
17.744792
 30
0.0
 40
1.75
 41
1.622727
 71
     8
 72
     1
  1
2  
210
0.0
220
0.0
230
1.0
 73
     1
 44
1.0
  0
MTEXT
  5
94
100
AcDbEntity
  8
256
390
0
 62
     8
100
AcDbMText
 10
262.375031
 20
14.244792
 30
0.0
 40
1.75
 41
1.622727
 71
     8
 72
     1
  1
3  
210
0.0
220
0.0
230
1.0
 73
     1
 44
1.0
  0
MTEXT
  5
95
100
AcDbEntity
  8
256
390
0
 62
     8
100
AcDbMText
 10
328.687321
 20
19.668163
 30
0.0
 40
3.386667
 41
22.536729
 71
     8
 72
     1
  1
三角法  
210
0.0
220
0.0
230
0.9999999999999999
 73
     1
 44
1.0
  0
MTEXT
  5
96
100
AcDbEntity
  8
256
390
0
 62
     8
100
AcDbMText
 10
365.92539
 20
11.0735
 30
0.0
 40
3.386667
 41
99.506434
 71
     8
 72
     1
  1
双 葉 電 子 工 業 株 式 会 社  
210
0.0
220
0.0
230
0.9999999999999999
 73
     1
 44
1.0
  0
MTEXT
  5
97
100
AcDbEntity
  8
256
390
0
 62
     8
100
AcDbMText
 10
256.625031
 20
17.744792
 30
0.0
 40
1.75
 41
4.565909
 71
     8
 72
     1
  1
0.8  
210
0.0
220
0.0
230
1.0
 73
     1
 44
1.0
  0
MTEXT
  5
98
100
AcDbEntity
  8
256
390
0
 62
     8
100
AcDbMText
 10
312.769883
 20
27.273035
 30
0.0
 40
3.386667
 41
17.518305
 71
     8
 72
     1
  1
承 認  
210
0.0
220
0.0
230
0.9999999999999999
 73
     1
 44
1.0
  0
MTEXT
  5
99
100
AcDbEntity
  8
256
390
0
 62
     8
100
AcDbMText
 10
268.125015
 20
28.244792
 30
0.0
 40
1.75
 41
0.843182
 71
     8
 72
     1
  1
1  
210
0.0
220
0.0
230
1.0
 73
     1
 44
1.0
  0
MTEXT
  5
9A
100
AcDbEntity
  8
256
390
0
 62
     8
100
AcDbMText
 10
247.07562
 20
45.235875
 30
0.0
 40
1.7
 41
74.846364
 71
     8
 72
     1
  1
削り加工寸法の普通許容差 JIS B 0405-1991  
210
0.0
220
0.0
230
1.0
 73
     1
 44
1.0
  0
MTEXT
  5
9B
100
AcDbEntity
  8
256
390
0
 62
     8
100
AcDbMText
 10
250.875031
 20
24.744792
 30
0.0
 40
1.75
 41
6.586364
 71
     8
 72
     1
  1
0.15  
210
0.0
220
0.0
230
1.0
 73
     1
 44
1.0
  0
MTEXT
  5
9C
100
AcDbEntity
  8
256
390
0
 62
     8
100
AcDbMText
 10
250.875031
 20
9.839584
 30
0.0
 40
2.54
 41
2.632364
 71
     8
 72
     1
  1
-  
210
0.0
220
0.0
230
1.0
 73
     1
 44
1.0
  0
MTEXT
  5
9D
100
AcDbEntity
  8
256
390
0
 62
     8
100
AcDbMText
 10
296.045235
 20
27.214792
 30
0.0
 40
3.386667
 41
17.025699
 71
     8
 72
     1
  1
検 図  
210
0.0
220
0.0
230
0.9999999999999999
 73
     1
 44
1.0
  0
MTEXT
  5
9E
100
AcDbEntity
  8
256
390
0
 62
     8
100
AcDbMText
 10
268.125015
 20
34.339584
 30
0.0
 40
2.54
 41
2.632364
 71
     8
 72
     1
  1
-  
210
0.0
220
0.0
230
1.0
 73
     1
 44
1.0
  0
MTEXT
  5
9F
100
AcDbEntity
  8
256
390
0
 62
     8
100
AcDbMText
 10
256.625031
 20
31.744792
 30
0.0
 40
1.75
 41
3.993182
 71
     8
 72
     1
  1
0.1  
210
0.0
220
0.0
230
1.0
 73
     1
 44
1.0
  0
MTEXT
  5
A0
100
AcDbEntity
  8
256
390
0
 62
     8
100
AcDbMText
 10
263.01344
 20
39.076539
 30
0.0
 40
2.0
 41
7.527273
 71
     8
 72
     1
  1
c %%p  
210
0.0
220
0.0
230
1.0
 73
     1
 44
1.0
  0
MTEXT
  5
A1
100
AcDbEntity
  8
256
390
0
 62
     8
100
AcDbMText
 10
360.130196
 20
278.047566
 30
0.0
 40
3.386667
 41
6.68097
 71
     8
 72
     1
  1
上  
210
0.0
220
0.0
230
0.9999999999999999
 73
     1
 44
1.0
  0
MTEXT
  5
A2
100
AcDbEntity
  8
256
390
0
 62
     8
100
AcDbMText
 10
232.748022
 20
282.92144
 30
0.0
 40
3.386667
 41
14.870547
 71
     8
 72
     1
  1
記号  
210
0.0
220
0.0
230
0.9999999999999999
 73
     1
 44
1.0
  0
MTEXT
  5
A3
100
AcDbEntity
  8
256
390
0
 62
     8
100
AcDbMText
 10
256.625031
 20
21.244792
 30
0.0
 40
1.75
 41
4.55
 71
     8
 72
     1
  1
0.5  
210
0.0
220
0.0
230
1.0
 73
     1
 44
1.0
  0
MTEXT
  5
A4
100
AcDbEntity
  8
256
390
0
 62
     8
100
AcDbMText
 10
256.625031
 20
10.744792
 30
0.0
 40
1.75
 41
1.622727
 71
     8
 72
     1
  1
2  
210
0.0
220
0.0
230
1.0
 73
     1
 44
1.0
  0
MTEXT
  5
A5
100
AcDbEntity
  8
256
390
0
 62
     8
100
AcDbMText
 10
262.375031
 20
21.244792
 30
0.0
 40
1.75
 41
4.263636
 71
     8
 72
     1
  1
1.2  
210
0.0
220
0.0
230
1.0
 73
     1
 44
1.0
  0
MTEXT
  5
A6
100
AcDbEntity
  8
256
390
0
 62
     8
100
AcDbMText
 10
360.130196
 20
282.575181
 30
0.0
 40
3.386667
 41
7.050425
 71
     8
 72
     1
  1
仕  
210
0.0
220
0.0
230
0.9999999999999999
 73
     1
 44
1.0
  0
MTEXT
  5
A7
100
AcDbEntity
  8
256
390
0
 62
     8
100
AcDbMText
 10
268.125015
 20
10.744792
 30
0.0
 40
1.75
 41
1.654545
 71
     8
 72
     1
  1
8  
210
0.0
220
0.0
230
1.0
 73
     1
 44
1.0
  0
MTEXT
  5
A8
100
AcDbEntity
  8
256
390
0
 62
     8
100
AcDbMText
 10
360.130196
 20
260.858133
 30
0.0
 40
2.822222
 41
5.875353
 71
     8
 72
     1
  1
処  
210
0.0
220
0.0
230
1.0
 73
     1
 44
1.0
  0
MTEXT
  5
A9
100
AcDbEntity
  8
256
390
0
 62
     8
100
AcDbMText
 10
336.870941
 20
283.013492
 30
0.0
 40
3.386667
 41
22.81382
 71
     8
 72
     1
  1
担当者     
210
0.0
220
0.0
230
0.9999999999999999
 73
     1
 44
1.0
  0
MTEXT
  5
AA
100
AcDbEntity
  8
256
390
0
 62
     8
100
AcDbMText
 10
251.577735
 20
39.076539
 30
0.0
 40
2.0
 41
6.836364
 71
     8
 72
     1
  1
f %%p  
210
0.0
220
0.0
230
1.0
 73
     1
 44
1.0
  0
MTEXT
  5
AB
100
AcDbEntity
  8
256
390
0
 62
     8
100
AcDbMText
 10
360.130196
 20
263.973919
 30
0.0
 40
2.822222
 41
5.952323
 71
     8
 72
     1
  1
熱  
210
0.0
220
0.0
230
1.0
 73
     1
 44
1.0
  0
MTEXT
  5
AC
100
AcDbEntity
  8
256
390
0
 62
     8
100
AcDbMText
 10
268.125015
 20
31.744792
 30
0.0
 40
1.75
 41
4.55
 71
     8
 72
     1
  1
0.5  
210
0.0
220
0.0
230
1.0
 73
     1
 44
1.0
  0
MTEXT
  5
AD
100
AcDbEntity
  8
256
390
0
 62
     8
100
AcDbMText
 10
328.494219
 20
43.012096
 30
0.0
 40
3.386667
 41
17.30279
 71
     8
 72
     1
  1
尺 度  
210
0.0
220
0.0
230
0.9999999999999999
 73
     1
 44
1.0
  0
MTEXT
  5
AE
100
AcDbEntity
  8
256
390
0
 62
     8
100
AcDbMText
 10
262.660189
 20
41.133356
 30
0.0
 40
1.7952
 41
7.9968
 71
     8
 72
     1
  1
粗級  
210
0.0
220
0.0
230
1.0
 73
     1
 44
1.0
  0
MTEXT
  5
AF
100
AcDbEntity
  8
256
390
0
 62
     8
100
AcDbMText
 10
225.086682
 20
40.357732
 30
0.0
 40
1.5
 41
6.640909
 71
     8
 72
     1
  1
基準  
210
0.0
220
0.0
230
1.0
 73
     1
 44
1.0
  0
MTEXT
  5
B0
100
AcDbEntity
  8
256
390
0
 62
     8
100
AcDbMText
 10
268.384088
 20
41.201556
 30
0.0
 40
1.584
 41
10.8
 71
     8
 72
     1
  1
極粗級  
210
0.0
220
0.0
230
1.0
 73
     1
 44
1.0
  0
MTEXT
  5
B1
100
AcDbEntity
  8
256
390
0
 62
     8
100
AcDbMText
 10
256.625031
 20
14.244792
 30
0.0
 40
1.75
 41
4.263636
 71
     8
 72
     1
  1
1.2  
210
0.0
220
0.0
230
1.0
 73
     1
 44
1.0
  0
MTEXT
  5
B2
100
AcDbEntity
  8
256
390
0
 62
     8
100
AcDbMText
 10
360.130196
 20
272.53334
 30
0.0
 40
3.386667
 41
7.050425
 71
     8
 72
     1
  1
処  
210
0.0
220
0.0
230
0.9999999999999999
 73
     1
 44
1.0
  0
INSERT
  5
B7
100
AcDbEntity
  8
256
390
0
100
AcDbBlockReference
  2
AID278
 10
0.0
 20
0.0
 30
0.0
  0
LINE
  5
B9
100
AcDbEntity
  8
1
390
0
  6
Continuous
 62
     7
100
AcDbLine
 10
153.538738
 20
74.783177
 30
0.0
 11
153.5015
 21
74.716565
 31
0.0
  0
POLYLINE
  5
BB
100
AcDbEntity
  8
1
390
0
  6
DOT
 62
     9
100
AcDb2dPolyline
 66
     1
 10
0.0
 20
0.0
 30
0.0
 40
3.0
 41
3.0
  0
VERTEX
  5
BC
100
AcDbEntity
  8
1
390
0
 62
     9
100
AcDbVertex
100
AcDb2dVertex
 10
153.384576
 20
74.642229
 30
0.0
  0
VERTEX
  5
BD
100
AcDbEntity
  8
1
390
0
 62
     9
100
AcDbVertex
100
AcDb2dVertex
 10
153.467105
 20
74.714155
 30
0.0
  0
VERTEX
  5
BE
100
AcDbEntity
  8
1
390
0
 62
     9
100
AcDbVertex
100
AcDb2dVertex
 10
153.498276
 20
74.717538
 30
0.0
  0
SEQEND
  5
BF
100
AcDbEntity
  8
0
390
0
  0
LINE
  5
C0
100
AcDbEntity
  8
1
390
0
  6
DOT
 62
     9
100
AcDbLine
 10
153.498276
 20
74.717538
 30
0.0
 11
153.5015
 21
74.716565
 31
0.0
  0
POLYLINE
  5
C1
100
AcDbEntity
  8
1
390
0
  6
Continuous
 62
     7
100
AcDb2dPolyline
 66
     1
 10
0.0
 20
0.0
 30
0.0
 40
3.0
 41
3.0
  0
VERTEX
  5
C2
100
AcDbEntity
  8
1
390
0
 62
     7
100
AcDbVertex
100
AcDb2dVertex
 10
153.498276
 20
74.717538
 30
0.0
  0
VERTEX
  5
C3
100
AcDbEntity
  8
1
390
0
 62
     7
100
AcDbVertex
100
AcDb2dVertex
 10
153.402696
 20
74.663113
 30
0.0
  0
VERTEX
  5
C4
100
AcDbEntity
  8
1
390
0
 62
     7
100
AcDbVertex
100
AcDb2dVertex
 10
153.384576
 20
74.642229
 30
0.0
  0
SEQEND
  5
C5
100
AcDbEntity
  8
0
390
0
  0
ARC
  5
C6
100
AcDbEntity
  8
1
390
0
  6
Continuous
 62
     7
100
AcDbCircle
 10
121.171746
 20
98.753968
 30
0.0
 40
40.237326
210
0.0
220
0.0
230
1.0
100
AcDbArc
 50
320.635128
 51
323.184651
  0
ARC
  5
C7
100
AcDbEntity
  8
1
390
0
  6
Continuous
 62
     7
100
AcDbCircle
 10
103.193758
 20
32.346673
 30
0.0
 40
63.660664
210
0.0
220
0.0
230
1.0
100
AcDbArc
 50
37.954009
 51
39.550572
  0
POLYLINE
  5
C8
100
AcDbEntity
  8
1
390
0
  6
Continuous
 62
     7
100
AcDb2dPolyline
 66
     1
 10
0.0
 20
0.0
 30
0.0
 40
3.0
 41
3.0
  0
VERTEX
  5
C9
100
AcDbEntity
  8
1
390
0
 62
     7
100
AcDbVertex
100
AcDb2dVertex
 10
153.39049
 20
71.499812
 30
0.0
  0
VERTEX
  5
CA
100
AcDbEntity
  8
1
390
0
 62
     7
100
AcDbVertex
100
AcDb2dVertex
 10
153.471025
 20
71.43679
 30
0.0
  0
VERTEX
  5
CB
100
AcDbEntity
  8
1
390
0
 62
     7
100
AcDbVertex
100
AcDb2dVertex
 10
153.49532
 20
71.435665
 30
0.0
  0
SEQEND
  5
CC
100
AcDbEntity
  8
0
390
0
  0
LINE
  5
CD
100
AcDbEntity
  8
1
390
0
  6
Continuous
 62
     7
100
AcDbLine
 10
153.507452
 20
71.439017
 30
0.0
 11
153.538738
 21
71.383177
 31
0.0
  0
POLYLINE
  5
CE
100
AcDbEntity
  8
1
390
0
  6
DOT
 62
     9
100
AcDb2dPolyline
 66
     1
 10
0.0
 20
0.0
 30
0.0
 40
3.0
 41
3.0
  0
VERTEX
  5
CF
100
AcDbEntity
  8
1
390
0
 62
     9
100
AcDbVertex
100
AcDb2dVertex
 10
153.49532
 20
71.435665
 30
0.0
  0
VERTEX
  5
D0
100
AcDbEntity
  8
1
390
0
 62
     9
100
AcDbVertex
100
AcDb2dVertex
 10
153.399088
 20
71.490274
 30
0.0
  0
VERTEX
  5
D1
100
AcDbEntity
  8
1
390
0
 62
     9
100
AcDbVertex
100
AcDb2dVertex
 10
153.39049
 20
71.499812
 30
0.0
  0
SEQEND
  5
D2
100
AcDbEntity
  8
0
390
0
  0
ARC
  5
D3
100
AcDbEntity
  8
1
390
0
  6
DOT
 62
     9
100
AcDbCircle
 10
97.656064
 20
27.90184
 30
0.0
 40
70.760932
210
0.0
220
0.0
230
1.0
100
AcDbArc
 50
38.034114
 51
39.470467
  0
ARC
  5
D4
100
AcDbEntity
  8
1
390
0
  6
DOT
 62
     9
100
AcDbCircle
 10
117.253962
 20
101.824811
 30
0.0
 40
45.214091
210
0.0
220
0.0
230
1.0
100
AcDbArc
 50
320.775462
 51
323.044317
  0
LINE
  5
D5
100
AcDbEntity
  8
1
390
0
  6
Continuous
 62
     7
100
AcDbLine
 10
153.538738
 20
75.083177
 30
0.0
 11
147.538738
 21
75.083177
 31
0.0
  0
LINE
  5
D6
100
AcDbEntity
  8
1
390
0
  6
Continuous
 62
     7
100
AcDbLine
 10
153.438738
 20
71.283177
 30
0.0
 11
147.638738
 21
71.283177
 31
0.0
  0
LINE
  5
D7
100
AcDbEntity
  8
1
390
0
  6
Continuous
 62
     7
100
AcDbLine
 10
152.838738
 20
71.083177
 30
0.0
 11
148.238738
 21
71.083177
 31
0.0
  0
POLYLINE
  5
D8
100
AcDbEntity
  8
1
390
0
  6
Continuous
 62
     7
100
AcDb2dPolyline
 66
     1
 10
0.0
 20
0.0
 30
0.0
 40
3.0
 41
3.0
  0
VERTEX
  5
D9
100
AcDbEntity
  8
1
390
0
 62
     7
100
AcDbVertex
100
AcDb2dVertex
 10
154.053334
 20
73.233177
 30
0.0
 42
0.146714
  0
VERTEX
  5
DA
100
AcDbEntity
  8
1
390
0
 62
     7
100
AcDbVertex
100
AcDb2dVertex
 10
153.959659
 20
74.331571
 30
0.0
  0
VERTEX
  5
DB
100
AcDbEntity
  8
1
390
0
 62
     7
100
AcDbVertex
100
AcDb2dVertex
 10
153.885661
 20
74.45496
 30
0.0
  0
VERTEX
  5
DC
100
AcDbEntity
  8
1
390
0
 62
     7
100
AcDbVertex
100
AcDb2dVertex
 10
153.790872
 20
74.560343
 30
0.0
  0
VERTEX
  5
DD
100
AcDbEntity
  8
1
390
0
 62
     7
100
AcDbVertex
100
AcDb2dVertex
 10
153.677418
 20
74.642799
 30
0.0
  0
VERTEX
  5
DE
100
AcDbEntity
  8
1
390
0
 62
     7
100
AcDbVertex
100
AcDb2dVertex
 10
153.565328
 20
74.695297
 30
0.0
  0
VERTEX
  5
DF
100
AcDbEntity
  8
1
390
0
 62
     7
100
AcDbVertex
100
AcDb2dVertex
 10
153.528132
 20
74.708232
 30
0.0
  0
SEQEND
  5
E0
100
AcDbEntity
  8
0
390
0
  0
POLYLINE
  5
E1
100
AcDbEntity
  8
1
390
0
  6
Continuous
 62
     7
100
AcDb2dPolyline
 66
     1
 10
0.0
 20
0.0
 30
0.0
 40
3.0
 41
3.0
  0
VERTEX
  5
E2
100
AcDbEntity
  8
1
390
0
 62
     7
100
AcDbVertex
100
AcDb2dVertex
 10
153.605449
 20
71.470192
 30
0.0
  0
VERTEX
  5
E3
100
AcDbEntity
  8
1
390
0
 62
     7
100
AcDbVertex
100
AcDb2dVertex
 10
153.733677
 20
71.529468
 30
0.0
  0
VERTEX
  5
E4
100
AcDbEntity
  8
1
390
0
 62
     7
100
AcDbVertex
100
AcDb2dVertex
 10
153.842856
 20
71.609625
 30
0.0
  0
VERTEX
  5
E5
100
AcDbEntity
  8
1
390
0
 62
     7
100
AcDbVertex
100
AcDb2dVertex
 10
153.936736
 20
71.716306
 30
0.0
  0
VERTEX
  5
E6
100
AcDbEntity
  8
1
390
0
 62
     7
100
AcDbVertex
100
AcDb2dVertex
 10
154.01125
 20
71.846533
 30
0.0
  0
VERTEX
  5
E7
100
AcDbEntity
  8
1
390
0
 62
     7
100
AcDbVertex
100
AcDb2dVertex
 10
154.049667
 20
71.944998
 30
0.0
 42
0.129024
  0
VERTEX
  5
E8
100
AcDbEntity
  8
1
390
0
 62
     7
100
AcDbVertex
100
AcDb2dVertex
 10
154.063424
 20
72.883177
 30
0.0
  0
SEQEND
  5
E9
100
AcDbEntity
  8
0
390
0
  0
LINE
  5
EA
100
AcDbEntity
  8
1
390
0
  6
Continuous
 62
     7
100
AcDbLine
 10
153.605449
 20
71.470192
 30
0.0
 11
153.49532
 21
71.435665
 31
0.0
  0
POLYLINE
  5
EB
100
AcDbEntity
  8
1
390
0
  6
Continuous
 62
     7
100
AcDb2dPolyline
 66
     1
 10
0.0
 20
0.0
 30
0.0
 40
3.0
 41
3.0
  0
VERTEX
  5
EC
100
AcDbEntity
  8
1
390
0
 62
     7
100
AcDbVertex
100
AcDb2dVertex
 10
154.063424
 20
72.883177
 30
0.0
  0
VERTEX
  5
ED
100
AcDbEntity
  8
1
390
0
 62
     7
100
AcDbVertex
100
AcDb2dVertex
 10
154.056411
 20
72.916484
 30
0.0
  0
VERTEX
  5
EE
100
AcDbEntity
  8
1
390
0
 62
     7
100
AcDbVertex
100
AcDb2dVertex
 10
154.050533
 20
72.950084
 30
0.0
  0
VERTEX
  5
EF
100
AcDbEntity
  8
1
390
0
 62
     7
100
AcDbVertex
100
AcDb2dVertex
 10
154.045883
 20
72.983911
 30
0.0
  0
VERTEX
  5
F0
100
AcDbEntity
  8
1
390
0
 62
     7
100
AcDbVertex
100
AcDb2dVertex
 10
154.042502
 20
73.018495
 30
0.0
  0
VERTEX
  5
F1
100
AcDbEntity
  8
1
390
0
 62
     7
100
AcDbVertex
100
AcDb2dVertex
 10
154.040525
 20
73.05323
 30
0.0
  0
VERTEX
  5
F2
100
AcDbEntity
  8
1
390
0
 62
     7
100
AcDbVertex
100
AcDb2dVertex
 10
154.039993
 20
73.088012
 30
0.0
  0
VERTEX
  5
F3
100
AcDbEntity
  8
1
390
0
 62
     7
100
AcDbVertex
100
AcDb2dVertex
 10
154.041003
 20
73.124362
 30
0.0
  0
VERTEX
  5
F4
100
AcDbEntity
  8
1
390
0
 62
     7
100
AcDbVertex
100
AcDb2dVertex
 10
154.043583
 20
73.160617
 30
0.0
  0
VERTEX
  5
F5
100
AcDbEntity
  8
1
390
0
 62
     7
100
AcDbVertex
100
AcDb2dVertex
 10
154.047728
 20
73.19702
 30
0.0
  0
VERTEX
  5
F6
100
AcDbEntity
  8
1
390
0
 62
     7
100
AcDbVertex
100
AcDb2dVertex
 10
154.053334
 20
73.233177
 30
0.0
  0
SEQEND
  5
F7
100
AcDbEntity
  8
0
390
0
  0
LINE
  5
F8
100
AcDbEntity
  8
1
390
0
  6
Continuous
 62
     7
100
AcDbLine
 10
168.538738
 20
71.383177
 30
0.0
 11
168.538738
 21
74.783177
 31
0.0
  0
POLYLINE
  5
F9
100
AcDbEntity
  8
1
390
0
  6
DOT
 62
     9
100
AcDb2dPolyline
 66
     1
 10
0.0
 20
0.0
 30
0.0
 40
3.0
 41
3.0
  0
VERTEX
  5
FA
100
AcDbEntity
  8
1
390
0
 62
     9
100
AcDbVertex
100
AcDb2dVertex
 10
153.528132
 20
74.708232
 30
0.0
  0
VERTEX
  5
FB
100
AcDbEntity
  8
1
390
0
 62
     9
100
AcDbVertex
100
AcDb2dVertex
 10
153.622493
 20
74.671277
 30
0.0
  0
VERTEX
  5
FC
100
AcDbEntity
  8
1
390
0
 62
     9
100
AcDbVertex
100
AcDb2dVertex
 10
153.747006
 20
74.59667
 30
0.0
  0
VERTEX
  5
FD
100
AcDbEntity
  8
1
390
0
 62
     9
100
AcDbVertex
100
AcDb2dVertex
 10
153.85164
 20
74.49794
 30
0.0
  0
VERTEX
  5
FE
100
AcDbEntity
  8
1
390
0
 62
     9
100
AcDbVertex
100
AcDb2dVertex
 10
153.937858
 20
74.373091
 30
0.0
  0
VERTEX
  5
FF
100
AcDbEntity
  8
1
390
0
 62
     9
100
AcDbVertex
100
AcDb2dVertex
 10
153.984665
 20
74.27655
 30
0.0
 42
-0.13535
  0
VERTEX
  5
100
100
AcDbEntity
  8
1
390
0
 62
     9
100
AcDbVertex
100
AcDb2dVertex
 10
154.053334
 20
73.233177
 30
0.0
  0
SEQEND
  5
101
100
AcDbEntity
  8
0
390
0
  0
POLYLINE
  5
102
100
AcDbEntity
  8
1
390
0
  6
DOT
 62
     9
100
AcDb2dPolyline
 66
     1
 10
0.0
 20
0.0
 30
0.0
 40
3.0
 41
3.0
  0
VERTEX
  5
103
100
AcDbEntity
  8
1
390
0
 62
     9
100
AcDbVertex
100
AcDb2dVertex
 10
154.053334
 20
73.233177
 30
0.0
  0
VERTEX
  5
104
100
AcDbEntity
  8
1
390
0
 62
     9
100
AcDbVertex
100
AcDb2dVertex
 10
154.047968
 20
73.198795
 30
0.0
  0
VERTEX
  5
105
100
AcDbEntity
  8
1
390
0
 62
     9
100
AcDbVertex
100
AcDb2dVertex
 10
154.043921
 20
73.164188
 30
0.0
  0
VERTEX
  5
106
100
AcDbEntity
  8
1
390
0
 62
     9
100
AcDbVertex
100
AcDb2dVertex
 10
154.041253
 20
73.129133
 30
0.0
  0
VERTEX
  5
107
100
AcDbEntity
  8
1
390
0
 62
     9
100
AcDbVertex
100
AcDb2dVertex
 10
154.040049
 20
73.093979
 30
0.0
  0
VERTEX
  5
108
100
AcDbEntity
  8
1
390
0
 62
     9
100
AcDbVertex
100
AcDb2dVertex
 10
154.040343
 20
73.058809
 30
0.0
  0
VERTEX
  5
109
100
AcDbEntity
  8
1
390
0
 62
     9
100
AcDbVertex
100
AcDb2dVertex
 10
154.042116
 20
73.023673
 30
0.0
  0
VERTEX
  5
10A
100
AcDbEntity
  8
1
390
0
 62
     9
100
AcDbVertex
100
AcDb2dVertex
 10
154.045333
 20
72.988683
 30
0.0
  0
VERTEX
  5
10B
100
AcDbEntity
  8
1
390
0
 62
     9
100
AcDbVertex
100
AcDb2dVertex
 10
154.050045
 20
72.953245
 30
0.0
  0
VERTEX
  5
10C
100
AcDbEntity
  8
1
390
0
 62
     9
100
AcDbVertex
100
AcDb2dVertex
 10
154.056111
 20
72.918051
 30
0.0
  0
VERTEX
  5
10D
100
AcDbEntity
  8
1
390
0
 62
     9
100
AcDbVertex
100
AcDb2dVertex
 10
154.063424
 20
72.883177
 30
0.0
  0
SEQEND
  5
10E
100
AcDbEntity
  8
0
390
0
  0
POLYLINE
  5
10F
100
AcDbEntity
  8
1
390
0
  6
DOT
 62
     9
100
AcDb2dPolyline
 66
     1
 10
0.0
 20
0.0
 30
0.0
 40
3.0
 41
3.0
  0
VERTEX
  5
110
100
AcDbEntity
  8
1
390
0
 62
     9
100
AcDbVertex
100
AcDb2dVertex
 10
154.063424
 20
72.883177
 30
0.0
 42
-0.127133
  0
VERTEX
  5
111
100
AcDbEntity
  8
1
390
0
 62
     9
100
AcDbVertex
100
AcDb2dVertex
 10
154.053825
 20
71.957812
 30
0.0
  0
VERTEX
  5
112
100
AcDbEntity
  8
1
390
0
 62
     9
100
AcDbVertex
100
AcDb2dVertex
 10
153.998978
 20
71.820873
 30
0.0
  0
VERTEX
  5
113
100
AcDbEntity
  8
1
390
0
 62
     9
100
AcDbVertex
100
AcDb2dVertex
 10
153.927511
 20
71.703396
 30
0.0
  0
VERTEX
  5
114
100
AcDbEntity
  8
1
390
0
 62
     9
100
AcDbVertex
100
AcDb2dVertex
 10
153.835039
 20
71.60276
 30
0.0
  0
VERTEX
  5
115
100
AcDbEntity
  8
1
390
0
 62
     9
100
AcDbVertex
100
AcDb2dVertex
 10
153.7239
 20
71.523811
 30
0.0
  0
VERTEX
  5
116
100
AcDbEntity
  8
1
390
0
 62
     9
100
AcDbVertex
100
AcDb2dVertex
 10
153.605449
 20
71.470192
 30
0.0
  0
SEQEND
  5
117
100
AcDbEntity
  8
0
390
0
  0
LINE
  5
118
100
AcDbEntity
  8
1
390
0
  6
DOT
 62
     9
100
AcDbLine
 10
153.5015
 20
74.716565
 30
0.0
 11
153.528132
 21
74.708232
 31
0.0
  0
LINE
  5
119
100
AcDbEntity
  8
1
390
0
  6
Continuous
 62
     7
100
AcDbLine
 10
173.538738
 20
71.683177
 30
0.0
 11
173.538738
 21
74.483177
 31
0.0
  0
LINE
  5
11A
100
AcDbEntity
  8
1
390
0
  6
Continuous
 62
     7
100
AcDbLine
 10
151.538738
 20
109.521928
 30
0.0
 11
149.538738
 21
109.521928
 31
0.0
  0
LINE
  5
11B
100
AcDbEntity
  8
1
390
0
  6
Continuous
 62
     7
100
AcDbLine
 10
151.288738
 20
171.083177
 30
0.0
 11
149.788738
 21
171.083177
 31
0.0
  0
LINE
  5
11C
100
AcDbEntity
  8
1
390
0
  6
Continuous
 62
     7
100
AcDbLine
 10
147.538738
 20
75.083177
 30
0.0
 11
147.538738
 21
71.383177
 31
0.0
  0
LINE
  5
11D
100
AcDbEntity
  8
1
390
0
  6
Continuous
 62
     7
100
AcDbLine
 10
153.538738
 20
74.783071
 30
0.0
 11
153.538738
 21
74.783177
 31
0.0
  0
LINE
  5
11E
100
AcDbEntity
  8
1
390
0
  6
Continuous
 62
     7
100
AcDbLine
 10
153.538738
 20
74.783177
 30
0.0
 11
153.538738
 21
75.083177
 31
0.0
  0
ARC
  5
11F
100
AcDbEntity
  8
1
390
0
  6
Continuous
 62
     7
100
AcDbCircle
 10
147.638738
 20
71.383177
 30
0.0
 40
0.1
210
0.0
220
0.0
230
1.0
100
AcDbArc
 50
180.0
 51
270.0
  0
ARC
  5
120
100
AcDbEntity
  8
1
390
0
  6
Continuous
 62
     7
100
AcDbCircle
 10
153.438738
 20
71.383177
 30
0.0
 40
0.1
210
0.0
220
0.0
230
1.0
100
AcDbArc
 50
270.0
 51
360.0
  0
LINE
  5
121
100
AcDbEntity
  8
1
390
0
  6
Continuous
 62
     7
100
AcDbLine
 10
148.038738
 20
71.283177
 30
0.0
 11
148.238738
 21
71.083177
 31
0.0
  0
LINE
  5
122
100
AcDbEntity
  8
1
390
0
  6
Continuous
 62
     7
100
AcDbLine
 10
152.838738
 20
71.083177
 30
0.0
 11
153.038738
 21
71.283177
 31
0.0
  0
LINE
  5
123
100
AcDbEntity
  8
1
390
0
  6
Continuous
 62
     7
100
AcDbLine
 10
168.538738
 20
74.783177
 30
0.0
 11
153.538738
 21
74.783177
 31
0.0
  0
LINE
  5
124
100
AcDbEntity
  8
1
390
0
  6
Continuous
 62
     7
100
AcDbLine
 10
153.538738
 20
71.383177
 30
0.0
 11
168.538738
 21
71.383177
 31
0.0
  0
LINE
  5
125
100
AcDbEntity
  8
1
390
0
  6
Continuous
 62
     7
100
AcDbLine
 10
173.538738
 20
74.483177
 30
0.0
 11
168.538738
 21
74.483177
 31
0.0
  0
LINE
  5
126
100
AcDbEntity
  8
1
390
0
  6
Continuous
 62
     7
100
AcDbLine
 10
168.538738
 20
71.683177
 30
0.0
 11
173.538738
 21
71.683177
 31
0.0
  0
LINE
  5
127
100
AcDbEntity
  8
1
390
0
  6
Continuous
 62
     7
100
AcDbLine
 10
201.177692
 20
74.333177
 30
0.0
 11
173.538738
 21
74.333177
 31
0.0
  0
LINE
  5
128
100
AcDbEntity
  8
1
390
0
  6
Continuous
 62
     7
100
AcDbLine
 10
173.538738
 20
71.833177
 30
0.0
 11
200.063601
 21
71.833177
 31
0.0
  0
LINE
  5
129
100
AcDbEntity
  8
1
390
0
  6
Continuous
 62
     7
100
AcDbLine
 10
149.538738
 20
109.521928
 30
0.0
 11
149.538738
 21
75.083177
 31
0.0
  0
LINE
  5
12A
100
AcDbEntity
  8
1
390
0
  6
Continuous
 62
     7
100
AcDbLine
 10
151.538738
 20
75.083177
 30
0.0
 11
151.538738
 21
109.521928
 31
0.0
  0
ARC
  5
12B
100
AcDbEntity
  8
1
390
0
  6
Continuous
 62
     7
100
AcDbCircle
 10
144.788738
 20
111.083177
 30
0.0
 40
5.0
210
0.0
220
0.0
230
1.0
100
AcDbArc
 50
341.805128
 51
360.0
  0
ARC
  5
12C
100
AcDbEntity
  8
1
390
0
  6
Continuous
 62
     7
100
AcDbCircle
 10
156.288738
 20
111.083177
 30
0.0
 40
5.0
210
0.0
220
0.0
230
1.0
100
AcDbArc
 50
180.0
 51
198.194872
  0
LINE
  5
12D
100
AcDbEntity
  8
1
390
0
  6
Continuous
 62
     7
100
AcDbLine
 10
149.788738
 20
171.083177
 30
0.0
 11
149.788738
 21
111.083177
 31
0.0
  0
LINE
  5
12E
100
AcDbEntity
  8
1
390
0
  6
Continuous
 62
     7
100
AcDbLine
 10
151.288738
 20
111.083177
 30
0.0
 11
151.288738
 21
171.083177
 31
0.0
  0
LINE
  5
12F
100
AcDbEntity
  8
1
390
0
  6
Continuous
 62
     7
100
AcDbLine
 10
262.170773
 20
70.333177
 30
0.0
 11
262.170773
 21
75.833177
 31
0.0
  0
LINE
  5
130
100
AcDbEntity
  8
1
390
0
  6
Continuous
 62
     7
100
AcDbLine
 10
262.170773
 20
70.333177
 30
0.0
 11
260.570773
 21
70.333177
 31
0.0
  0
LINE
  5
131
100
AcDbEntity
  8
1
390
0
  6
Continuous
 62
     7
100
AcDbLine
 10
262.170773
 20
75.833177
 30
0.0
 11
260.570773
 21
75.833177
 31
0.0
  0
LINE
  5
132
100
AcDbEntity
  8
1
390
0
  6
Continuous
 62
     7
100
AcDbLine
 10
260.570773
 20
70.333177
 30
0.0
 11
260.570773
 21
75.833177
 31
0.0
  0
LINE
  5
133
100
AcDbEntity
  8
1
390
0
  6
Continuous
 62
     7
100
AcDbLine
 10
260.000829
 20
69.883177
 30
0.0
 11
260.000829
 21
76.283177
 31
0.0
  0
LINE
  5
134
100
AcDbEntity
  8
1
390
0
  6
Continuous
 62
     7
100
AcDbLine
 10
255.500829
 20
76.283177
 30
0.0
 11
255.500829
 21
76.083177
 31
0.0
  0
LINE
  5
135
100
AcDbEntity
  8
1
390
0
  6
Continuous
 62
     7
100
AcDbLine
 10
255.500829
 20
70.083177
 30
0.0
 11
255.500829
 21
69.883177
 31
0.0
  0
LINE
  5
136
100
AcDbEntity
  8
1
390
0
  6
Continuous
 62
     7
100
AcDbLine
 10
255.500829
 20
70.083177
 30
0.0
 11
253.600829
 21
70.083177
 31
0.0
  0
LINE
  5
137
100
AcDbEntity
  8
1
390
0
  6
Continuous
 62
     7
100
AcDbLine
 10
253.600829
 20
76.083177
 30
0.0
 11
253.600829
 21
70.083177
 31
0.0
  0
LINE
  5
138
100
AcDbEntity
  8
1
390
0
  6
Continuous
 62
     7
100
AcDbLine
 10
255.500829
 20
76.083177
 30
0.0
 11
253.600829
 21
76.083177
 31
0.0
  0
LINE
  5
139
100
AcDbEntity
  8
1
390
0
  6
Continuous
 62
     7
100
AcDbLine
 10
253.600829
 20
70.083177
 30
0.0
 11
253.500829
 21
70.083177
 31
0.0
  0
LINE
  5
13A
100
AcDbEntity
  8
1
390
0
  6
Continuous
 62
     7
100
AcDbLine
 10
253.500829
 20
70.083177
 30
0.0
 11
253.500829
 21
76.083177
 31
0.0
  0
LINE
  5
13B
100
AcDbEntity
  8
1
390
0
  6
Continuous
 62
     7
100
AcDbLine
 10
253.500829
 20
76.083177
 30
0.0
 11
253.600829
 21
76.083177
 31
0.0
  0
LINE
  5
13C
100
AcDbEntity
  8
1
390
0
  6
Continuous
 62
     7
100
AcDbLine
 10
265.470773
 20
69.908177
 30
0.0
 11
265.470773
 21
76.258177
 31
0.0
  0
LINE
  5
13D
100
AcDbEntity
  8
1
390
0
  6
Continuous
 62
     7
100
AcDbLine
 10
265.570773
 20
76.158177
 30
0.0
 11
265.570773
 21
70.008177
 31
0.0
  0
LINE
  5
13E
100
AcDbEntity
  8
1
390
0
  6
Continuous
 62
     7
100
AcDbLine
 10
268.170773
 20
76.258177
 30
0.0
 11
268.170773
 21
73.083177
 31
0.0
  0
LINE
  5
13F
100
AcDbEntity
  8
1
390
0
  6
Continuous
 62
     7
100
AcDbLine
 10
268.070773
 20
70.008177
 30
0.0
 11
268.070773
 21
76.158177
 31
0.0
  0
LINE
  5
140
100
AcDbEntity
  8
1
390
0
  6
Continuous
 62
     7
100
AcDbLine
 10
268.170773
 20
73.083177
 30
0.0
 11
268.170773
 21
69.908177
 31
0.0
  0
LINE
  5
141
100
AcDbEntity
  8
1
390
0
  6
Continuous
 62
     7
100
AcDbLine
 10
263.170773
 20
76.258177
 30
0.0
 11
263.170773
 21
73.083177
 31
0.0
  0
LINE
  5
142
100
AcDbEntity
  8
1
390
0
  6
Continuous
 62
     7
100
AcDbLine
 10
263.170773
 20
73.083177
 30
0.0
 11
263.170773
 21
69.908177
 31
0.0
  0
LINE
  5
143
100
AcDbEntity
  8
1
390
0
  6
Continuous
 62
     7
100
AcDbLine
 10
263.070773
 20
70.008177
 30
0.0
 11
263.070773
 21
76.158177
 31
0.0
  0
LINE
  5
144
100
AcDbEntity
  8
1
390
0
  6
Continuous
 62
     7
100
AcDbLine
 10
270.470773
 20
69.908177
 30
0.0
 11
270.470773
 21
76.258177
 31
0.0
  0
LINE
  5
145
100
AcDbEntity
  8
1
390
0
  6
Continuous
 62
     7
100
AcDbLine
 10
270.570773
 20
76.158177
 30
0.0
 11
270.570773
 21
70.008177
 31
0.0
  0
LINE
  5
146
100
AcDbEntity
  8
1
390
0
  6
Continuous
 62
     7
100
AcDbLine
 10
253.500829
 20
69.983177
 30
0.0
 11
253.500829
 21
70.083177
 31
0.0
  0
LINE
  5
147
100
AcDbEntity
  8
1
390
0
  6
Continuous
 62
     7
100
AcDbLine
 10
240.500829
 20
69.983177
 30
0.0
 11
240.500829
 21
76.183177
 31
0.0
  0
LINE
  5
148
100
AcDbEntity
  8
1
390
0
  6
Continuous
 62
     7
100
AcDbLine
 10
253.500829
 20
76.083177
 30
0.0
 11
253.500829
 21
76.183177
 31
0.0
  0
LINE
  5
149
100
AcDbEntity
  8
1
390
0
  6
Continuous
 62
     7
100
AcDbLine
 10
239.000829
 20
70.42808
 30
0.0
 11
239.000829
 21
75.738275
 31
0.0
  0
LINE
  5
14A
100
AcDbEntity
  8
1
390
0
  6
Continuous
 62
     7
100
AcDbLine
 10
273.570773
 20
70.183177
 30
0.0
 11
273.570773
 21
75.983177
 31
0.0
  0
LINE
  5
14B
100
AcDbEntity
  8
1
390
0
  6
Continuous
 62
     7
100
AcDbLine
 10
226.500829
 20
71.083177
 30
0.0
 11
226.500829
 21
75.083177
 31
0.0
  0
LINE
  5
14C
100
AcDbEntity
  8
1
390
0
  6
Continuous
 62
     7
100
AcDbLine
 10
281.570773
 20
75.308177
 30
0.0
 11
281.570773
 21
70.858177
 31
0.0
  0
LINE
  5
14D
100
AcDbEntity
  8
1
390
0
  6
Continuous
 62
     7
100
AcDbLine
 10
260.000829
 20
76.283177
 30
0.0
 11
255.500829
 21
76.283177
 31
0.0
  0
LINE
  5
14E
100
AcDbEntity
  8
1
390
0
  6
Continuous
 62
     7
100
AcDbLine
 10
255.500829
 20
69.883177
 30
0.0
 11
260.000829
 21
69.883177
 31
0.0
  0
LINE
  5
14F
100
AcDbEntity
  8
1
390
0
  6
Continuous
 62
     7
100
AcDbLine
 10
265.470773
 20
69.908177
 30
0.0
 11
265.570773
 21
70.008177
 31
0.0
  0
LINE
  5
150
100
AcDbEntity
  8
1
390
0
  6
Continuous
 62
     7
100
AcDbLine
 10
265.570773
 20
76.158177
 30
0.0
 11
265.470773
 21
76.258177
 31
0.0
  0
LINE
  5
151
100
AcDbEntity
  8
1
390
0
  6
Continuous
 62
     7
100
AcDbLine
 10
268.170773
 20
76.258177
 30
0.0
 11
268.070773
 21
76.158177
 31
0.0
  0
LINE
  5
152
100
AcDbEntity
  8
1
390
0
  6
Continuous
 62
     7
100
AcDbLine
 10
268.070773
 20
70.008177
 30
0.0
 11
268.170773
 21
69.908177
 31
0.0
  0
LINE
  5
153
100
AcDbEntity
  8
1
390
0
  6
Continuous
 62
     7
100
AcDbLine
 10
263.170773
 20
69.908177
 30
0.0
 11
265.470773
 21
69.908177
 31
0.0
  0
LINE
  5
154
100
AcDbEntity
  8
1
390
0
  6
Continuous
 62
     7
100
AcDbLine
 10
265.470773
 20
76.258177
 30
0.0
 11
263.170773
 21
76.258177
 31
0.0
  0
LINE
  5
155
100
AcDbEntity
  8
1
390
0
  6
Continuous
 62
     7
100
AcDbLine
 10
263.170773
 20
76.258177
 30
0.0
 11
263.070773
 21
76.158177
 31
0.0
  0
LINE
  5
156
100
AcDbEntity
  8
1
390
0
  6
Continuous
 62
     7
100
AcDbLine
 10
263.070773
 20
70.008177
 30
0.0
 11
263.170773
 21
69.908177
 31
0.0
  0
LINE
  5
157
100
AcDbEntity
  8
1
390
0
  6
Continuous
 62
     7
100
AcDbLine
 10
268.170773
 20
69.908177
 30
0.0
 11
270.470773
 21
69.908177
 31
0.0
  0
LINE
  5
158
100
AcDbEntity
  8
1
390
0
  6
Continuous
 62
     7
100
AcDbLine
 10
270.470773
 20
76.258177
 30
0.0
 11
268.170773
 21
76.258177
 31
0.0
  0
LINE
  5
159
100
AcDbEntity
  8
1
390
0
  6
Continuous
 62
     7
100
AcDbLine
 10
270.470773
 20
69.908177
 30
0.0
 11
270.570773
 21
70.008177
 31
0.0
  0
LINE
  5
15A
100
AcDbEntity
  8
1
390
0
  6
Continuous
 62
     7
100
AcDbLine
 10
270.570773
 20
76.158177
 30
0.0
 11
270.470773
 21
76.258177
 31
0.0
  0
LINE
  5
15B
100
AcDbEntity
  8
1
390
0
  6
Continuous
 62
     7
100
AcDbLine
 10
240.500829
 20
69.983177
 30
0.0
 11
253.500829
 21
69.983177
 31
0.0
  0
LINE
  5
15C
100
AcDbEntity
  8
1
390
0
  6
Continuous
 62
     7
100
AcDbLine
 10
253.500829
 20
76.183177
 30
0.0
 11
240.500829
 21
76.183177
 31
0.0
  0
LINE
  5
15D
100
AcDbEntity
  8
1
390
0
  6
Continuous
 62
     7
100
AcDbLine
 10
240.500829
 20
76.183177
 30
0.0
 11
239.000829
 21
75.738275
 31
0.0
  0
LINE
  5
15E
100
AcDbEntity
  8
1
390
0
  6
Continuous
 62
     7
100
AcDbLine
 10
239.000829
 20
70.42808
 30
0.0
 11
240.500829
 21
69.983177
 31
0.0
  0
LINE
  5
15F
100
AcDbEntity
  8
1
390
0
  6
Continuous
 62
     7
100
AcDbLine
 10
265.570773
 20
70.083177
 30
0.0
 11
268.070773
 21
70.083177
 31
0.0
  0
LINE
  5
160
100
AcDbEntity
  8
1
390
0
  6
Continuous
 62
     7
100
AcDbLine
 10
268.070773
 20
76.083177
 30
0.0
 11
265.570773
 21
76.083177
 31
0.0
  0
LINE
  5
161
100
AcDbEntity
  8
1
390
0
  6
Continuous
 62
     7
100
AcDbLine
 10
270.570773
 20
70.083177
 30
0.0
 11
273.470773
 21
70.083177
 31
0.0
  0
LINE
  5
162
100
AcDbEntity
  8
1
390
0
  6
Continuous
 62
     7
100
AcDbLine
 10
273.470773
 20
76.083177
 30
0.0
 11
270.570773
 21
76.083177
 31
0.0
  0
ARC
  5
163
100
AcDbEntity
  8
1
390
0
  6
Continuous
 62
     7
100
AcDbCircle
 10
273.470773
 20
70.183177
 30
0.0
 40
0.1
210
0.0
220
0.0
230
0.9999999999999999
100
AcDbArc
 50
270.0
 51
360.0
  0
ARC
  5
164
100
AcDbEntity
  8
1
390
0
  6
Continuous
 62
     7
100
AcDbCircle
 10
273.470773
 20
75.983177
 30
0.0
 40
0.1
210
0.0
220
0.0
230
1.0
100
AcDbArc
 50
0.0
 51
90.0
  0
LINE
  5
165
100
AcDbEntity
  8
1
390
0
  6
Continuous
 62
     7
100
AcDbLine
 10
262.170773
 20
70.408177
 30
0.0
 11
263.070773
 21
70.408177
 31
0.0
  0
LINE
  5
166
100
AcDbEntity
  8
1
390
0
  6
Continuous
 62
     7
100
AcDbLine
 10
263.070773
 20
75.758177
 30
0.0
 11
262.170773
 21
75.758177
 31
0.0
  0
LINE
  5
167
100
AcDbEntity
  8
1
390
0
  6
Continuous
 62
     7
100
AcDbLine
 10
239.000829
 20
75.738275
 30
0.0
 11
226.500829
 21
75.083177
 31
0.0
  0
LINE
  5
168
100
AcDbEntity
  8
1
390
0
  6
Continuous
 62
     7
100
AcDbLine
 10
226.500829
 20
71.083177
 30
0.0
 11
239.000829
 21
70.42808
 31
0.0
  0
LINE
  5
169
100
AcDbEntity
  8
1
390
0
  6
Continuous
 62
     7
100
AcDbLine
 10
260.000829
 20
70.583177
 30
0.0
 11
260.570773
 21
70.583177
 31
0.0
  0
LINE
  5
16A
100
AcDbEntity
  8
1
390
0
  6
Continuous
 62
     7
100
AcDbLine
 10
260.570773
 20
75.583177
 30
0.0
 11
260.000829
 21
75.583177
 31
0.0
  0
LINE
  5
16B
100
AcDbEntity
  8
1
390
0
  6
Continuous
 62
     7
100
AcDbLine
 10
273.570773
 20
70.608177
 30
0.0
 11
281.320773
 21
70.608177
 31
0.0
  0
LINE
  5
16C
100
AcDbEntity
  8
1
390
0
  6
Continuous
 62
     7
100
AcDbLine
 10
281.320773
 20
75.558177
 30
0.0
 11
273.570773
 21
75.558177
 31
0.0
  0
ARC
  5
16D
100
AcDbEntity
  8
1
390
0
  6
Continuous
 62
     7
100
AcDbCircle
 10
281.320773
 20
75.308177
 30
0.0
 40
0.25
210
0.0
220
0.0
230
1.0
100
AcDbArc
 50
0.0
 51
90.0
  0
ARC
  5
16E
100
AcDbEntity
  8
1
390
0
  6
Continuous
 62
     7
100
AcDbCircle
 10
281.320773
 20
70.858177
 30
0.0
 40
0.25
210
0.0
220
0.0
230
1.0
100
AcDbArc
 50
270.0
 51
360.0
  0
LINE
  5
16F
100
AcDbEntity
  8
1
390
0
  6
Continuous
 62
     7
100
AcDbLine
 10
226.500829
 20
74.333177
 30
0.0
 11
206.177692
 21
74.333177
 31
0.0
  0
LINE
  5
170
100
AcDbEntity
  8
1
390
0
  6
Continuous
 62
     7
100
AcDbLine
 10
205.063601
 20
71.833177
 30
0.0
 11
226.500829
 21
71.833177
 31
0.0
  0
LINE
  5
171
100
AcDbEntity
  8
1
390
0
  6
Continuous
 62
     9
100
AcDbLine
 10
199.282575
 20
70.080569
 30
0.0
 11
202.227692
 21
76.689357
 31
0.0
  0
LINE
  5
172
100
AcDbEntity
  8
1
390
0
  6
Continuous
 62
     9
100
AcDbLine
 10
204.282575
 20
70.080569
 30
0.0
 11
207.227692
 21
76.689357
 31
0.0
  0
LINE
  5
173
100
AcDbEntity
  8
1
390
0
  6
Continuous
 62
     7
100
AcDbLine
 10
70.405196
 20
75.083177
 30
0.0
 11
64.405196
 21
75.083177
 31
0.0
  0
POLYLINE
  5
174
100
AcDbEntity
  8
1
390
0
  6
DOT
 62
     9
100
AcDb2dPolyline
 66
     1
 10
0.0
 20
0.0
 30
0.0
 40
3.0
 41
3.0
  0
VERTEX
  5
175
100
AcDbEntity
  8
1
390
0
 62
     9
100
AcDbVertex
100
AcDb2dVertex
 10
66.455878
 20
74.642229
 30
0.0
  0
VERTEX
  5
176
100
AcDbEntity
  8
1
390
0
 62
     9
100
AcDbVertex
100
AcDb2dVertex
 10
66.496002
 20
74.657531
 30
0.0
  0
VERTEX
  5
177
100
AcDbEntity
  8
1
390
0
 62
     9
100
AcDbVertex
100
AcDb2dVertex
 10
66.536886
 20
74.671172
 30
0.0
  0
VERTEX
  5
178
100
AcDbEntity
  8
1
390
0
 62
     9
100
AcDbVertex
100
AcDb2dVertex
 10
66.578428
 20
74.683127
 30
0.0
  0
VERTEX
  5
179
100
AcDbEntity
  8
1
390
0
 62
     9
100
AcDbVertex
100
AcDb2dVertex
 10
66.620525
 20
74.69337
 30
0.0
  0
VERTEX
  5
17A
100
AcDbEntity
  8
1
390
0
 62
     9
100
AcDbVertex
100
AcDb2dVertex
 10
66.664389
 20
74.702116
 30
0.0
  0
VERTEX
  5
17B
100
AcDbEntity
  8
1
390
0
 62
     9
100
AcDbVertex
100
AcDb2dVertex
 10
66.708768
 20
74.709047
 30
0.0
  0
VERTEX
  5
17C
100
AcDbEntity
  8
1
390
0
 62
     9
100
AcDbVertex
100
AcDb2dVertex
 10
66.753541
 20
74.714155
 30
0.0
  0
VERTEX
  5
17D
100
AcDbEntity
  8
1
390
0
 62
     9
100
AcDbVertex
100
AcDb2dVertex
 10
66.798589
 20
74.717432
 30
0.0
  0
VERTEX
  5
17E
100
AcDbEntity
  8
1
390
0
 62
     9
100
AcDbVertex
100
AcDb2dVertex
 10
66.827345
 20
74.718564
 30
0.0
  0
VERTEX
  5
17F
100
AcDbEntity
  8
1
390
0
 62
     9
100
AcDbVertex
100
AcDb2dVertex
 10
66.856175
 20
74.718959
 30
0.0
  0
VERTEX
  5
180
100
AcDbEntity
  8
1
390
0
 62
     9
100
AcDbVertex
100
AcDb2dVertex
 10
66.885142
 20
74.718617
 30
0.0
  0
VERTEX
  5
181
100
AcDbEntity
  8
1
390
0
 62
     9
100
AcDbVertex
100
AcDb2dVertex
 10
66.914142
 20
74.717538
 30
0.0
  0
SEQEND
  5
182
100
AcDbEntity
  8
0
390
0
  0
LINE
  5
183
100
AcDbEntity
  8
1
390
0
  6
DOT
 62
     9
100
AcDbLine
 10
66.914142
 20
74.717538
 30
0.0
 11
66.93398
 21
74.716565
 31
0.0
  0
ARC
  5
184
100
AcDbEntity
  8
1
390
0
  6
DOT
 62
     9
100
AcDbCircle
 10
67.405196
 20
73.083041
 30
0.0
 40
1.700131
210
0.0
220
0.0
230
1.0
100
AcDbArc
 50
73.908962
 51
106.091038
  0
LINE
  5
185
100
AcDbEntity
  8
1
390
0
  6
DOT
 62
     9
100
AcDbLine
 10
67.876412
 20
74.716565
 30
0.0
 11
67.89625
 21
74.717538
 31
0.0
  0
POLYLINE
  5
186
100
AcDbEntity
  8
1
390
0
  6
DOT
 62
     9
100
AcDb2dPolyline
 66
     1
 10
0.0
 20
0.0
 30
0.0
 40
3.0
 41
3.0
  0
VERTEX
  5
187
100
AcDbEntity
  8
1
390
0
 62
     9
100
AcDbVertex
100
AcDb2dVertex
 10
67.89625
 20
74.717538
 30
0.0
  0
VERTEX
  5
188
100
AcDbEntity
  8
1
390
0
 62
     9
100
AcDbVertex
100
AcDb2dVertex
 10
67.939593
 20
74.718876
 30
0.0
  0
VERTEX
  5
189
100
AcDbEntity
  8
1
390
0
 62
     9
100
AcDbVertex
100
AcDb2dVertex
 10
67.982875
 20
74.718563
 30
0.0
  0
VERTEX
  5
18A
100
AcDbEntity
  8
1
390
0
 62
     9
100
AcDbVertex
100
AcDb2dVertex
 10
68.025991
 20
74.716598
 30
0.0
  0
VERTEX
  5
18B
100
AcDbEntity
  8
1
390
0
 62
     9
100
AcDbVertex
100
AcDb2dVertex
 10
68.068835
 20
74.712975
 30
0.0
  0
VERTEX
  5
18C
100
AcDbEntity
  8
1
390
0
 62
     9
100
AcDbVertex
100
AcDb2dVertex
 10
68.112538
 20
74.70752
 30
0.0
  0
VERTEX
  5
18D
100
AcDbEntity
  8
1
390
0
 62
     9
100
AcDbVertex
100
AcDb2dVertex
 10
68.15588
 20
74.70031
 30
0.0
  0
VERTEX
  5
18E
100
AcDbEntity
  8
1
390
0
 62
     9
100
AcDbVertex
100
AcDb2dVertex
 10
68.198753
 20
74.691358
 30
0.0
  0
VERTEX
  5
18F
100
AcDbEntity
  8
1
390
0
 62
     9
100
AcDbVertex
100
AcDb2dVertex
 10
68.241044
 20
74.680678
 30
0.0
  0
VERTEX
  5
190
100
AcDbEntity
  8
1
390
0
 62
     9
100
AcDbVertex
100
AcDb2dVertex
 10
68.26986
 20
74.672304
 30
0.0
  0
VERTEX
  5
191
100
AcDbEntity
  8
1
390
0
 62
     9
100
AcDbVertex
100
AcDb2dVertex
 10
68.298361
 20
74.663113
 30
0.0
  0
VERTEX
  5
192
100
AcDbEntity
  8
1
390
0
 62
     9
100
AcDbVertex
100
AcDb2dVertex
 10
68.326619
 20
74.653076
 30
0.0
  0
VERTEX
  5
193
100
AcDbEntity
  8
1
390
0
 62
     9
100
AcDbVertex
100
AcDb2dVertex
 10
68.354514
 20
74.642229
 30
0.0
  0
SEQEND
  5
194
100
AcDbEntity
  8
0
390
0
  0
ARC
  5
195
100
AcDbEntity
  8
1
390
0
  6
DOT
 62
     9
100
AcDbCircle
 10
66.973848
 20
71.682707
 30
0.0
 40
3.265733
210
0.0
220
0.0
230
1.0
100
AcDbArc
 50
28.344341
 51
64.990174
  0
ARC
  5
196
100
AcDbEntity
  8
1
390
0
  6
DOT
 62
     9
100
AcDbCircle
 10
67.114673
 20
74.352262
 30
0.0
 40
3.103156
210
0.0
220
0.0
230
1.0
100
AcDbArc
 50
293.189211
 51
331.743702
  0
POLYLINE
  5
197
100
AcDbEntity
  8
1
390
0
  6
DOT
 62
     9
100
AcDb2dPolyline
 66
     1
 10
0.0
 20
0.0
 30
0.0
 40
3.0
 41
3.0
  0
VERTEX
  5
198
100
AcDbEntity
  8
1
390
0
 62
     9
100
AcDbVertex
100
AcDb2dVertex
 10
68.336599
 20
71.499812
 30
0.0
  0
VERTEX
  5
199
100
AcDbEntity
  8
1
390
0
 62
     9
100
AcDbVertex
100
AcDb2dVertex
 10
68.296325
 20
71.485775
 30
0.0
  0
VERTEX
  5
19A
100
AcDbEntity
  8
1
390
0
 62
     9
100
AcDbVertex
100
AcDb2dVertex
 10
68.255341
 20
71.473401
 30
0.0
  0
VERTEX
  5
19B
100
AcDbEntity
  8
1
390
0
 62
     9
100
AcDbVertex
100
AcDb2dVertex
 10
68.21375
 20
71.462711
 30
0.0
  0
VERTEX
  5
19C
100
AcDbEntity
  8
1
390
0
 62
     9
100
AcDbVertex
100
AcDb2dVertex
 10
68.171655
 20
71.453729
 30
0.0
  0
VERTEX
  5
19D
100
AcDbEntity
  8
1
390
0
 62
     9
100
AcDbVertex
100
AcDb2dVertex
 10
68.127849
 20
71.446274
 30
0.0
  0
VERTEX
  5
19E
100
AcDbEntity
  8
1
390
0
 62
     9
100
AcDbVertex
100
AcDb2dVertex
 10
68.083584
 20
71.440626
 30
0.0
  0
VERTEX
  5
19F
100
AcDbEntity
  8
1
390
0
 62
     9
100
AcDbVertex
100
AcDb2dVertex
 10
68.038979
 20
71.43679
 30
0.0
  0
VERTEX
  5
1A0
100
AcDbEntity
  8
1
390
0
 62
     9
100
AcDbVertex
100
AcDb2dVertex
 10
67.994154
 20
71.434771
 30
0.0
  0
VERTEX
  5
1A1
100
AcDbEntity
  8
1
390
0
 62
     9
100
AcDbVertex
100
AcDb2dVertex
 10
67.954023
 20
71.434499
 30
0.0
  0
VERTEX
  5
1A2
100
AcDbEntity
  8
1
390
0
 62
     9
100
AcDbVertex
100
AcDb2dVertex
 10
67.91375
 20
71.435665
 30
0.0
  0
SEQEND
  5
1A3
100
AcDbEntity
  8
0
390
0
  0
LINE
  5
1A4
100
AcDbEntity
  8
1
390
0
  6
DOT
 62
     9
100
AcDbLine
 10
67.91375
 20
71.435665
 30
0.0
 11
67.837327
 21
71.439017
 31
0.0
  0
ARC
  5
1A5
100
AcDbEntity
  8
1
390
0
  6
DOT
 62
     9
100
AcDbCircle
 10
67.405169
 20
73.083389
 30
0.0
 40
1.700212
210
0.0
220
0.0
230
1.0
100
AcDbArc
 50
270.000924
 51
284.724942
  0
ARC
  5
1A6
100
AcDbEntity
  8
1
390
0
  6
DOT
 62
     9
100
AcDbCircle
 10
67.405196
 20
73.083177
 30
0.0
 40
1.7
210
0.0
220
0.0
230
1.0
100
AcDbArc
 50
255.274134
 51
270.0
  0
LINE
  5
1A7
100
AcDbEntity
  8
1
390
0
  6
DOT
 62
     9
100
AcDbLine
 10
66.973065
 20
71.439017
 30
0.0
 11
66.896642
 21
71.435665
 31
0.0
  0
POLYLINE
  5
1A8
100
AcDbEntity
  8
1
390
0
  6
DOT
 62
     9
100
AcDb2dPolyline
 66
     1
 10
0.0
 20
0.0
 30
0.0
 40
3.0
 41
3.0
  0
VERTEX
  5
1A9
100
AcDbEntity
  8
1
390
0
 62
     9
100
AcDbVertex
100
AcDb2dVertex
 10
66.896642
 20
71.435665
 30
0.0
  0
VERTEX
  5
1AA
100
AcDbEntity
  8
1
390
0
 62
     9
100
AcDbVertex
100
AcDb2dVertex
 10
66.843987
 20
71.434433
 30
0.0
  0
VERTEX
  5
1AB
100
AcDbEntity
  8
1
390
0
 62
     9
100
AcDbVertex
100
AcDb2dVertex
 10
66.791478
 20
71.435662
 30
0.0
  0
VERTEX
  5
1AC
100
AcDbEntity
  8
1
390
0
 62
     9
100
AcDbVertex
100
AcDb2dVertex
 10
66.739307
 20
71.439359
 30
0.0
  0
VERTEX
  5
1AD
100
AcDbEntity
  8
1
390
0
 62
     9
100
AcDbVertex
100
AcDb2dVertex
 10
66.686385
 20
71.445709
 30
0.0
  0
VERTEX
  5
1AE
100
AcDbEntity
  8
1
390
0
 62
     9
100
AcDbVertex
100
AcDb2dVertex
 10
66.634016
 20
71.45465
 30
0.0
  0
VERTEX
  5
1AF
100
AcDbEntity
  8
1
390
0
 62
     9
100
AcDbVertex
100
AcDb2dVertex
 10
66.582403
 20
71.466159
 30
0.0
  0
VERTEX
  5
1B0
100
AcDbEntity
  8
1
390
0
 62
     9
100
AcDbVertex
100
AcDb2dVertex
 10
66.554869
 20
71.473445
 30
0.0
  0
VERTEX
  5
1B1
100
AcDbEntity
  8
1
390
0
 62
     9
100
AcDbVertex
100
AcDb2dVertex
 10
66.527603
 20
71.481475
 30
0.0
  0
VERTEX
  5
1B2
100
AcDbEntity
  8
1
390
0
 62
     9
100
AcDbVertex
100
AcDb2dVertex
 10
66.500543
 20
71.490274
 30
0.0
  0
VERTEX
  5
1B3
100
AcDbEntity
  8
1
390
0
 62
     9
100
AcDbVertex
100
AcDb2dVertex
 10
66.473793
 20
71.499812
 30
0.0
  0
SEQEND
  5
1B4
100
AcDbEntity
  8
0
390
0
  0
ARC
  5
1B5
100
AcDbEntity
  8
1
390
0
  6
DOT
 62
     9
100
AcDbCircle
 10
67.755434
 20
74.417507
 30
0.0
 40
3.186777
210
0.0
220
0.0
230
1.0
100
AcDbArc
 50
208.781295
 51
246.285792
  0
ARC
  5
1B6
100
AcDbEntity
  8
1
390
0
  6
DOT
 62
     9
100
AcDbCircle
 10
67.780436
 20
71.742179
 30
0.0
 40
3.18822
210
0.0
220
0.0
230
1.0
100
AcDbArc
 50
114.547899
 51
152.117586
  0
LINE
  5
1B7
100
AcDbEntity
  8
1
390
0
  6
Continuous
 62
     7
100
AcDbLine
 10
70.305196
 20
71.283177
 30
0.0
 11
64.505196
 21
71.283177
 31
0.0
  0
LINE
  5
1B8
100
AcDbEntity
  8
1
390
0
  6
Continuous
 62
     7
100
AcDbLine
 10
69.705196
 20
71.083177
 30
0.0
 11
67.405196
 21
71.083177
 31
0.0
  0
LINE
  5
1B9
100
AcDbEntity
  8
1
390
0
  6
Continuous
 62
     7
100
AcDbLine
 10
67.405196
 20
71.083177
 30
0.0
 11
65.105196
 21
71.083177
 31
0.0
  0
LINE
  5
1BA
100
AcDbEntity
  8
1
390
0
  6
Continuous
 62
     7
100
AcDbLine
 10
68.405196
 20
109.521928
 30
0.0
 11
66.405196
 21
109.521928
 31
0.0
  0
LINE
  5
1BB
100
AcDbEntity
  8
1
390
0
  6
Continuous
 62
     7
100
AcDbLine
 10
68.155196
 20
171.083177
 30
0.0
 11
66.655196
 21
171.083177
 31
0.0
  0
ARC
  5
1BC
100
AcDbEntity
  8
1
390
0
  6
DOT
 62
     9
100
AcDbCircle
 10
67.405141
 20
73.083222
 30
0.0
 40
1.70006
210
0.0
220
0.0
230
1.0
100
AcDbArc
 50
288.412375
 51
353.242397
  0
ARC
  5
1BD
100
AcDbEntity
  8
1
390
0
  6
DOT
 62
     9
100
AcDbCircle
 10
67.405196
 20
73.083177
 30
0.0
 40
1.7
210
0.0
220
0.0
230
1.0
100
AcDbArc
 50
186.756327
 51
251.588901
  0
ARC
  5
1BE
100
AcDbEntity
  8
1
390
0
  6
DOT
 62
     9
100
AcDbCircle
 10
67.405196
 20
73.083177
 30
0.0
 40
1.7
210
0.0
220
0.0
230
1.0
100
AcDbArc
 50
5.062093
 51
72.923729
  0
ARC
  5
1BF
100
AcDbEntity
  8
1
390
0
  6
DOT
 62
     9
100
AcDbCircle
 10
67.405225
 20
73.083154
 30
0.0
 40
1.700031
210
0.0
220
0.0
230
1.0
100
AcDbArc
 50
107.076977
 51
174.937201
  0
LINE
  5
1C0
100
AcDbEntity
  8
1
390
0
  6
DOT
 62
     9
100
AcDbLine
 10
66.86828
 20
71.470192
 30
0.0
 11
66.973065
 21
71.439017
 31
0.0
  0
LINE
  5
1C1
100
AcDbEntity
  8
1
390
0
  6
DOT
 62
     9
100
AcDbLine
 10
67.837327
 20
71.439017
 30
0.0
 11
67.942112
 21
71.470192
 31
0.0
  0
LINE
  5
1C2
100
AcDbEntity
  8
1
390
0
  6
DOT
 62
     9
100
AcDbLine
 10
67.904392
 20
74.708232
 30
0.0
 11
67.876412
 21
74.716565
 31
0.0
  0
LINE
  5
1C3
100
AcDbEntity
  8
1
390
0
  6
DOT
 62
     9
100
AcDbLine
 10
66.93398
 20
74.716565
 30
0.0
 11
66.906
 21
74.708232
 31
0.0
  0
ARC
  5
1C4
100
AcDbEntity
  8
1
390
0
  6
DOT
 62
     9
100
AcDbCircle
 10
67.405468
 20
73.083181
 30
0.0
 40
1.70027
210
0.0
220
0.0
230
1.0
100
AcDbArc
 50
174.93885
 51
186.755384
  0
ARC
  5
1C5
100
AcDbEntity
  8
1
390
0
  6
DOT
 62
     9
100
AcDbCircle
 10
67.405196
 20
73.083177
 30
0.0
 40
1.7
210
0.0
220
0.0
230
1.0
100
AcDbArc
 50
353.243673
 51
5.062093
  0
CIRCLE
  5
1C6
100
AcDbEntity
  8
1
390
0
  6
DOT
 62
     9
100
AcDbCircle
 10
67.405196
 20
73.083177
 30
0.0
 40
1.4
210
0.0
220
0.0
230
1.0
  0
CIRCLE
  5
1C7
100
AcDbEntity
  8
1
390
0
  6
DOT
 62
     9
100
AcDbCircle
 10
67.405196
 20
73.083177
 30
0.0
 40
1.25
210
0.0
220
0.0
230
1.0
  0
ARC
  5
1C8
100
AcDbEntity
  8
1
390
0
  6
DOT
 62
     9
100
AcDbCircle
 10
67.405196
 20
73.083177
 30
0.0
 40
2.655097
210
0.0
220
0.0
230
1.0
100
AcDbArc
 50
90.0
 51
112.125343
  0
ARC
  5
1C9
100
AcDbEntity
  8
1
390
0
  6
Continuous
 62
     7
100
AcDbCircle
 10
67.405196
 20
73.083177
 30
0.0
 40
2.655097
210
0.0
220
0.0
230
1.0
100
AcDbArc
 50
112.125343
 51
131.125732
  0
ARC
  5
1CA
100
AcDbEntity
  8
1
390
0
  6
DOT
 62
     9
100
AcDbCircle
 10
67.405196
 20
73.083177
 30
0.0
 40
2.655097
210
0.0
220
0.0
230
1.0
100
AcDbArc
 50
131.125732
 51
222.682975
  0
ARC
  5
1CB
100
AcDbEntity
  8
1
390
0
  6
DOT
 62
     9
100
AcDbCircle
 10
67.405196
 20
73.083177
 30
0.0
 40
2.655097
210
0.0
220
0.0
230
1.0
100
AcDbArc
 50
222.682975
 51
228.874268
  0
ARC
  5
1CC
100
AcDbEntity
  8
1
390
0
  6
Continuous
 62
     7
100
AcDbCircle
 10
67.405196
 20
73.083177
 30
0.0
 40
2.655097
210
0.0
220
0.0
230
1.0
100
AcDbArc
 50
228.874268
 51
311.125732
  0
ARC
  5
1CD
100
AcDbEntity
  8
1
390
0
  6
DOT
 62
     9
100
AcDbCircle
 10
67.405196
 20
73.083177
 30
0.0
 40
2.655097
210
0.0
220
0.0
230
1.0
100
AcDbArc
 50
311.125732
 51
317.317025
  0
ARC
  5
1CE
100
AcDbEntity
  8
1
390
0
  6
DOT
 62
     9
100
AcDbCircle
 10
67.405196
 20
73.083177
 30
0.0
 40
2.655097
210
0.0
220
0.0
230
1.0
100
AcDbArc
 50
317.317025
 51
48.874268
  0
ARC
  5
1CF
100
AcDbEntity
  8
1
390
0
  6
Continuous
 62
     7
100
AcDbCircle
 10
67.405196
 20
73.083177
 30
0.0
 40
2.655097
210
0.0
220
0.0
230
1.0
100
AcDbArc
 50
48.874268
 51
67.874657
  0
ARC
  5
1D0
100
AcDbEntity
  8
1
390
0
  6
DOT
 62
     9
100
AcDbCircle
 10
67.405196
 20
73.083177
 30
0.0
 40
2.655097
210
0.0
220
0.0
230
1.0
100
AcDbArc
 50
67.874657
 51
90.0
  0
ARC
  5
1D1
100
AcDbEntity
  8
1
390
0
  6
DOT
 62
     9
100
AcDbCircle
 10
67.405196
 20
73.083177
 30
0.0
 40
2.0
210
0.0
220
0.0
230
1.0
100
AcDbArc
 50
90.0
 51
244.158067
  0
ARC
  5
1D2
100
AcDbEntity
  8
1
390
0
  6
DOT
 62
     9
100
AcDbCircle
 10
67.405196
 20
73.083177
 30
0.0
 40
2.0
210
0.0
220
0.0
230
1.0
100
AcDbArc
 50
244.158067
 51
270.0
  0
ARC
  5
1D3
100
AcDbEntity
  8
1
390
0
  6
DOT
 62
     9
100
AcDbCircle
 10
67.405196
 20
73.083177
 30
0.0
 40
2.0
210
0.0
220
0.0
230
1.0
100
AcDbArc
 50
270.0
 51
295.841933
  0
ARC
  5
1D4
100
AcDbEntity
  8
1
390
0
  6
DOT
 62
     9
100
AcDbCircle
 10
67.405196
 20
73.083177
 30
0.0
 40
2.0
210
0.0
220
0.0
230
1.0
100
AcDbArc
 50
295.841933
 51
90.0
  0
ARC
  5
1D5
100
AcDbEntity
  8
1
390
0
  6
DOT
 62
     9
100
AcDbCircle
 10
67.405196
 20
73.083177
 30
0.0
 40
3.1
210
0.0
220
0.0
230
1.0
100
AcDbArc
 50
90.0
 51
108.819063
  0
ARC
  5
1D6
100
AcDbEntity
  8
1
390
0
  6
Continuous
 62
     7
100
AcDbCircle
 10
67.405196
 20
73.083177
 30
0.0
 40
3.1
210
0.0
220
0.0
230
1.0
100
AcDbArc
 50
108.819063
 51
139.82223
  0
ARC
  5
1D7
100
AcDbEntity
  8
1
390
0
  6
DOT
 62
     9
100
AcDbCircle
 10
67.405196
 20
73.083177
 30
0.0
 40
3.1
210
0.0
220
0.0
230
1.0
100
AcDbArc
 50
139.82223
 51
165.407449
  0
ARC
  5
1D8
100
AcDbEntity
  8
1
390
0
  6
Continuous
 62
     7
100
AcDbCircle
 10
67.405196
 20
73.083177
 30
0.0
 40
3.1
210
0.0
220
0.0
230
1.0
100
AcDbArc
 50
165.407449
 51
194.592551
  0
ARC
  5
1D9
100
AcDbEntity
  8
1
390
0
  6
DOT
 62
     9
100
AcDbCircle
 10
67.405196
 20
73.083177
 30
0.0
 40
3.1
210
0.0
220
0.0
230
1.0
100
AcDbArc
 50
194.592551
 51
215.495933
  0
ARC
  5
1DA
100
AcDbEntity
  8
1
390
0
  6
Continuous
 62
     7
100
AcDbCircle
 10
67.405196
 20
73.083177
 30
0.0
 40
3.1
210
0.0
220
0.0
230
1.0
100
AcDbArc
 50
215.495933
 51
324.504067
  0
ARC
  5
1DB
100
AcDbEntity
  8
1
390
0
  6
DOT
 62
     9
100
AcDbCircle
 10
67.405196
 20
73.083177
 30
0.0
 40
3.1
210
0.0
220
0.0
230
1.0
100
AcDbArc
 50
324.504067
 51
345.407449
  0
ARC
  5
1DC
100
AcDbEntity
  8
1
390
0
  6
Continuous
 62
     7
100
AcDbCircle
 10
67.405196
 20
73.083177
 30
0.0
 40
3.1
210
0.0
220
0.0
230
1.0
100
AcDbArc
 50
345.407449
 51
14.592551
  0
ARC
  5
1DD
100
AcDbEntity
  8
1
390
0
  6
DOT
 62
     9
100
AcDbCircle
 10
67.405196
 20
73.083177
 30
0.0
 40
3.1
210
0.0
220
0.0
230
1.0
100
AcDbArc
 50
14.592551
 51
40.17777
  0
ARC
  5
1DE
100
AcDbEntity
  8
1
390
0
  6
Continuous
 62
     7
100
AcDbCircle
 10
67.405196
 20
73.083177
 30
0.0
 40
3.1
210
0.0
220
0.0
230
1.0
100
AcDbArc
 50
40.17777
 51
71.180937
  0
ARC
  5
1DF
100
AcDbEntity
  8
1
390
0
  6
DOT
 62
     9
100
AcDbCircle
 10
67.405196
 20
73.083177
 30
0.0
 40
3.1
210
0.0
220
0.0
230
1.0
100
AcDbArc
 50
71.180937
 51
90.0
  0
ARC
  5
1E0
100
AcDbEntity
  8
1
390
0
  6
Continuous
 62
     7
100
AcDbCircle
 10
67.405196
 20
73.083177
 30
0.0
 40
3.2
210
0.0
220
0.0
230
1.0
100
AcDbArc
 50
38.682187
 51
69.635865
  0
ARC
  5
1E1
100
AcDbEntity
  8
1
390
0
  6
DOT
 62
     9
100
AcDbCircle
 10
67.405196
 20
73.083177
 30
0.0
 40
3.2
210
0.0
220
0.0
230
1.0
100
AcDbArc
 50
20.364135
 51
38.682187
  0
ARC
  5
1E2
100
AcDbEntity
  8
1
390
0
  6
Continuous
 62
     7
100
AcDbCircle
 10
67.405196
 20
73.083177
 30
0.0
 40
3.2
210
0.0
220
0.0
230
1.0
100
AcDbArc
 50
339.635865
 51
20.364135
  0
ARC
  5
1E3
100
AcDbEntity
  8
1
390
0
  6
DOT
 62
     9
100
AcDbCircle
 10
67.405196
 20
73.083177
 30
0.0
 40
3.2
210
0.0
220
0.0
230
1.0
100
AcDbArc
 50
325.771134
 51
339.635865
  0
ARC
  5
1E4
100
AcDbEntity
  8
1
390
0
  6
Continuous
 62
     7
100
AcDbCircle
 10
67.405196
 20
73.083177
 30
0.0
 40
3.2
210
0.0
220
0.0
230
1.0
100
AcDbArc
 50
290.364135
 51
325.771134
  0
LINE
  5
1E5
100
AcDbEntity
  8
1
390
0
  6
Continuous
 62
     7
100
AcDbLine
 10
68.518749
 20
70.083177
 30
0.0
 11
68.186221
 21
70.083177
 31
0.0
  0
LINE
  5
1E6
100
AcDbEntity
  8
1
390
0
  6
DOT
 62
     9
100
AcDbLine
 10
68.186221
 20
76.083177
 30
0.0
 11
68.441969
 21
76.083177
 31
0.0
  0
LINE
  5
1E7
100
AcDbEntity
  8
1
390
0
  6
Continuous
 62
     7
100
AcDbLine
 10
68.441969
 20
76.083177
 30
0.0
 11
68.518749
 21
76.083177
 31
0.0
  0
LINE
  5
1E8
100
AcDbEntity
  8
1
390
0
  6
DOT
 62
     9
100
AcDbLine
 10
68.186221
 20
70.083177
 30
0.0
 11
66.624171
 21
70.083177
 31
0.0
  0
LINE
  5
1E9
100
AcDbEntity
  8
1
390
0
  6
DOT
 62
     9
100
AcDbLine
 10
66.624171
 20
76.083177
 30
0.0
 11
68.186221
 21
76.083177
 31
0.0
  0
ARC
  5
1EA
100
AcDbEntity
  8
1
390
0
  6
Continuous
 62
     7
100
AcDbCircle
 10
67.405196
 20
73.083177
 30
0.0
 40
3.2
210
0.0
220
0.0
230
1.0
100
AcDbArc
 50
214.228866
 51
249.635865
  0
ARC
  5
1EB
100
AcDbEntity
  8
1
390
0
  6
DOT
 62
     9
100
AcDbCircle
 10
67.405196
 20
73.083177
 30
0.0
 40
3.2
210
0.0
220
0.0
230
1.0
100
AcDbArc
 50
200.364135
 51
214.228866
  0
ARC
  5
1EC
100
AcDbEntity
  8
1
390
0
  6
Continuous
 62
     7
100
AcDbCircle
 10
67.405196
 20
73.083177
 30
0.0
 40
3.2
210
0.0
220
0.0
230
1.0
100
AcDbArc
 50
159.635865
 51
200.364135
  0
ARC
  5
1ED
100
AcDbEntity
  8
1
390
0
  6
DOT
 62
     9
100
AcDbCircle
 10
67.405196
 20
73.083177
 30
0.0
 40
3.2
210
0.0
220
0.0
230
1.0
100
AcDbArc
 50
141.317813
 51
159.635865
  0
ARC
  5
1EE
100
AcDbEntity
  8
1
390
0
  6
Continuous
 62
     7
100
AcDbCircle
 10
67.405196
 20
73.083177
 30
0.0
 40
3.2
210
0.0
220
0.0
230
1.0
100
AcDbArc
 50
110.364135
 51
141.317813
  0
LINE
  5
1EF
100
AcDbEntity
  8
1
390
0
  6
Continuous
 62
     7
100
AcDbLine
 10
66.624171
 20
70.083177
 30
0.0
 11
66.291643
 21
70.083177
 31
0.0
  0
LINE
  5
1F0
100
AcDbEntity
  8
1
390
0
  6
Continuous
 62
     7
100
AcDbLine
 10
66.291643
 20
76.083177
 30
0.0
 11
66.368633
 21
76.083177
 31
0.0
  0
LINE
  5
1F1
100
AcDbEntity
  8
1
390
0
  6
DOT
 62
     9
100
AcDbLine
 10
66.368633
 20
76.083177
 30
0.0
 11
66.624171
 21
76.083177
 31
0.0
  0
ARC
  5
1F2
100
AcDbEntity
  8
1
390
0
  6
Continuous
 62
     7
100
AcDbCircle
 10
67.405196
 20
73.083177
 30
0.0
 40
3.2
210
0.0
220
0.0
230
1.0
100
AcDbArc
 50
249.635865
 51
290.364135
  0
ARC
  5
1F3
100
AcDbEntity
  8
1
390
0
  6
Continuous
 62
     7
100
AcDbCircle
 10
67.405196
 20
73.083177
 30
0.0
 40
3.2
210
0.0
220
0.0
230
1.0
100
AcDbArc
 50
108.209957
 51
110.364135
  0
ARC
  5
1F4
100
AcDbEntity
  8
1
390
0
  6
DOT
 62
     9
100
AcDbCircle
 10
67.405196
 20
73.083177
 30
0.0
 40
3.2
210
0.0
220
0.0
230
1.0
100
AcDbArc
 50
71.790043
 51
108.209957
  0
ARC
  5
1F5
100
AcDbEntity
  8
1
390
0
  6
Continuous
 62
     7
100
AcDbCircle
 10
67.405196
 20
73.083177
 30
0.0
 40
3.2
210
0.0
220
0.0
230
1.0
100
AcDbArc
 50
69.635865
 51
71.790043
  0
CIRCLE
  5
1F6
100
AcDbEntity
  8
1
390
0
  6
DOT
 62
     9
100
AcDbCircle
 10
67.405196
 20
73.083177
 30
0.0
 40
2.5
210
0.0
220
0.0
230
1.0
  0
LINE
  5
1F7
100
AcDbEntity
  8
1
390
0
  6
DOT
 62
     9
100
AcDbLine
 10
69.041503
 20
70.333177
 30
0.0
 11
68.836105
 21
70.333177
 31
0.0
  0
LINE
  5
1F8
100
AcDbEntity
  8
1
390
0
  6
DOT
 62
     9
100
AcDbLine
 10
68.836105
 20
70.333177
 30
0.0
 11
65.974287
 21
70.333177
 31
0.0
  0
LINE
  5
1F9
100
AcDbEntity
  8
1
390
0
  6
DOT
 62
     9
100
AcDbLine
 10
65.974287
 20
70.333177
 30
0.0
 11
65.768889
 21
70.333177
 31
0.0
  0
LINE
  5
1FA
100
AcDbEntity
  8
1
390
0
  6
DOT
 62
     9
100
AcDbLine
 10
65.768889
 20
75.833177
 30
0.0
 11
65.974287
 21
75.833177
 31
0.0
  0
LINE
  5
1FB
100
AcDbEntity
  8
1
390
0
  6
DOT
 62
     9
100
AcDbLine
 10
65.974287
 20
75.833177
 30
0.0
 11
66.405196
 21
75.833177
 31
0.0
  0
LINE
  5
1FC
100
AcDbEntity
  8
1
390
0
  6
DOT
 62
     9
100
AcDbLine
 10
66.405196
 20
75.833177
 30
0.0
 11
68.405196
 21
75.833177
 31
0.0
  0
LINE
  5
1FD
100
AcDbEntity
  8
1
390
0
  6
DOT
 62
     9
100
AcDbLine
 10
68.405196
 20
75.833177
 30
0.0
 11
68.836105
 21
75.833177
 31
0.0
  0
LINE
  5
1FE
100
AcDbEntity
  8
1
390
0
  6
DOT
 62
     9
100
AcDbLine
 10
68.836105
 20
75.833177
 30
0.0
 11
69.041503
 21
75.833177
 31
0.0
  0
CIRCLE
  5
1FF
100
AcDbEntity
  8
1
390
0
  6
DOT
 62
     9
100
AcDbCircle
 10
67.405196
 20
73.083177
 30
0.0
 40
2.675
210
0.0
220
0.0
230
1.0
  0
ARC
  5
200
100
AcDbEntity
  8
1
390
0
  6
DOT
 62
     9
100
AcDbCircle
 10
67.405196
 20
73.083177
 30
0.0
 40
3.075
210
0.0
220
0.0
230
1.0
100
AcDbArc
 50
90.0
 51
103.899449
  0
ARC
  5
201
100
AcDbEntity
  8
1
390
0
  6
DOT
 62
     9
100
AcDbCircle
 10
67.405196
 20
73.083177
 30
0.0
 40
3.075
210
0.0
220
0.0
230
1.0
100
AcDbArc
 50
103.899449
 51
108.977889
  0
ARC
  5
202
100
AcDbEntity
  8
1
390
0
  6
DOT
 62
     9
100
AcDbCircle
 10
67.405196
 20
73.083177
 30
0.0
 40
3.075
210
0.0
220
0.0
230
1.0
100
AcDbArc
 50
108.977889
 51
116.580197
  0
ARC
  5
203
100
AcDbEntity
  8
1
390
0
  6
DOT
 62
     9
100
AcDbCircle
 10
67.405196
 20
73.083177
 30
0.0
 40
3.075
210
0.0
220
0.0
230
1.0
100
AcDbArc
 50
116.580197
 51
139.427742
  0
ARC
  5
204
100
AcDbEntity
  8
1
390
0
  6
DOT
 62
     9
100
AcDbCircle
 10
67.405196
 20
73.083177
 30
0.0
 40
3.075
210
0.0
220
0.0
230
1.0
100
AcDbArc
 50
139.427742
 51
167.319617
  0
ARC
  5
205
100
AcDbEntity
  8
1
390
0
  6
DOT
 62
     9
100
AcDbCircle
 10
67.405196
 20
73.083177
 30
0.0
 40
3.075
210
0.0
220
0.0
230
1.0
100
AcDbArc
 50
167.319617
 51
192.680383
  0
ARC
  5
206
100
AcDbEntity
  8
1
390
0
  6
DOT
 62
     9
100
AcDbCircle
 10
67.405196
 20
73.083177
 30
0.0
 40
3.075
210
0.0
220
0.0
230
1.0
100
AcDbArc
 50
192.680383
 51
216.416624
  0
ARC
  5
207
100
AcDbEntity
  8
1
390
0
  6
DOT
 62
     9
100
AcDbCircle
 10
67.405196
 20
73.083177
 30
0.0
 40
3.075
210
0.0
220
0.0
230
1.0
100
AcDbArc
 50
216.416624
 51
243.419803
  0
ARC
  5
208
100
AcDbEntity
  8
1
390
0
  6
DOT
 62
     9
100
AcDbCircle
 10
67.405196
 20
73.083177
 30
0.0
 40
3.075
210
0.0
220
0.0
230
1.0
100
AcDbArc
 50
243.419803
 51
256.100551
  0
ARC
  5
209
100
AcDbEntity
  8
1
390
0
  6
DOT
 62
     9
100
AcDbCircle
 10
67.405196
 20
73.083177
 30
0.0
 40
3.075
210
0.0
220
0.0
230
1.0
100
AcDbArc
 50
256.100551
 51
283.899449
  0
ARC
  5
20A
100
AcDbEntity
  8
1
390
0
  6
DOT
 62
     9
100
AcDbCircle
 10
67.405196
 20
73.083177
 30
0.0
 40
3.075
210
0.0
220
0.0
230
1.0
100
AcDbArc
 50
283.899449
 51
296.580197
  0
ARC
  5
20B
100
AcDbEntity
  8
1
390
0
  6
DOT
 62
     9
100
AcDbCircle
 10
67.405196
 20
73.083177
 30
0.0
 40
3.075
210
0.0
220
0.0
230
1.0
100
AcDbArc
 50
296.580197
 51
323.583376
  0
ARC
  5
20C
100
AcDbEntity
  8
1
390
0
  6
DOT
 62
     9
100
AcDbCircle
 10
67.405196
 20
73.083177
 30
0.0
 40
3.075
210
0.0
220
0.0
230
1.0
100
AcDbArc
 50
323.583376
 51
347.319617
  0
ARC
  5
20D
100
AcDbEntity
  8
1
390
0
  6
DOT
 62
     9
100
AcDbCircle
 10
67.405196
 20
73.083177
 30
0.0
 40
3.075
210
0.0
220
0.0
230
1.0
100
AcDbArc
 50
347.319617
 51
12.680383
  0
ARC
  5
20E
100
AcDbEntity
  8
1
390
0
  6
DOT
 62
     9
100
AcDbCircle
 10
67.405196
 20
73.083177
 30
0.0
 40
3.075
210
0.0
220
0.0
230
1.0
100
AcDbArc
 50
12.680383
 51
40.572258
  0
ARC
  5
20F
100
AcDbEntity
  8
1
390
0
  6
DOT
 62
     9
100
AcDbCircle
 10
67.405196
 20
73.083177
 30
0.0
 40
3.075
210
0.0
220
0.0
230
1.0
100
AcDbArc
 50
40.572258
 51
63.419803
  0
ARC
  5
210
100
AcDbEntity
  8
1
390
0
  6
DOT
 62
     9
100
AcDbCircle
 10
67.405196
 20
73.083177
 30
0.0
 40
3.075
210
0.0
220
0.0
230
1.0
100
AcDbArc
 50
63.419803
 51
71.022111
  0
ARC
  5
211
100
AcDbEntity
  8
1
390
0
  6
DOT
 62
     9
100
AcDbCircle
 10
67.405196
 20
73.083177
 30
0.0
 40
3.075
210
0.0
220
0.0
230
1.0
100
AcDbArc
 50
71.022111
 51
76.100551
  0
ARC
  5
212
100
AcDbEntity
  8
1
390
0
  6
DOT
 62
     9
100
AcDbCircle
 10
67.405196
 20
73.083177
 30
0.0
 40
3.075
210
0.0
220
0.0
230
1.0
100
AcDbArc
 50
76.100551
 51
90.0
  0
ARC
  5
213
100
AcDbEntity
  8
1
390
0
  6
DOT
 62
     9
100
AcDbCircle
 10
67.405196
 20
73.083177
 30
0.0
 40
3.175
210
0.0
220
0.0
230
1.0
100
AcDbArc
 50
340.888268
 51
360.0
  0
ARC
  5
214
100
AcDbEntity
  8
1
390
0
  6
DOT
 62
     9
100
AcDbCircle
 10
67.405196
 20
73.083177
 30
0.0
 40
3.175
210
0.0
220
0.0
230
1.0
100
AcDbArc
 50
325.463639
 51
340.888268
  0
ARC
  5
215
100
AcDbEntity
  8
1
390
0
  6
DOT
 62
     9
100
AcDbCircle
 10
67.405196
 20
73.083177
 30
0.0
 40
3.175
210
0.0
220
0.0
230
1.0
100
AcDbArc
 50
299.986667
 51
325.463639
  0
ARC
  5
216
100
AcDbEntity
  8
1
390
0
  6
DOT
 62
     9
100
AcDbCircle
 10
67.405196
 20
73.083177
 30
0.0
 40
3.175
210
0.0
220
0.0
230
1.0
100
AcDbArc
 50
289.059956
 51
299.986667
  0
ARC
  5
217
100
AcDbEntity
  8
1
390
0
  6
DOT
 62
     9
100
AcDbCircle
 10
67.405196
 20
73.083177
 30
0.0
 40
3.175
210
0.0
220
0.0
230
1.0
100
AcDbArc
 50
250.940044
 51
289.059956
  0
ARC
  5
218
100
AcDbEntity
  8
1
390
0
  6
DOT
 62
     9
100
AcDbCircle
 10
67.405196
 20
73.083177
 30
0.0
 40
3.175
210
0.0
220
0.0
230
1.0
100
AcDbArc
 50
240.013333
 51
250.940044
  0
ARC
  5
219
100
AcDbEntity
  8
1
390
0
  6
DOT
 62
     9
100
AcDbCircle
 10
67.405196
 20
73.083177
 30
0.0
 40
3.175
210
0.0
220
0.0
230
1.0
100
AcDbArc
 50
214.536361
 51
240.013333
  0
ARC
  5
21A
100
AcDbEntity
  8
1
390
0
  6
DOT
 62
     9
100
AcDbCircle
 10
67.405196
 20
73.083177
 30
0.0
 40
3.175
210
0.0
220
0.0
230
1.0
100
AcDbArc
 50
199.111732
 51
214.536361
  0
ARC
  5
21B
100
AcDbEntity
  8
1
390
0
  6
DOT
 62
     9
100
AcDbCircle
 10
67.405196
 20
73.083177
 30
0.0
 40
3.175
210
0.0
220
0.0
230
1.0
100
AcDbArc
 50
160.888268
 51
199.111732
  0
ARC
  5
21C
100
AcDbEntity
  8
1
390
0
  6
DOT
 62
     9
100
AcDbCircle
 10
67.405196
 20
73.083177
 30
0.0
 40
3.175
210
0.0
220
0.0
230
1.0
100
AcDbArc
 50
140.955687
 51
160.888268
  0
ARC
  5
21D
100
AcDbEntity
  8
1
390
0
  6
DOT
 62
     9
100
AcDbCircle
 10
67.405196
 20
73.083177
 30
0.0
 40
3.175
210
0.0
220
0.0
230
1.0
100
AcDbArc
 50
119.986667
 51
140.955687
  0
ARC
  5
21E
100
AcDbEntity
  8
1
390
0
  6
DOT
 62
     9
100
AcDbCircle
 10
67.405196
 20
73.083177
 30
0.0
 40
3.175
210
0.0
220
0.0
230
1.0
100
AcDbArc
 50
109.059956
 51
119.986667
  0
ARC
  5
21F
100
AcDbEntity
  8
1
390
0
  6
DOT
 62
     9
100
AcDbCircle
 10
67.405196
 20
73.083177
 30
0.0
 40
3.175
210
0.0
220
0.0
230
1.0
100
AcDbArc
 50
70.940044
 51
109.059956
  0
ARC
  5
220
100
AcDbEntity
  8
1
390
0
  6
DOT
 62
     9
100
AcDbCircle
 10
67.405196
 20
73.083177
 30
0.0
 40
3.175
210
0.0
220
0.0
230
1.0
100
AcDbArc
 50
60.013333
 51
70.940044
  0
ARC
  5
221
100
AcDbEntity
  8
1
390
0
  6
DOT
 62
     9
100
AcDbCircle
 10
67.405196
 20
73.083177
 30
0.0
 40
3.175
210
0.0
220
0.0
230
1.0
100
AcDbArc
 50
39.044313
 51
60.013333
  0
ARC
  5
222
100
AcDbEntity
  8
1
390
0
  6
DOT
 62
     9
100
AcDbCircle
 10
67.405196
 20
73.083177
 30
0.0
 40
3.175
210
0.0
220
0.0
230
1.0
100
AcDbArc
 50
19.111732
 51
39.044313
  0
ARC
  5
223
100
AcDbEntity
  8
1
390
0
  6
DOT
 62
     9
100
AcDbCircle
 10
67.405196
 20
73.083177
 30
0.0
 40
3.175
210
0.0
220
0.0
230
1.0
100
AcDbArc
 50
0.0
 51
19.111732
  0
CIRCLE
  5
224
100
AcDbEntity
  8
1
390
0
  6
DOT
 62
     9
100
AcDbCircle
 10
67.405196
 20
73.083177
 30
0.0
 40
3.0
210
0.0
220
0.0
230
1.0
  0
CIRCLE
  5
225
100
AcDbEntity
  8
1
390
0
  6
DOT
 62
     9
100
AcDbCircle
 10
67.405196
 20
73.083177
 30
0.0
 40
2.475
210
0.0
220
0.0
230
1.0
  0
LINE
  5
226
100
AcDbEntity
  8
1
390
0
  6
Continuous
 62
     7
100
AcDbLine
 10
64.405196
 20
75.083177
 30
0.0
 11
64.405196
 21
71.383177
 31
0.0
  0
LINE
  5
227
100
AcDbEntity
  8
1
390
0
  6
Continuous
 62
     7
100
AcDbLine
 10
70.405196
 20
71.383177
 30
0.0
 11
70.405196
 21
75.083177
 31
0.0
  0
ARC
  5
228
100
AcDbEntity
  8
1
390
0
  6
Continuous
 62
     7
100
AcDbCircle
 10
64.505196
 20
71.383177
 30
0.0
 40
0.1
210
0.0
220
0.0
230
1.0
100
AcDbArc
 50
180.0
 51
270.0
  0
ARC
  5
229
100
AcDbEntity
  8
1
390
0
  6
Continuous
 62
     7
100
AcDbCircle
 10
70.305196
 20
71.383177
 30
0.0
 40
0.1
210
0.0
220
0.0
230
1.0
100
AcDbArc
 50
270.0
 51
360.0
  0
LINE
  5
22A
100
AcDbEntity
  8
1
390
0
  6
Continuous
 62
     7
100
AcDbLine
 10
64.905196
 20
71.283177
 30
0.0
 11
65.105196
 21
71.083177
 31
0.0
  0
LINE
  5
22B
100
AcDbEntity
  8
1
390
0
  6
Continuous
 62
     7
100
AcDbLine
 10
69.705196
 20
71.083177
 30
0.0
 11
69.905196
 21
71.283177
 31
0.0
  0
LINE
  5
22C
100
AcDbEntity
  8
1
390
0
  6
Continuous
 62
     7
100
AcDbLine
 10
66.405196
 20
109.521928
 30
0.0
 11
66.405196
 21
75.083177
 31
0.0
  0
LINE
  5
22D
100
AcDbEntity
  8
1
390
0
  6
Continuous
 62
     7
100
AcDbLine
 10
68.405196
 20
75.083177
 30
0.0
 11
68.405196
 21
109.521928
 31
0.0
  0
ARC
  5
22E
100
AcDbEntity
  8
1
390
0
  6
Continuous
 62
     7
100
AcDbCircle
 10
61.655196
 20
111.083177
 30
0.0
 40
5.0
210
0.0
220
0.0
230
1.0
100
AcDbArc
 50
341.805128
 51
360.0
  0
ARC
  5
22F
100
AcDbEntity
  8
1
390
0
  6
Continuous
 62
     7
100
AcDbCircle
 10
73.155196
 20
111.083177
 30
0.0
 40
5.0
210
0.0
220
0.0
230
1.0
100
AcDbArc
 50
180.0
 51
198.194872
  0
LINE
  5
230
100
AcDbEntity
  8
1
390
0
  6
Continuous
 62
     7
100
AcDbLine
 10
66.655196
 20
171.083177
 30
0.0
 11
66.655196
 21
111.083177
 31
0.0
  0
LINE
  5
231
100
AcDbEntity
  8
1
390
0
  6
Continuous
 62
     7
100
AcDbLine
 10
68.155196
 20
111.083177
 30
0.0
 11
68.155196
 21
171.083177
 31
0.0
  0
CIRCLE
  5
232
100
AcDbEntity
  8
1
390
0
  6
Continuous
 62
     7
100
AcDbCircle
 10
150.538738
 20
231.27067
 30
0.0
 40
0.75
210
0.0
220
0.0
230
1.0
  0
CIRCLE
  5
233
100
AcDbEntity
  8
1
390
0
  6
Continuous
 62
     7
100
AcDbCircle
 10
150.538738
 20
231.27067
 30
0.0
 40
1.0
210
0.0
220
0.0
230
1.0
  0
CIRCLE
  5
234
100
AcDbEntity
  8
1
390
0
  6
Continuous
 62
     7
100
AcDbCircle
 10
150.538738
 20
231.27067
 30
0.0
 40
3.0
210
0.0
220
0.0
230
1.0
  0
ARC
  5
235
100
AcDbEntity
  8
1
390
0
  6
Continuous
 62
     7
100
AcDbCircle
 10
154.601988
 20
236.97067
 30
0.0
 40
4.0
210
0.0
220
0.0
230
1.0
100
AcDbArc
 50
234.516796
 51
258.463041
  0
POLYLINE
  5
236
100
AcDbEntity
  8
1
390
0
  6
Continuous
 62
     7
100
AcDb2dPolyline
 66
     1
 10
0.0
 20
0.0
 30
0.0
 40
3.0
 41
3.0
  0
VERTEX
  5
237
100
AcDbEntity
  8
1
390
0
 62
     7
100
AcDbVertex
100
AcDb2dVertex
 10
154.053334
 20
229.577301
 30
0.0
  0
VERTEX
  5
238
100
AcDbEntity
  8
1
390
0
 62
     7
100
AcDbVertex
100
AcDb2dVertex
 10
154.090869
 20
229.673425
 30
0.0
  0
VERTEX
  5
239
100
AcDbEntity
  8
1
390
0
 62
     7
100
AcDbVertex
100
AcDb2dVertex
 10
154.072739
 20
229.800839
 30
0.0
 42
0.117185
  0
VERTEX
  5
23A
100
AcDbEntity
  8
1
390
0
 62
     7
100
AcDbVertex
100
AcDb2dVertex
 10
153.528132
 20
230.771475
 30
0.0
  0
SEQEND
  5
23B
100
AcDbEntity
  8
0
390
0
  0
ARC
  5
23C
100
AcDbEntity
  8
1
390
0
  6
Continuous
 62
     7
100
AcDbCircle
 10
153.601988
 20
230.46965
 30
0.0
 40
1.0
210
0.0
220
0.0
230
1.0
100
AcDbArc
 50
281.536959
 51
296.83009
  0
LINE
  5
23D
100
AcDbEntity
  8
1
390
0
  6
Continuous
 62
     7
100
AcDbLine
 10
168.538738
 20
229.57067
 30
0.0
 11
168.538738
 21
232.97067
 31
0.0
  0
LINE
  5
23E
100
AcDbEntity
  8
1
390
0
  6
DOT
 62
     9
100
AcDbLine
 10
154.039979
 20
232.97067
 30
0.0
 11
154.063424
 21
232.958864
 31
0.0
  0
POLYLINE
  5
23F
100
AcDbEntity
  8
1
390
0
  6
Continuous
 62
     7
100
AcDb2dPolyline
 66
     1
 10
0.0
 20
0.0
 30
0.0
 40
3.0
 41
3.0
  0
VERTEX
  5
240
100
AcDbEntity
  8
1
390
0
 62
     7
100
AcDbVertex
100
AcDb2dVertex
 10
153.528132
 20
231.769866
 30
0.0
 42
0.12413
  0
VERTEX
  5
241
100
AcDbEntity
  8
1
390
0
 62
     7
100
AcDbVertex
100
AcDb2dVertex
 10
154.081459
 20
232.781631
 30
0.0
  0
VERTEX
  5
242
100
AcDbEntity
  8
1
390
0
 62
     7
100
AcDbVertex
100
AcDb2dVertex
 10
154.089501
 20
232.896686
 30
0.0
  0
VERTEX
  5
243
100
AcDbEntity
  8
1
390
0
 62
     7
100
AcDbVertex
100
AcDb2dVertex
 10
154.053334
 20
232.96404
 30
0.0
  0
SEQEND
  5
244
100
AcDbEntity
  8
0
390
0
  0
POLYLINE
  5
245
100
AcDbEntity
  8
1
390
0
  6
DOT
 62
     9
100
AcDb2dPolyline
 66
     1
 10
0.0
 20
0.0
 30
0.0
 40
3.0
 41
3.0
  0
VERTEX
  5
246
100
AcDbEntity
  8
1
390
0
 62
     9
100
AcDbVertex
100
AcDb2dVertex
 10
154.063424
 20
232.958864
 30
0.0
  0
VERTEX
  5
247
100
AcDbEntity
  8
1
390
0
 62
     9
100
AcDbVertex
100
AcDb2dVertex
 10
154.116619
 20
232.850353
 30
0.0
  0
VERTEX
  5
248
100
AcDbEntity
  8
1
390
0
 62
     9
100
AcDbVertex
100
AcDb2dVertex
 10
154.109474
 20
232.748769
 30
0.0
 42
-0.128623
  0
VERTEX
  5
249
100
AcDbEntity
  8
1
390
0
 62
     9
100
AcDbVertex
100
AcDb2dVertex
 10
153.605449
 20
231.807586
 30
0.0
  0
SEQEND
  5
24A
100
AcDbEntity
  8
0
390
0
  0
LINE
  5
24B
100
AcDbEntity
  8
1
390
0
  6
DOT
 62
     9
100
AcDbLine
 10
153.605449
 20
231.807586
 30
0.0
 11
153.507452
 21
231.702801
 31
0.0
  0
LINE
  5
24C
100
AcDbEntity
  8
1
390
0
  6
DOT
 62
     9
100
AcDbLine
 10
153.507452
 20
230.838539
 30
0.0
 11
153.605449
 21
230.733754
 31
0.0
  0
POLYLINE
  5
24D
100
AcDbEntity
  8
1
390
0
  6
DOT
 62
     9
100
AcDb2dPolyline
 66
     1
 10
0.0
 20
0.0
 30
0.0
 40
3.0
 41
3.0
  0
VERTEX
  5
24E
100
AcDbEntity
  8
1
390
0
 62
     9
100
AcDbVertex
100
AcDb2dVertex
 10
153.605449
 20
230.733754
 30
0.0
 42
-0.126867
  0
VERTEX
  5
24F
100
AcDbEntity
  8
1
390
0
 62
     9
100
AcDbVertex
100
AcDb2dVertex
 10
154.108732
 20
229.797008
 30
0.0
  0
VERTEX
  5
250
100
AcDbEntity
  8
1
390
0
 62
     9
100
AcDbVertex
100
AcDb2dVertex
 10
154.11673
 20
229.693149
 30
0.0
  0
VERTEX
  5
251
100
AcDbEntity
  8
1
390
0
 62
     9
100
AcDbVertex
100
AcDb2dVertex
 10
154.083641
 20
229.597297
 30
0.0
  0
VERTEX
  5
252
100
AcDbEntity
  8
1
390
0
 62
     9
100
AcDbVertex
100
AcDb2dVertex
 10
154.063424
 20
229.582476
 30
0.0
  0
SEQEND
  5
253
100
AcDbEntity
  8
0
390
0
  0
LINE
  5
254
100
AcDbEntity
  8
1
390
0
  6
DOT
 62
     9
100
AcDbLine
 10
154.063424
 20
229.582476
 30
0.0
 11
154.053017
 21
229.57714
 31
0.0
  0
LINE
  5
255
100
AcDbEntity
  8
1
390
0
  6
DOT
 62
     9
100
AcDbLine
 10
154.053017
 20
229.57714
 30
0.0
 11
154.039979
 21
229.57067
 31
0.0
  0
LINE
  5
256
100
AcDbEntity
  8
1
390
0
  6
Continuous
 62
     7
100
AcDbLine
 10
153.528132
 20
230.771475
 30
0.0
 11
153.5015
 21
230.799454
 31
0.0
  0
LINE
  5
257
100
AcDbEntity
  8
1
390
0
  6
Continuous
 62
     7
100
AcDbLine
 10
153.5015
 20
231.741886
 30
0.0
 11
153.528132
 21
231.769866
 31
0.0
  0
ARC
  5
258
100
AcDbEntity
  8
1
390
0
  6
DOT
 62
     9
100
AcDbCircle
 10
150.538738
 20
231.27067
 30
0.0
 40
3.0
210
0.0
220
0.0
230
1.0
100
AcDbArc
 50
0.0
 51
8.2819
  0
ARC
  5
259
100
AcDbEntity
  8
1
390
0
  6
Continuous
 62
     7
100
AcDbCircle
 10
153.601988
 20
232.071691
 30
0.0
 40
1.0
210
0.0
220
0.0
230
1.0
100
AcDbArc
 50
63.16991
 51
78.463041
  0
ARC
  5
25A
100
AcDbEntity
  8
1
390
0
  6
Continuous
 62
     7
100
AcDbCircle
 10
154.601988
 20
225.57067
 30
0.0
 40
4.0
210
0.0
220
0.0
230
1.0
100
AcDbArc
 50
101.536959
 51
125.483204
  0
LINE
  5
25B
100
AcDbEntity
  8
1
390
0
  6
Continuous
 62
     7
100
AcDbLine
 10
173.538738
 20
229.87067
 30
0.0
 11
173.538738
 21
232.67067
 31
0.0
  0
CIRCLE
  5
25C
100
AcDbEntity
  8
1
390
0
  6
DOT
 62
     9
100
AcDbCircle
 10
150.538738
 20
231.27067
 30
0.0
 40
2.5
210
0.0
220
0.0
230
1.0
  0
CIRCLE
  5
25D
100
AcDbEntity
  8
1
390
0
  6
DOT
 62
     9
100
AcDbCircle
 10
150.538738
 20
231.27067
 30
0.0
 40
2.3
210
0.0
220
0.0
230
1.0
  0
LINE
  5
25E
100
AcDbEntity
  8
1
390
0
  6
Continuous
 62
     7
100
AcDbLine
 10
168.538738
 20
232.97067
 30
0.0
 11
154.040139
 21
232.97067
 31
0.0
  0
LINE
  5
25F
100
AcDbEntity
  8
1
390
0
  6
Continuous
 62
     7
100
AcDbLine
 10
154.040067
 20
229.57067
 30
0.0
 11
168.538738
 21
229.57067
 31
0.0
  0
LINE
  5
260
100
AcDbEntity
  8
1
390
0
  6
Continuous
 62
     7
100
AcDbLine
 10
173.538738
 20
232.67067
 30
0.0
 11
168.538738
 21
232.67067
 31
0.0
  0
LINE
  5
261
100
AcDbEntity
  8
1
390
0
  6
Continuous
 62
     7
100
AcDbLine
 10
168.538738
 20
229.87067
 30
0.0
 11
173.538738
 21
229.87067
 31
0.0
  0
LINE
  5
262
100
AcDbEntity
  8
1
390
0
  6
Continuous
 62
     7
100
AcDbLine
 10
202.40991
 20
232.52067
 30
0.0
 11
173.538738
 21
232.52067
 31
0.0
  0
LINE
  5
263
100
AcDbEntity
  8
1
390
0
  6
Continuous
 62
     7
100
AcDbLine
 10
173.538738
 20
230.02067
 30
0.0
 11
201.888712
 21
230.02067
 31
0.0
  0
LINE
  5
264
100
AcDbEntity
  8
1
390
0
  6
Continuous
 62
     7
100
AcDbLine
 10
260.000829
 20
228.07067
 30
0.0
 11
260.000829
 21
234.47067
 31
0.0
  0
LINE
  5
265
100
AcDbEntity
  8
1
390
0
  6
Continuous
 62
     7
100
AcDbLine
 10
253.600829
 20
234.47067
 30
0.0
 11
253.600829
 21
232.384223
 31
0.0
  0
LINE
  5
266
100
AcDbEntity
  8
1
390
0
  6
DOT
 62
     9
100
AcDbLine
 10
255.500829
 20
230.157117
 30
0.0
 11
253.600829
 21
230.157117
 31
0.0
  0
LINE
  5
267
100
AcDbEntity
  8
1
390
0
  6
Continuous
 62
     7
100
AcDbLine
 10
253.600829
 20
230.157117
 30
0.0
 11
253.600829
 21
228.07067
 31
0.0
  0
LINE
  5
268
100
AcDbEntity
  8
1
390
0
  6
Continuous
 62
     7
100
AcDbLine
 10
255.500829
 20
230.157117
 30
0.0
 11
253.600829
 21
230.157117
 31
0.0
  0
LINE
  5
269
100
AcDbEntity
  8
1
390
0
  6
Continuous
 62
     7
100
AcDbLine
 10
255.500829
 20
232.384223
 30
0.0
 11
253.600829
 21
232.384223
 31
0.0
  0
LINE
  5
26A
100
AcDbEntity
  8
1
390
0
  6
Continuous
 62
     7
100
AcDbLine
 10
255.500829
 20
232.384223
 30
0.0
 11
255.500829
 21
230.157117
 31
0.0
  0
LINE
  5
26B
100
AcDbEntity
  8
1
390
0
  6
Continuous
 62
     7
100
AcDbLine
 10
263.170773
 20
234.44567
 30
0.0
 11
263.170773
 21
228.09567
 31
0.0
  0
LINE
  5
26C
100
AcDbEntity
  8
1
390
0
  6
Continuous
 62
     7
100
AcDbLine
 10
263.070773
 20
228.19567
 30
0.0
 11
263.070773
 21
231.27067
 31
0.0
  0
LINE
  5
26D
100
AcDbEntity
  8
1
390
0
  6
Continuous
 62
     7
100
AcDbLine
 10
263.070773
 20
231.27067
 30
0.0
 11
263.070773
 21
234.34567
 31
0.0
  0
LINE
  5
26E
100
AcDbEntity
  8
1
390
0
  6
Continuous
 62
     7
100
AcDbLine
 10
265.470773
 20
228.09567
 30
0.0
 11
265.470773
 21
234.44567
 31
0.0
  0
LINE
  5
26F
100
AcDbEntity
  8
1
390
0
  6
Continuous
 62
     7
100
AcDbLine
 10
265.570773
 20
234.34567
 30
0.0
 11
265.570773
 21
228.19567
 31
0.0
  0
LINE
  5
270
100
AcDbEntity
  8
1
390
0
  6
Continuous
 62
     7
100
AcDbLine
 10
268.170773
 20
234.44567
 30
0.0
 11
268.170773
 21
228.09567
 31
0.0
  0
LINE
  5
271
100
AcDbEntity
  8
1
390
0
  6
Continuous
 62
     7
100
AcDbLine
 10
270.470773
 20
228.09567
 30
0.0
 11
270.470773
 21
234.44567
 31
0.0
  0
LINE
  5
272
100
AcDbEntity
  8
1
390
0
  6
Continuous
 62
     7
100
AcDbLine
 10
270.570773
 20
234.34567
 30
0.0
 11
270.570773
 21
228.19567
 31
0.0
  0
LINE
  5
273
100
AcDbEntity
  8
1
390
0
  6
Continuous
 62
     7
100
AcDbLine
 10
268.070773
 20
228.19567
 30
0.0
 11
268.070773
 21
231.27067
 31
0.0
  0
LINE
  5
274
100
AcDbEntity
  8
1
390
0
  6
Continuous
 62
     7
100
AcDbLine
 10
268.070773
 20
231.27067
 30
0.0
 11
268.070773
 21
234.34567
 31
0.0
  0
LINE
  5
275
100
AcDbEntity
  8
1
390
0
  6
Continuous
 62
     7
100
AcDbLine
 10
253.500829
 20
228.17067
 30
0.0
 11
253.500829
 21
230.489645
 31
0.0
  0
LINE
  5
276
100
AcDbEntity
  8
1
390
0
  6
Continuous
 62
     7
100
AcDbLine
 10
240.500829
 20
228.17067
 30
0.0
 11
240.500829
 21
231.27067
 31
0.0
  0
LINE
  5
277
100
AcDbEntity
  8
1
390
0
  6
Continuous
 62
     7
100
AcDbLine
 10
253.500829
 20
232.051695
 30
0.0
 11
253.500829
 21
234.37067
 31
0.0
  0
LINE
  5
278
100
AcDbEntity
  8
1
390
0
  6
Continuous
 62
     7
100
AcDbLine
 10
240.500829
 20
231.27067
 30
0.0
 11
240.500829
 21
234.37067
 31
0.0
  0
LINE
  5
279
100
AcDbEntity
  8
1
390
0
  6
Continuous
 62
     7
100
AcDbLine
 10
253.500829
 20
230.489645
 30
0.0
 11
253.500829
 21
232.051695
 31
0.0
  0
LINE
  5
27A
100
AcDbEntity
  8
1
390
0
  6
Continuous
 62
     7
100
AcDbLine
 10
239.000829
 20
228.615573
 30
0.0
 11
239.000829
 21
231.27067
 31
0.0
  0
LINE
  5
27B
100
AcDbEntity
  8
1
390
0
  6
Continuous
 62
     7
100
AcDbLine
 10
239.000829
 20
231.27067
 30
0.0
 11
239.000829
 21
233.925767
 31
0.0
  0
POLYLINE
  5
27C
100
AcDbEntity
  8
1
390
0
  6
Continuous
 62
     7
100
AcDb2dPolyline
 66
     1
 10
0.0
 20
0.0
 30
0.0
 40
3.0
 41
3.0
  0
VERTEX
  5
27D
100
AcDbEntity
  8
1
390
0
 62
     7
100
AcDbVertex
100
AcDb2dVertex
 10
253.500829
 20
230.489645
 30
0.0
  0
VERTEX
  5
27E
100
AcDbEntity
  8
1
390
0
 62
     7
100
AcDbVertex
100
AcDb2dVertex
 10
253.547117
 20
230.322446
 30
0.0
  0
VERTEX
  5
27F
100
AcDbEntity
  8
1
390
0
 62
     7
100
AcDbVertex
100
AcDb2dVertex
 10
253.600829
 20
230.157117
 30
0.0
  0
SEQEND
  5
280
100
AcDbEntity
  8
0
390
0
  0
POLYLINE
  5
281
100
AcDbEntity
  8
1
390
0
  6
Continuous
 62
     7
100
AcDb2dPolyline
 66
     1
 10
0.0
 20
0.0
 30
0.0
 40
3.0
 41
3.0
  0
VERTEX
  5
282
100
AcDbEntity
  8
1
390
0
 62
     7
100
AcDbVertex
100
AcDb2dVertex
 10
253.600829
 20
232.384223
 30
0.0
  0
VERTEX
  5
283
100
AcDbEntity
  8
1
390
0
 62
     7
100
AcDbVertex
100
AcDb2dVertex
 10
253.579574
 20
232.321584
 30
0.0
  0
VERTEX
  5
284
100
AcDbEntity
  8
1
390
0
 62
     7
100
AcDbVertex
100
AcDb2dVertex
 10
253.537781
 20
232.18744
 30
0.0
  0
VERTEX
  5
285
100
AcDbEntity
  8
1
390
0
 62
     7
100
AcDbVertex
100
AcDb2dVertex
 10
253.500829
 20
232.051695
 30
0.0
  0
SEQEND
  5
286
100
AcDbEntity
  8
0
390
0
  0
POLYLINE
  5
287
100
AcDbEntity
  8
1
390
0
  6
DOT
 62
     9
100
AcDb2dPolyline
 66
     1
 10
0.0
 20
0.0
 30
0.0
 40
3.0
 41
3.0
  0
VERTEX
  5
288
100
AcDbEntity
  8
1
390
0
 62
     9
100
AcDbVertex
100
AcDb2dVertex
 10
253.500829
 20
232.051695
 30
0.0
  0
VERTEX
  5
289
100
AcDbEntity
  8
1
390
0
 62
     9
100
AcDbVertex
100
AcDb2dVertex
 10
253.547117
 20
232.218894
 30
0.0
  0
VERTEX
  5
28A
100
AcDbEntity
  8
1
390
0
 62
     9
100
AcDbVertex
100
AcDb2dVertex
 10
253.600829
 20
232.384223
 30
0.0
  0
SEQEND
  5
28B
100
AcDbEntity
  8
0
390
0
  0
POLYLINE
  5
28C
100
AcDbEntity
  8
1
390
0
  6
DOT
 62
     9
100
AcDb2dPolyline
 66
     1
 10
0.0
 20
0.0
 30
0.0
 40
3.0
 41
3.0
  0
VERTEX
  5
28D
100
AcDbEntity
  8
1
390
0
 62
     9
100
AcDbVertex
100
AcDb2dVertex
 10
253.600829
 20
230.157117
 30
0.0
  0
VERTEX
  5
28E
100
AcDbEntity
  8
1
390
0
 62
     9
100
AcDbVertex
100
AcDb2dVertex
 10
253.547215
 20
230.322123
 30
0.0
  0
VERTEX
  5
28F
100
AcDbEntity
  8
1
390
0
 62
     9
100
AcDbVertex
100
AcDb2dVertex
 10
253.500829
 20
230.489645
 30
0.0
  0
SEQEND
  5
290
100
AcDbEntity
  8
0
390
0
  0
LINE
  5
291
100
AcDbEntity
  8
1
390
0
  6
Continuous
 62
     7
100
AcDbLine
 10
273.570773
 20
228.37067
 30
0.0
 11
273.570773
 21
231.27067
 31
0.0
  0
LINE
  5
292
100
AcDbEntity
  8
1
390
0
  6
Continuous
 62
     7
100
AcDbLine
 10
273.570773
 20
231.27067
 30
0.0
 11
273.570773
 21
234.17067
 31
0.0
  0
LINE
  5
293
100
AcDbEntity
  8
1
390
0
  6
Continuous
 62
     7
100
AcDbLine
 10
262.170773
 20
229.634363
 30
0.0
 11
260.570773
 21
229.634363
 31
0.0
  0
LINE
  5
294
100
AcDbEntity
  8
1
390
0
  6
Continuous
 62
     7
100
AcDbLine
 10
262.170773
 20
232.906977
 30
0.0
 11
260.570773
 21
232.906977
 31
0.0
  0
LINE
  5
295
100
AcDbEntity
  8
1
390
0
  6
Continuous
 62
     7
100
AcDbLine
 10
260.570773
 20
232.906977
 30
0.0
 11
260.570773
 21
229.634363
 31
0.0
  0
LINE
  5
296
100
AcDbEntity
  8
1
390
0
  6
Continuous
 62
     7
100
AcDbLine
 10
262.170773
 20
229.634363
 30
0.0
 11
262.170773
 21
232.906977
 31
0.0
  0
LINE
  5
297
100
AcDbEntity
  8
1
390
0
  6
Continuous
 62
     7
100
AcDbLine
 10
262.170773
 20
228.07067
 30
0.0
 11
262.170773
 21
229.634363
 31
0.0
  0
LINE
  5
298
100
AcDbEntity
  8
1
390
0
  6
Continuous
 62
     7
100
AcDbLine
 10
260.570773
 20
228.07067
 30
0.0
 11
260.570773
 21
229.634363
 31
0.0
  0
LINE
  5
299
100
AcDbEntity
  8
1
390
0
  6
DOT
 62
     9
100
AcDbLine
 10
262.170773
 20
229.634363
 30
0.0
 11
260.570773
 21
229.634363
 31
0.0
  0
LINE
  5
29A
100
AcDbEntity
  8
1
390
0
  6
Continuous
 62
     7
100
AcDbLine
 10
260.570773
 20
232.906977
 30
0.0
 11
260.570773
 21
234.47067
 31
0.0
  0
LINE
  5
29B
100
AcDbEntity
  8
1
390
0
  6
Continuous
 62
     7
100
AcDbLine
 10
262.170773
 20
232.906977
 30
0.0
 11
262.170773
 21
234.47067
 31
0.0
  0
LINE
  5
29C
100
AcDbEntity
  8
1
390
0
  6
Continuous
 62
     7
100
AcDbLine
 10
226.500829
 20
229.27067
 30
0.0
 11
226.500829
 21
231.27067
 31
0.0
  0
LINE
  5
29D
100
AcDbEntity
  8
1
390
0
  6
Continuous
 62
     7
100
AcDbLine
 10
226.500829
 20
231.27067
 30
0.0
 11
226.500829
 21
233.27067
 31
0.0
  0
LINE
  5
29E
100
AcDbEntity
  8
1
390
0
  6
Continuous
 62
     7
100
AcDbLine
 10
281.570773
 20
233.49567
 30
0.0
 11
281.570773
 21
231.27067
 31
0.0
  0
LINE
  5
29F
100
AcDbEntity
  8
1
390
0
  6
Continuous
 62
     7
100
AcDbLine
 10
281.570773
 20
231.27067
 30
0.0
 11
281.570773
 21
229.04567
 31
0.0
  0
LINE
  5
2A0
100
AcDbEntity
  8
1
390
0
  6
Continuous
 62
     7
100
AcDbLine
 10
260.000829
 20
234.47067
 30
0.0
 11
253.600829
 21
234.47067
 31
0.0
  0
LINE
  5
2A1
100
AcDbEntity
  8
1
390
0
  6
Continuous
 62
     7
100
AcDbLine
 10
253.600829
 20
228.07067
 30
0.0
 11
260.000829
 21
228.07067
 31
0.0
  0
LINE
  5
2A2
100
AcDbEntity
  8
1
390
0
  6
Continuous
 62
     7
100
AcDbLine
 10
263.170773
 20
234.44567
 30
0.0
 11
263.070773
 21
234.34567
 31
0.0
  0
LINE
  5
2A3
100
AcDbEntity
  8
1
390
0
  6
Continuous
 62
     7
100
AcDbLine
 10
263.070773
 20
228.19567
 30
0.0
 11
263.170773
 21
228.09567
 31
0.0
  0
LINE
  5
2A4
100
AcDbEntity
  8
1
390
0
  6
Continuous
 62
     7
100
AcDbLine
 10
265.470773
 20
228.09567
 30
0.0
 11
265.570773
 21
228.19567
 31
0.0
  0
LINE
  5
2A5
100
AcDbEntity
  8
1
390
0
  6
Continuous
 62
     7
100
AcDbLine
 10
265.570773
 20
234.34567
 30
0.0
 11
265.470773
 21
234.44567
 31
0.0
  0
LINE
  5
2A6
100
AcDbEntity
  8
1
390
0
  6
Continuous
 62
     7
100
AcDbLine
 10
263.170773
 20
228.09567
 30
0.0
 11
265.470773
 21
228.09567
 31
0.0
  0
LINE
  5
2A7
100
AcDbEntity
  8
1
390
0
  6
Continuous
 62
     7
100
AcDbLine
 10
265.470773
 20
234.44567
 30
0.0
 11
263.170773
 21
234.44567
 31
0.0
  0
LINE
  5
2A8
100
AcDbEntity
  8
1
390
0
  6
Continuous
 62
     7
100
AcDbLine
 10
268.170773
 20
228.09567
 30
0.0
 11
270.470773
 21
228.09567
 31
0.0
  0
LINE
  5
2A9
100
AcDbEntity
  8
1
390
0
  6
Continuous
 62
     7
100
AcDbLine
 10
270.470773
 20
234.44567
 30
0.0
 11
268.170773
 21
234.44567
 31
0.0
  0
LINE
  5
2AA
100
AcDbEntity
  8
1
390
0
  6
Continuous
 62
     7
100
AcDbLine
 10
270.470773
 20
228.09567
 30
0.0
 11
270.570773
 21
228.19567
 31
0.0
  0
LINE
  5
2AB
100
AcDbEntity
  8
1
390
0
  6
Continuous
 62
     7
100
AcDbLine
 10
270.570773
 20
234.34567
 30
0.0
 11
270.470773
 21
234.44567
 31
0.0
  0
LINE
  5
2AC
100
AcDbEntity
  8
1
390
0
  6
Continuous
 62
     7
100
AcDbLine
 10
268.170773
 20
234.44567
 30
0.0
 11
268.070773
 21
234.34567
 31
0.0
  0
LINE
  5
2AD
100
AcDbEntity
  8
1
390
0
  6
Continuous
 62
     7
100
AcDbLine
 10
268.070773
 20
228.19567
 30
0.0
 11
268.170773
 21
228.09567
 31
0.0
  0
LINE
  5
2AE
100
AcDbEntity
  8
1
390
0
  6
Continuous
 62
     7
100
AcDbLine
 10
240.500829
 20
228.17067
 30
0.0
 11
253.500829
 21
228.17067
 31
0.0
  0
LINE
  5
2AF
100
AcDbEntity
  8
1
390
0
  6
Continuous
 62
     7
100
AcDbLine
 10
253.500829
 20
234.37067
 30
0.0
 11
240.500829
 21
234.37067
 31
0.0
  0
LINE
  5
2B0
100
AcDbEntity
  8
1
390
0
  6
Continuous
 62
     7
100
AcDbLine
 10
240.500829
 20
234.37067
 30
0.0
 11
239.000829
 21
233.925767
 31
0.0
  0
LINE
  5
2B1
100
AcDbEntity
  8
1
390
0
  6
Continuous
 62
     7
100
AcDbLine
 10
239.000829
 20
228.615573
 30
0.0
 11
240.500829
 21
228.17067
 31
0.0
  0
LINE
  5
2B2
100
AcDbEntity
  8
1
390
0
  6
Continuous
 62
     7
100
AcDbLine
 10
265.570773
 20
228.27067
 30
0.0
 11
268.070773
 21
228.27067
 31
0.0
  0
LINE
  5
2B3
100
AcDbEntity
  8
1
390
0
  6
Continuous
 62
     7
100
AcDbLine
 10
268.070773
 20
234.27067
 30
0.0
 11
265.570773
 21
234.27067
 31
0.0
  0
LINE
  5
2B4
100
AcDbEntity
  8
1
390
0
  6
Continuous
 62
     7
100
AcDbLine
 10
270.570773
 20
228.27067
 30
0.0
 11
273.470773
 21
228.27067
 31
0.0
  0
LINE
  5
2B5
100
AcDbEntity
  8
1
390
0
  6
Continuous
 62
     7
100
AcDbLine
 10
273.470773
 20
234.27067
 30
0.0
 11
270.570773
 21
234.27067
 31
0.0
  0
LINE
  5
2B6
100
AcDbEntity
  8
1
390
0
  6
Continuous
 62
     7
100
AcDbLine
 10
253.600829
 20
234.47067
 30
0.0
 11
253.500829
 21
234.37067
 31
0.0
  0
LINE
  5
2B7
100
AcDbEntity
  8
1
390
0
  6
Continuous
 62
     7
100
AcDbLine
 10
253.500829
 20
228.17067
 30
0.0
 11
253.600829
 21
228.07067
 31
0.0
  0
ARC
  5
2B8
100
AcDbEntity
  8
1
390
0
  6
Continuous
 62
     7
100
AcDbCircle
 10
273.470773
 20
228.37067
 30
0.0
 40
0.1
210
0.0
220
0.0
230
1.0
100
AcDbArc
 50
270.0
 51
360.0
  0
ARC
  5
2B9
100
AcDbEntity
  8
1
390
0
  6
Continuous
 62
     7
100
AcDbCircle
 10
273.470773
 20
234.17067
 30
0.0
 40
0.1
210
0.0
220
0.0
230
1.0
100
AcDbArc
 50
0.0
 51
90.0
  0
LINE
  5
2BA
100
AcDbEntity
  8
1
390
0
  6
Continuous
 62
     7
100
AcDbLine
 10
260.570773
 20
228.07067
 30
0.0
 11
262.170773
 21
228.07067
 31
0.0
  0
LINE
  5
2BB
100
AcDbEntity
  8
1
390
0
  6
Continuous
 62
     7
100
AcDbLine
 10
262.170773
 20
234.47067
 30
0.0
 11
260.570773
 21
234.47067
 31
0.0
  0
LINE
  5
2BC
100
AcDbEntity
  8
1
390
0
  6
Continuous
 62
     7
100
AcDbLine
 10
262.170773
 20
228.59567
 30
0.0
 11
263.070773
 21
228.59567
 31
0.0
  0
LINE
  5
2BD
100
AcDbEntity
  8
1
390
0
  6
Continuous
 62
     7
100
AcDbLine
 10
263.070773
 20
233.94567
 30
0.0
 11
262.170773
 21
233.94567
 31
0.0
  0
LINE
  5
2BE
100
AcDbEntity
  8
1
390
0
  6
Continuous
 62
     7
100
AcDbLine
 10
239.000829
 20
233.925767
 30
0.0
 11
226.500829
 21
233.27067
 31
0.0
  0
LINE
  5
2BF
100
AcDbEntity
  8
1
390
0
  6
Continuous
 62
     7
100
AcDbLine
 10
226.500829
 20
229.27067
 30
0.0
 11
239.000829
 21
228.615573
 31
0.0
  0
LINE
  5
2C0
100
AcDbEntity
  8
1
390
0
  6
Continuous
 62
     7
100
AcDbLine
 10
260.000829
 20
228.77067
 30
0.0
 11
260.570773
 21
228.77067
 31
0.0
  0
LINE
  5
2C1
100
AcDbEntity
  8
1
390
0
  6
Continuous
 62
     7
100
AcDbLine
 10
260.570773
 20
233.77067
 30
0.0
 11
260.000829
 21
233.77067
 31
0.0
  0
LINE
  5
2C2
100
AcDbEntity
  8
1
390
0
  6
Continuous
 62
     7
100
AcDbLine
 10
273.570773
 20
228.79567
 30
0.0
 11
281.320773
 21
228.79567
 31
0.0
  0
LINE
  5
2C3
100
AcDbEntity
  8
1
390
0
  6
Continuous
 62
     7
100
AcDbLine
 10
281.320773
 20
233.74567
 30
0.0
 11
273.570773
 21
233.74567
 31
0.0
  0
ARC
  5
2C4
100
AcDbEntity
  8
1
390
0
  6
Continuous
 62
     7
100
AcDbCircle
 10
281.320773
 20
233.49567
 30
0.0
 40
0.25
210
0.0
220
0.0
230
1.0
100
AcDbArc
 50
0.0
 51
90.0
  0
ARC
  5
2C5
100
AcDbEntity
  8
1
390
0
  6
Continuous
 62
     7
100
AcDbCircle
 10
281.320773
 20
229.04567
 30
0.0
 40
0.25
210
0.0
220
0.0
230
1.0
100
AcDbArc
 50
270.0
 51
360.0
  0
LINE
  5
2C6
100
AcDbEntity
  8
1
390
0
  6
Continuous
 62
     7
100
AcDbLine
 10
226.500829
 20
232.52067
 30
0.0
 11
207.058247
 21
232.52067
 31
0.0
  0
LINE
  5
2C7
100
AcDbEntity
  8
1
390
0
  6
Continuous
 62
     7
100
AcDbLine
 10
206.483485
 20
230.02067
 30
0.0
 11
226.500829
 21
230.02067
 31
0.0
  0
LINE
  5
2C9
100
AcDbEntity
  8
5
390
0
  6
Continuous
 62
     9
100
AcDbLine
 10
199.282575
 20
228.083153
 30
0.0
 11
202.227692
 21
228.5011
 31
0.0
  0
LINE
  5
2CA
100
AcDbEntity
  8
5
390
0
  6
Continuous
 62
     9
100
AcDbLine
 10
204.282575
 20
228.083153
 30
0.0
 11
207.227692
 21
228.5011
 31
0.0
  0
POINT
  5
2CB
100
AcDbEntity
  8
5
390
0
 62
     9
100
AcDbPoint
 10
202.679224
 20
233.812474
 30
0.0
  0
POINT
  5
2CC
100
AcDbEntity
  8
5
390
0
 62
     9
100
AcDbPoint
 10
201.653912
 20
228.894417
 30
0.0
  0
LINE
  5
2CD
100
AcDbEntity
  8
1
390
0
  6
Continuous
 62
     9
100
AcDbLine
 10
202.679224
 20
233.812474
 30
0.0
 11
201.653912
 21
228.894417
 31
0.0
  0
POINT
  5
2CE
100
AcDbEntity
  8
5
390
0
 62
     9
100
AcDbPoint
 10
207.3699
 20
233.876241
 30
0.0
  0
POINT
  5
2CF
100
AcDbEntity
  8
5
390
0
 62
     9
100
AcDbPoint
 10
206.207474
 20
228.820127
 30
0.0
  0
LINE
  5
2D0
100
AcDbEntity
  8
1
390
0
  6
Continuous
 62
     9
100
AcDbLine
 10
207.3699
 20
233.876241
 30
0.0
 11
206.207474
 21
228.820127
 31
0.0
  0
LINE
  5
2D2
100
AcDbEntity
  8
1
390
0
  6
CENTER
 62
     1
100
AcDbLine
 10
146.538738
 20
231.27067
 30
0.0
 11
282.586871
 21
231.27067
 31
0.0
  0
LINE
  5
2D3
100
AcDbEntity
  8
1
390
0
  6
CENTER
 62
     1
100
AcDbLine
 10
150.538738
 20
227.27067
 30
0.0
 11
150.538738
 21
235.27067
 31
0.0
  0
LINE
  5
2D4
100
AcDbEntity
  8
1
390
0
  6
CENTER
 62
     1
100
AcDbLine
 10
150.538738
 20
70.196446
 30
0.0
 11
150.538738
 21
172.236426
 31
0.0
  0
LINE
  5
2D5
100
AcDbEntity
  8
1
390
0
  6
CENTER
 62
     1
100
AcDbLine
 10
282.586871
 20
73.083177
 30
0.0
 11
152.538738
 21
73.083177
 31
0.0
  0
LINE
  5
2D6
100
AcDbEntity
  8
1
390
0
  6
CENTER
 62
     1
100
AcDbLine
 10
67.405196
 20
172.236426
 30
0.0
 11
67.405196
 21
70.196446
 31
0.0
  0
POINT
  5
2D7
100
AcDbEntity
  8
5
390
0
 62
     9
100
AcDbPoint
 10
282.586871
 20
83.958964
 30
0.0
  0
POINT
  5
2D8
100
AcDbEntity
  8
5
390
0
 62
     9
100
AcDbPoint
 10
153.376748
 20
70.196446
 30
0.0
  0
POINT
  5
2D9
100
AcDbEntity
  8
5
390
0
 62
     9
100
AcDbPoint
 10
156.126954
 20
172.236426
 30
0.0
  0
POINT
  5
2DA
100
AcDbEntity
  8
5
390
0
 62
     9
100
AcDbPoint
 10
153.538738
 20
231.27067
 30
0.0
  0
INSERT
  5
2EC
100
AcDbEntity
  8
1
390
0
100
AcDbBlockReference
  2
AID1043
 10
0.0
 20
0.0
 30
0.0
  0
INSERT
  5
2FF
100
AcDbEntity
  8
1
390
0
100
AcDbBlockReference
  2
AID1056
 10
0.0
 20
0.0
 30
0.0
  0
INSERT
  5
310
100
AcDbEntity
  8
1
390
0
100
AcDbBlockReference
  2
AID1071
 10
0.0
 20
0.0
 30
0.0
  0
INSERT
  5
322
100
AcDbEntity
  8
1
390
0
100
AcDbBlockReference
  2
AID1082
 10
0.0
 20
0.0
 30
0.0
  0
POINT
  5
323
100
AcDbEntity
  8
5
390
0
 62
     9
100
AcDbPoint
 10
153.538738
 20
231.27067
 30
0.0
  0
INSERT
  5
335
100
AcDbEntity
  8
1
390
0
100
AcDbBlockReference
  2
AID1097
 10
0.0
 20
0.0
 30
0.0
  0
INSERT
  5
34A
100
AcDbEntity
  8
1
390
0
100
AcDbBlockReference
  2
AID1110
 10
0.0
 20
0.0
 30
0.0
  0
INSERT
  5
35D
100
AcDbEntity
  8
1
390
0
100
AcDbBlockReference
  2
AID1129
 10
0.0
 20
0.0
 30
0.0
  0
POINT
  5
35E
100
AcDbEntity
  8
1
390
0
 62
     9
100
AcDbPoint
 10
153.538738
 20
71.383177
 30
0.0
  0
INSERT
  5
373
100
AcDbEntity
  8
1
390
0
100
AcDbBlockReference
  2
AID1146
 10
0.0
 20
0.0
 30
0.0
  0
INSERT
  5
387
100
AcDbEntity
  8
1
390
0
100
AcDbBlockReference
  2
AID1165
 10
0.0
 20
0.0
 30
0.0
  0
POINT
  5
388
100
AcDbEntity
  8
1
390
0
 62
     9
100
AcDbPoint
 10
149.788738
 20
111.083177
 30
0.0
  0
INSERT
  5
39A
100
AcDbEntity
  8
1
390
0
100
AcDbBlockReference
  2
AID1184
 10
0.0
 20
0.0
 30
0.0
  0
INSERT
  5
3AE
100
AcDbEntity
  8
1
390
0
100
AcDbBlockReference
  2
AID1197
 10
0.0
 20
0.0
 30
0.0
  0
INSERT
  5
3B3
100
AcDbEntity
  8
1
390
0
100
AcDbBlockReference
  2
AID1214
 10
0.0
 20
0.0
 30
0.0
  0
INSERT
  5
3B8
100
AcDbEntity
  8
1
390
0
100
AcDbBlockReference
  2
AID1217
 10
0.0
 20
0.0
 30
0.0
  0
INSERT
  5
3BD
100
AcDbEntity
  8
1
390
0
100
AcDbBlockReference
  2
AID1220
 10
0.0
 20
0.0
 30
0.0
  0
ENDSEC
  0
SECTION
  2
OBJECTS
  0
DICTIONARY
  5
19
100
AcDbDictionary
280
     0
281
     1
  3
ACAD_GROUP
350
1A
  3
ACAD_MLINESTYLE
350
1B
  3
ACAD_LAYOUT
350
1E
  3
ACAD_PLOTSETTINGS
350
22
  3
ACAD_PLOTSTYLENAME
350
1F
  3
ACAD_WIPEOUT_VARS
350
23
  0
DICTIONARY
  5
1A
102
{ACAD_REACTORS
330
19
102
}
100
AcDbDictionary
280
     0
281
     1
  0
DICTIONARY
  5
1B
102
{ACAD_REACTORS
330
19
102
}
100
AcDbDictionary
280
     0
281
     1
  3
Standard
350
1C
  0
MLINESTYLE
  5
1C
102
{ACAD_REACTORS
330
1B
102
}
100
AcDbMlineStyle
  2
Standard
 70
     0
  3

 62
     0
 51
90.0
 52
90.0
 71
     2
 49
0.5
 62
   256
  6
ByLayer
 49
-0.5
 62
   256
  6
ByLayer
  0
ACDBDICTIONARYWDFLT
  5
1F
102
{ACAD_REACTORS
330
19
102
}
100
AcDbDictionary
281
     1
  3
Normal
350
1D
100
AcDbDictionaryWithDefault
340
1D
  0
ACDBPLACEHOLDER
  5
1D
102
{ACAD_REACTORS
330
1F
102
}
  0
LAYOUT
  5
20
102
{ACAD_REACTORS
330
1E
102
}
100
AcDbPlotSettings
  1

  2

  4

  6

 40
0.0
 41
0.0
 42
0.0
 43
0.0
 44
0.0
 45
0.0
 46
0.0
 47
0.0
 48
0.0
 49
0.0
140
0.0
141
0.0
142
1.0
143
1.0
 70
  1024
 72
     0
 73
     0
 74
     0
  7

 75
     0
147
1.0
148
0.0
149
0.0
100
AcDbLayout
  1
Model
 70
     0
 71
     0
 10
0.0
 20
0.0
 11
0.0
 21
0.0
 12
0.0
 22
0.0
 32
0.0
 14
0.0
 24
0.0
 34
0.0
 15
0.0
 25
0.0
 35
0.0
146
0.0
 13
0.0
 23
0.0
 33
0.0
 16
0.0
 26
0.0
 36
0.0
 17
0.0
 27
0.0
 37
0.0
 76
     0
330
A
331
0
345
0
346
0
  0
LAYOUT
  5
21
102
{ACAD_REACTORS
330
1E
102
}
100
AcDbPlotSettings
  1

  2

  4

  6

 40
0.0
 41
0.0
 42
0.0
 43
0.0
 44
0.0
 45
0.0
 46
0.0
 47
0.0
 48
0.0
 49
0.0
140
0.0
141
0.0
142
1.0
143
1.0
 70
     0
 72
     0
 73
     0
 74
     0
  7

 75
     0
147
1.0
148
0.0
149
0.0
100
AcDbLayout
  1
Layout1
 70
     0
 71
     0
 10
0.0
 20
0.0
 11
0.0
 21
0.0
 12
0.0
 22
0.0
 32
0.0
 14
0.0
 24
0.0
 34
0.0
 15
0.0
 25
0.0
 35
0.0
146
0.0
 13
0.0
 23
0.0
 33
0.0
 16
0.0
 26
0.0
 36
0.0
 17
0.0
 27
0.0
 37
0.0
 76
     0
330
B
331
0
345
0
346
0
  0
DICTIONARY
  5
1E
102
{ACAD_REACTORS
330
19
102
}
100
AcDbDictionary
280
     0
281
     1
  3
Layout1
350
21
  3
Model
350
20
  0
DICTIONARY
  5
22
102
{ACAD_REACTORS
330
19
102
}
100
AcDbDictionary
280
     0
281
     1
  0
WIPEOUTVARIABLES
  5
23
100
AcDbWipeoutVariables
 70
     1
  0
ENDSEC
  0
EOF
