  0
SECTION
  2
HEADER
  9
$ACADVER
  1
AC1015
  9
$ACADMAINTVER
 70
     6
  9
$DWGCODEPAGE
  3
DOS932
  9
$INSBASE
 10
0.0
 20
0.0
 30
0.0
  9
$EXTMIN
 10
0.0
 20
0.0
 30
0.0
  9
$EXTMAX
 10
410.0
 20
287.0
 30
10.0
  9
$LIMMIN
 10
0.0
 20
0.0
  9
$LIMMAX
 10
410.0
 20
287.0
  9
$ORTHOMODE
 70
     0
  9
$REGENMODE
 70
     1
  9
$FILLMODE
 70
     1
  9
$QTEXTMODE
 70
     0
  9
$MIRRTEXT
 70
     1
  9
$LTSCALE
 40
10.0
  9
$ATTMODE
 70
     1
  9
$TEXTSIZE
 40
0.2
  9
$TRACEWID
 40
0.05
  9
$TEXTSTYLE
  7
Standard
  9
$CLAYER
  8
0
  9
$CELTYPE
  6
Continuous
  9
$CECOLOR
 62
   256
  9
$CELTSCALE
 40
1.0
  9
$DISPSILH
 70
     0
  9
$DIMSCALE
 40
1.0
  9
$DIMASZ
 40
3.2
  9
$DIMEXO
 40
3.2
  9
$DIMDLI
 40
0.38
  9
$DIMRND
 40
0.0
  9
$DIMDLE
 40
0.0
  9
$DIMEXE
 40
2.4
  9
$DIMTP
 40
0.0
  9
$DIMTM
 40
0.0
  9
$DIMTXT
 40
8.0
  9
$DIMCEN
 40
0.09
  9
$DIMTSZ
 40
0.0
  9
$DIMTOL
 70
     0
  9
$DIMLIM
 70
     0
  9
$DIMTIH
 70
     0
  9
$DIMTOH
 70
     0
  9
$DIMSE1
 70
     0
  9
$DIMSE2
 70
     0
  9
$DIMTAD
 70
     1
  9
$DIMZIN
 70
     0
  9
$DIMBLK
  1

  9
$DIMASO
 70
     1
  9
$DIMSHO
 70
     1
  9
$DIMPOST
  1

  9
$DIMAPOST
  1

  9
$DIMALT
 70
     0
  9
$DIMALTD
 70
     2
  9
$DIMALTF
 40
25.4
  9
$DIMLFAC
 40
1.0
  9
$DIMTOFL
 70
     0
  9
$DIMTVP
 40
0.0
  9
$DIMTIX
 70
     0
  9
$DIMSOXD
 70
     0
  9
$DIMSAH
 70
     0
  9
$DIMBLK1
  1

  9
$DIMBLK2
  1

  9
$DIMSTYLE
  2
Standard
  9
$DIMCLRD
 70
     7
  9
$DIMCLRE
 70
     7
  9
$DIMCLRT
 70
     7
  9
$DIMTFAC
 40
0.6
  9
$DIMGAP
 40
4.0
  9
$DIMJUST
 70
     0
  9
$DIMSD1
 70
     0
  9
$DIMSD2
 70
     0
  9
$DIMTOLJ
 70
     1
  9
$DIMTZIN
 70
     0
  9
$DIMALTZ
 70
     0
  9
$DIMALTTZ
 70
     0
  9
$DIMUPT
 70
     0
  9
$DIMDEC
 70
     6
  9
$DIMTDEC
 70
     4
  9
$DIMALTU
 70
     2
  9
$DIMALTTD
 70
     2
  9
$DIMTXSTY
  7
Standard
  9
$DIMAUNIT
 70
     0
  9
$DIMADEC
 70
     0
  9
$DIMALTRND
 40
0.0
  9
$DIMAZIN
 70
     0
  9
$DIMDSEP
 70
     0
  9
$DIMATFIT
 70
     3
  9
$DIMFRAC
 70
     0
  9
$DIMLDRBLK
  1

  9
$DIMLUNIT
 70
     2
  9
$DIMLWD
 70
     0
  9
$DIMLWE
 70
     0
  9
$DIMTMOVE
 70
     0
  9
$LUNITS
 70
     2
  9
$LUPREC
 70
     4
  9
$SKETCHINC
 40
0.1
  9
$FILLETRAD
 40
0.0
  9
$AUNITS
 70
     0
  9
$AUPREC
 70
     0
  9
$MENU
  1
acad
  9
$ELEVATION
 40
0.0
  9
$PELEVATION
 40
0.0
  9
$THICKNESS
 40
0.0
  9
$LIMCHECK
 70
     0
  9
$CHAMFERA
 40
0.0
  9
$CHAMFERB
 40
0.0
  9
$CHAMFERC
 40
0.0
  9
$CHAMFERD
 40
0.0
  9
$SKPOLY
 70
     0
  9
$TDCREATE
 40
2458421.493703704
  9
$TDUCREATE
 40
0.000000000
  9
$TDUPDATE
 40
2458421.118645833
  9
$TDUUPDATE
 40
0.000000000
  9
$TDINDWG
 40
0.0000000000
  9
$TDUSRTIMER
 40
0.0000000000
  9
$USRTIMER
 70
     1
  9
$ANGBASE
 50
0.0
  9
$ANGDIR
 70
     0
  9
$PDMODE
 70
     0
  9
$PDSIZE
 40
0.0
  9
$PLINEWID
 40
0.0
  9
$SPLFRAME
 70
     0
  9
$SPLINETYPE
 70
     6
  9
$SPLINESEGS
 70
     8
  9
$HANDSEED
  5
3BA
  9
$SURFTAB1
 70
     6
  9
$SURFTAB2
 70
     6
  9
$SURFTYPE
 70
     6
  9
$SURFU
 70
     6
  9
$SURFV
 70
     6
  9
$UCSBASE
  2

  9
$UCSNAME
  2

  9
$UCSORG
 10
0.0
 20
0.0
 30
0.0
  9
$UCSXDIR
 10
1.0
 20
0.0
 30
0.0
  9
$UCSYDIR
 10
0.0
 20
1.0
 30
0.0
  9
$UCSORTHOREF
  2

  9
$UCSORTHOVIEW
 70
     0
  9
$UCSORGTOP
 10
0.0
 20
0.0
 30
0.0
  9
$UCSORGBOTTOM
 10
0.0
 20
0.0
 30
0.0
  9
$UCSORGLEFT
 10
0.0
 20
0.0
 30
0.0
  9
$UCSORGRIGHT
 10
0.0
 20
0.0
 30
0.0
  9
$UCSORGFRONT
 10
0.0
 20
0.0
 30
0.0
  9
$UCSORGBACK
 10
0.0
 20
0.0
 30
0.0
  9
$PUCSBASE
  2

  9
$PUCSNAME
  2

  9
$PUCSORG
 10
0.0
 20
0.0
 30
0.0
  9
$PUCSXDIR
 10
1.0
 20
0.0
 30
0.0
  9
$PUCSYDIR
 10
0.0
 20
1.0
 30
0.0
  9
$PUCSORTHOREF
  2

  9
$PUCSORTHOVIEW
 70
     0
  9
$PUCSORGTOP
 10
0.0
 20
0.0
 30
0.0
  9
$PUCSORGBOTTOM
 10
0.0
 20
0.0
 30
0.0
  9
$PUCSORGLEFT
 10
0.0
 20
0.0
 30
0.0
  9
$PUCSORGRIGHT
 10
0.0
 20
0.0
 30
0.0
  9
$PUCSORGFRONT
 10
0.0
 20
0.0
 30
0.0
  9
$PUCSORGBACK
 10
0.0
 20
0.0
 30
0.0
  9
$USERI1
 70
     0
  9
$USERI2
 70
     0
  9
$USERI3
 70
     0
  9
$USERI4
 70
     0
  9
$USERI5
 70
     0
  9
$USERR1
 40
0.0
  9
$USERR2
 40
0.0
  9
$USERR3
 40
0.0
  9
$USERR4
 40
0.0
  9
$USERR5
 40
0.0
  9
$WORLDVIEW
 70
     1
  9
$SHADEDGE
 70
     3
  9
$SHADEDIF
 70
    70
  9
$TILEMODE
 70
     1
  9
$MAXACTVP
 70
    16
  9
$PINSBASE
 10
0.0
 20
0.0
 30
0.0
  9
$PLIMCHECK
 70
     0
  9
$PEXTMIN
 10
1.000000E+20
 20
1.000000E+20
 30
1.000000E+20
  9
$PEXTMAX
 10
-1.000000E+20
 20
-1.000000E+20
 30
-1.000000E+20
  9
$PLIMMIN
 10
0.0
 20
0.0
  9
$PLIMMAX
 10
12.0
 20
9.0
  9
$UNITMODE
 70
     0
  9
$VISRETAIN
 70
     0
  9
$PLINEGEN
 70
     1
  9
$PSLTSCALE
 70
     0
  9
$TREEDEPTH
 70
  3020
  9
$CMLSTYLE
  2
Standard
  9
$CMLJUST
 70
     0
  9
$CMLSCALE
 40
1.0
  9
$PROXYGRAPHICS
 70
     0
  9
$MEASUREMENT
 70
     0
  9
$CELWEIGHT
370
     0
  9
$ENDCAPS
280
     0
  9
$JOINSTYLE
280
     0
  9
$LWDISPLAY
290
     0
  9
$INSUNITS
 70
     0
  9
$HYPERLINKBASE
  1

  9
$STYLESHEET
  1

  9
$XEDIT
290
     1
  9
$CEPSNTYPE
380
     0
  9
$PSTYLEMODE
290
     1
  9
$FINGERPRINTGUID
  2

  9
$VERSIONGUID
  2

  9
$EXTNAMES
290
     1
  9
$PSVPSCALE
 40
0.0
  0
ENDSEC
  0
SECTION
  2
CLASSES
  0
CLASS
  1
LWPOLYLINE
  2
AcDbPolyline
  3
AutoCAD 2000
 90
        0
280
     0
281
     1
  0
CLASS
  1
IMAGE
  2
AcDbRasterImage
  3
ISM
 90
      127
280
     0
281
     1
  0
CLASS
  1
OLE2FRAME
  2
AcDbOle2Frame
  3
AutoCAD 2000
 90
        0
280
     0
281
     1
  0
CLASS
  1
HATCH
  2
AcDbHatch
  3
AutoCAD 2000
 90
        0
280
     0
281
     1
  0
CLASS
  1
DICTIONARYVAR
  2
AcDbDictionaryVar
  3
AutoCAD 2000
 90
        0
280
     0
281
     0
  0
CLASS
  1
RASTERVARIABLES
  2
AcDbRasterVariables
  3
ISM
 90
        0
280
     0
281
     0
  0
CLASS
  1
IMAGEDEF
  2
AcDbRasterImageDef
  3
ISM
 90
        0
280
     0
281
     0
  0
CLASS
  1
IMAGEDEF_REACTOR
  2
AcDbRasterImageDefReactor
  3
ISM
 90
        1
280
     0
281
     0
  0
CLASS
  1
IDBUFFER
  2
AcDbIdBuffer
  3
AutoCAD 2000
 90
        0
280
     0
281
     0
  0
CLASS
  1
SPATIAL_FILTER
  2
AcDbSpatialFilter
  3
AutoCAD 2000
 90
        0
280
     0
281
     0
  0
CLASS
  1
XRECORD
  2
AcDbXrecord
  3
AutoCAD 2000
 90
        0
280
     0
281
     0
  0
CLASS
  1
SORTENTSTABLE
  2
AcDbSortentsTable
  3
AutoCAD 2000
 90
        0
280
     0
281
     0
  0
CLASS
  1
LAYER_INDEX
  2
AcDbLayerIndex
  3
AutoCAD 2000
 90
        0
280
     0
281
     0
  0
CLASS
  1
SPATIAL_INDEX
  2
AcDbSpatialIndex
  3
AutoCAD 2000
 90
        0
280
     0
281
     0
  0
CLASS
  1
OBJECT_PTR
  2
CAseDLPNTableRecord
  3
"ASE-LPNTableRecord"
 90
        1
280
     0
281
     0
  0
CLASS
  1
LAYOUT
  2
AcDbLayout
  3
AutoCAD 2000
 90
        0
280
     0
281
     0
  0
CLASS
  1
PLOTSETTINGS
  2
AcDbPlotSettings
  3
AutoCAD 2000
 90
        0
280
     0
281
     0
  0
CLASS
  1
ACDBDICTIONARYWDFLT
  2
AcDbDictionaryWithDefault
  3
AutoCAD 2000
 90
        0
280
     0
281
     0
  0
CLASS
  1
ACDBPLACEHOLDER
  2
AcDbPlaceHolder
  3
AutoCAD 2000
 90
        0
280
     0
281
     0
  0
CLASS
  1
VBA_PROJECT
  2
AcDbVbaProject
  3
acadvba
 90
        0
280
     0
281
     0
  0
CLASS
  1
WIPEOUT
  2
AcDbWipeout
  3
WipeOut|AutoCAD Express Tool|expresstools@autodesk.com
 90
      127
280
     0
281
     1
  0
CLASS
  1
WIPEOUTVARIABLES
  2
AcDbWipeoutVariables
  3
WipeOut|AutoCAD Express Tool|expresstools@autodesk.com
 90
        0
280
     0
281
     0
  0
CLASS
  1
RTEXT
  2
RText
  3
RText|AutoCAD Express Tool|expresstools@autodesk.com
 90
        0
280
     0
281
     1
  0
CLASS
  1
ARCALIGNEDTEXT
  2
AcDbArcAlignedText
  3
ATEXT|AutoCAD Express Tool|expresstools@autodesk.com
 90
        0
280
     0
281
     1
  0
ENDSEC
  0
SECTION
  2
TABLES
  0
TABLE
  2
VPORT
  5
7
100
AcDbSymbolTable
 70
     1
  0
VPORT
  5
15
100
AcDbSymbolTableRecord
100
AcDbViewportTableRecord
  2
*ACTIVE
 70
     0
 10
0.0
 20
0.0
 11
1.0
 21
1.0
 12
6.591288
 22
4.579184
 13
0.0
 23
0.0
 14
1.0
 24
1.0
 15
0.0
 25
0.0
 16
0.0
 26
0.0
 36
1.0
 17
0.0
 27
0.0
 37
0.0
 40
9.158369
 41
0.688564
 42
50.0
 43
0.0
 44
0.0
 50
0.0
 51
0.0
 71
     0
 72
   100
 73
     1
 74
     1
 75
     0
 76
     0
 77
     0
 78
     0
281
     0
 65
     0
110
0.0
120
0.0
130
0.0
111
1.0
121
0.0
131
0.0
112
0.0
122
1.0
132
0.0
345
0
346
0
 79
     0
146
0.0
  0
ENDTAB
  0
TABLE
  2
LTYPE
  5
4
100
AcDbSymbolTable
 70
     5
  0
LTYPE
  5
11
100
AcDbSymbolTableRecord
100
AcDbLinetypeTableRecord
  2
ByBlock
 70
    64
  3

 72
    65
 73
     0
 40
0.0
  0
LTYPE
  5
12
100
AcDbSymbolTableRecord
100
AcDbLinetypeTableRecord
  2
ByLayer
 70
    64
  3

 72
    65
 73
     0
 40
0.0
  0
LTYPE
  5
13
100
AcDbSymbolTableRecord
100
AcDbLinetypeTableRecord
  2
Continuous
 70
    64
  3
Solid line
 72
    65
 73
     0
 40
0.0
  0
LTYPE
  5
BA
100
AcDbSymbolTableRecord
100
AcDbLinetypeTableRecord
  2
DOT
 70
    64
  3
..............................................
 72
    65
 73
     2
 40
0.5
 49
0.25
 74
     0
 49
-0.25
 74
     0
  0
LTYPE
  5
2CE
100
AcDbSymbolTableRecord
100
AcDbLinetypeTableRecord
  2
CENTER
 70
    64
  3
____ _ ____ _ ____ _ ____ _ ____ _ ____ _ ____
 72
    65
 73
     4
 40
2.0
 49
1.25
 74
     0
 49
-0.25
 74
     0
 49
0.25
 74
     0
 49
-0.25
 74
     0
  0
ENDTAB
  0
TABLE
  2
LAYER
  5
2
100
AcDbSymbolTable
 70
     4
  0
LAYER
  5
14
100
AcDbSymbolTableRecord
100
AcDbLayerTableRecord
  2
0
 70
     0
 62
     7
  6
Continuous
290
     1
370
    -3
390
1D
  0
LAYER
  5
27
100
AcDbSymbolTableRecord
100
AcDbLayerTableRecord
  2
256
 70
     0
 62
     7
  6
Continuous
290
     1
370
    -3
390
1D
  0
LAYER
  5
B8
100
AcDbSymbolTableRecord
100
AcDbLayerTableRecord
  2
1
 70
     0
 62
     7
  6
Continuous
290
     1
370
    -3
390
1D
  0
LAYER
  5
2C5
100
AcDbSymbolTableRecord
100
AcDbLayerTableRecord
  2
5
 70
     0
 62
     7
  6
Continuous
290
     1
370
    -3
390
1D
  0
ENDTAB
  0
TABLE
  2
STYLE
  5
3
100
AcDbSymbolTable
 70
     1
  0
STYLE
  5
17
100
AcDbSymbolTableRecord
100
AcDbTextStyleTableRecord
  2
Standard
 70
     0
 40
0.0
 41
1.0
 50
0.0
 71
     0
 42
0.0
  3
ＭＳ Ｐゴシック
  4

1001
ACAD
1000
ＭＳ Ｐゴシック
1071
        0
  0
ENDTAB
  0
TABLE
  2
VIEW
  5
5
100
AcDbSymbolTable
 70
     0
  0
ENDTAB
  0
TABLE
  2
UCS
  5
6
100
AcDbSymbolTable
 70
     0
  0
ENDTAB
  0
TABLE
  2
APPID
  5
8
100
AcDbSymbolTable
 70
     2
  0
APPID
  5
16
100
AcDbSymbolTableRecord
100
AcDbRegAppTableRecord
  2
ACAD
 70
     0
  0
APPID
  5
26
100
AcDbSymbolTableRecord
100
AcDbRegAppTableRecord
  2
TOPsolid_Design
 70
     0
  0
ENDTAB
  0
TABLE
  2
DIMSTYLE
  5
9
100
AcDbSymbolTable
 70
     1
100
AcDbDimStyleTable
 71
     0
  0
DIMSTYLE
105
18
100
AcDbSymbolTableRecord
100
AcDbDimStyleTableRecord
  2
Standard
 70
     0
  3

  4

 40
1.0
 41
3.2
 42
3.2
 43
0.38
 44
2.4
 45
0.0
 46
0.0
 47
0.0
 48
0.0
 71
     0
 72
     0
 73
     0
 74
     0
 75
     0
 76
     0
 77
     1
 78
     0
 79
     0
140
8.0
141
0.09
142
0.0
143
25.4
144
1.0
145
0.0
146
0.6
147
4.0
148
0.0
170
     0
171
     2
172
     0
173
     0
174
     0
175
     0
176
     7
177
     7
178
     7
179
     0
271
     6
272
     4
273
     2
274
     2
275
     0
276
     0
277
     2
278
    46
279
     0
280
     0
281
     0
282
     0
283
     1
284
     0
285
     0
286
     0
288
     0
289
     3
340
17
341
0
342
0
343
0
344
0
371
    -2
372
    -2
  0
ENDTAB
  0
TABLE
  2
BLOCK_RECORD
  5
1
100
AcDbSymbolTable
 70
    15
  0
BLOCK_RECORD
  5
A
100
AcDbSymbolTableRecord
100
AcDbBlockTableRecord
  2
*MODEL_SPACE
340
20
  0
BLOCK_RECORD
  5
B
100
AcDbSymbolTableRecord
100
AcDbBlockTableRecord
  2
*PAPER_SPACE
340
21
  0
BLOCK_RECORD
  5
B3
100
AcDbSymbolTableRecord
100
AcDbBlockTableRecord
  2
AID278
340
0
102
{BLKREFS
331
B7
102
}
  0
BLOCK_RECORD
  5
2D9
100
AcDbSymbolTableRecord
100
AcDbBlockTableRecord
  2
AID1043
340
0
102
{BLKREFS
331
2EA
102
}
  0
BLOCK_RECORD
  5
2EB
100
AcDbSymbolTableRecord
100
AcDbBlockTableRecord
  2
AID1056
340
0
102
{BLKREFS
331
2FD
102
}
  0
BLOCK_RECORD
  5
2FE
100
AcDbSymbolTableRecord
100
AcDbBlockTableRecord
  2
AID1071
340
0
102
{BLKREFS
331
30E
102
}
  0
BLOCK_RECORD
  5
30F
100
AcDbSymbolTableRecord
100
AcDbBlockTableRecord
  2
AID1082
340
0
102
{BLKREFS
331
320
102
}
  0
BLOCK_RECORD
  5
322
100
AcDbSymbolTableRecord
100
AcDbBlockTableRecord
  2
AID1097
340
0
102
{BLKREFS
331
336
102
}
  0
BLOCK_RECORD
  5
337
100
AcDbSymbolTableRecord
100
AcDbBlockTableRecord
  2
AID1116
340
0
102
{BLKREFS
331
34A
102
}
  0
BLOCK_RECORD
  5
34C
100
AcDbSymbolTableRecord
100
AcDbBlockTableRecord
  2
AID1135
340
0
102
{BLKREFS
331
35D
102
}
  0
BLOCK_RECORD
  5
35E
100
AcDbSymbolTableRecord
100
AcDbBlockTableRecord
  2
AID1148
340
0
102
{BLKREFS
331
371
102
}
  0
BLOCK_RECORD
  5
372
100
AcDbSymbolTableRecord
100
AcDbBlockTableRecord
  2
AID1165
340
0
102
{BLKREFS
331
386
102
}
  0
BLOCK_RECORD
  5
387
100
AcDbSymbolTableRecord
100
AcDbBlockTableRecord
  2
AID1184
340
0
102
{BLKREFS
331
397
102
}
  0
BLOCK_RECORD
  5
399
100
AcDbSymbolTableRecord
100
AcDbBlockTableRecord
  2
AID1197
340
0
102
{BLKREFS
331
3AA
102
}
  0
BLOCK_RECORD
  5
3AB
100
AcDbSymbolTableRecord
100
AcDbBlockTableRecord
  2
AID1210
340
0
102
{BLKREFS
331
3AF
102
}
  0
BLOCK_RECORD
  5
3B0
100
AcDbSymbolTableRecord
100
AcDbBlockTableRecord
  2
AID1213
340
0
102
{BLKREFS
331
3B4
102
}
  0
BLOCK_RECORD
  5
3B5
100
AcDbSymbolTableRecord
100
AcDbBlockTableRecord
  2
AID1216
340
0
102
{BLKREFS
331
3B9
102
}
  0
ENDTAB
  0
ENDSEC
  0
SECTION
  2
BLOCKS
  0
BLOCK
  5
D
100
AcDbEntity
  8
0
390
0
100
AcDbBlockBegin
  2
*MODEL_SPACE
 70
     0
 10
0.0
 20
0.0
 30
0.0
  3
*MODEL_SPACE
  1

  0
ENDBLK
  5
E
100
AcDbEntity
  8
0
390
0
100
AcDbBlockEnd
  0
BLOCK
  5
F
100
AcDbEntity
 67
     1
  8
0
390
0
100
AcDbBlockBegin
  2
*PAPER_SPACE
 70
     0
 10
0.0
 20
0.0
 30
0.0
  3
*PAPER_SPACE
  1

  0
ENDBLK
  5
10
100
AcDbEntity
 67
     1
  8
0
390
0
100
AcDbBlockEnd
  0
BLOCK
  5
B4
100
AcDbEntity
  8
0
390
0
100
AcDbBlockBegin
  2
AID278
 70
     0
 10
0.0
 20
0.0
 30
0.0
  3
D_GROUP
  1

  0
MTEXT
  5
B5
100
AcDbEntity
  8
256
390
0
 62
     7
100
AcDbMText
 10
406.171318
 20
6.951938
 30
0.0
 40
3.0
 41
7.472727
 71
     7
 72
     1
  1
A3
210
0.0
220
0.0
230
1.0
 73
     1
 44
1.0
  0
ENDBLK
  5
B6
100
AcDbEntity
  8
0
390
0
100
AcDbBlockEnd
  0
BLOCK
  5
2DA
100
AcDbEntity
  8
0
390
0
100
AcDbBlockBegin
  2
AID1043
 70
     0
 10
0.0
 20
0.0
 30
0.0
  3
D_GROUP
  1

  0
MTEXT
  5
2DB
100
AcDbEntity
  8
1
390
0
 62
     2
100
AcDbMText
 10
186.95819
 20
233.06412
 30
0.0
 40
6.0
 41
11.781818
 71
     7
 72
     1
  1
15
210
0.0
220
0.0
230
1.0
 73
     1
 44
1.0
  0
LINE
  5
2DC
100
AcDbEntity
  8
1
390
0
  6
Continuous
 62
    11
100
AcDbLine
 10
198.140008
 20
231.891392
 30
0.0
 11
183.140008
 21
231.891392
 31
0.0
  0
LINE
  5
2DD
100
AcDbEntity
  8
1
390
0
  6
Continuous
 62
    11
100
AcDbLine
 10
198.140008
 20
221.500346
 30
0.0
 11
198.140008
 21
233.691392
 31
0.0
  0
LINE
  5
2DE
100
AcDbEntity
  8
1
390
0
  6
Continuous
 62
    11
100
AcDbLine
 10
183.140008
 20
219.800346
 30
0.0
 11
183.140008
 21
233.691392
 31
0.0
  0
POLYLINE
  5
2DF
100
AcDbEntity
  8
1
390
0
  6
Continuous
 62
    11
100
AcDb2dPolyline
 66
     1
 10
0.0
 20
0.0
 30
0.0
 40
3.0
 41
3.0
  0
VERTEX
  5
2E0
100
AcDbEntity
  8
1
390
0
 62
    11
100
AcDbVertex
100
AcDb2dVertex
 10
193.640008
 20
232.791392
 30
0.0
  0
VERTEX
  5
2E1
100
AcDbEntity
  8
1
390
0
 62
    11
100
AcDbVertex
100
AcDb2dVertex
 10
198.140008
 20
231.891392
 30
0.0
  0
VERTEX
  5
2E2
100
AcDbEntity
  8
1
390
0
 62
    11
100
AcDbVertex
100
AcDb2dVertex
 10
193.640008
 20
230.991392
 30
0.0
  0
SEQEND
  5
2E3
100
AcDbEntity
  8
0
390
0
  0
POLYLINE
  5
2E4
100
AcDbEntity
  8
1
390
0
  6
Continuous
 62
    11
100
AcDb2dPolyline
 66
     1
 10
0.0
 20
0.0
 30
0.0
 40
3.0
 41
3.0
  0
VERTEX
  5
2E5
100
AcDbEntity
  8
1
390
0
 62
    11
100
AcDbVertex
100
AcDb2dVertex
 10
187.640008
 20
230.991392
 30
0.0
  0
VERTEX
  5
2E6
100
AcDbEntity
  8
1
390
0
 62
    11
100
AcDbVertex
100
AcDb2dVertex
 10
183.140008
 20
231.891392
 30
0.0
  0
VERTEX
  5
2E7
100
AcDbEntity
  8
1
390
0
 62
    11
100
AcDbVertex
100
AcDb2dVertex
 10
187.640008
 20
232.791392
 30
0.0
  0
SEQEND
  5
2E8
100
AcDbEntity
  8
0
390
0
  0
ENDBLK
  5
2E9
100
AcDbEntity
  8
0
390
0
100
AcDbBlockEnd
  0
BLOCK
  5
2EC
100
AcDbEntity
  8
0
390
0
100
AcDbBlockBegin
  2
AID1056
 70
     0
 10
0.0
 20
0.0
 30
0.0
  3
D_GROUP
  1

  0
MTEXT
  5
2ED
100
AcDbEntity
  8
1
390
0
 62
     2
100
AcDbMText
 10
208.2828
 20
224.909436
 30
0.0
 40
6.0
 41
9.490909
 71
     7
 72
     1
  1
Φ
210
0.0
220
0.0
230
1.0
 11
0.0
 21
1.0
 31
0.0
 73
     1
 44
1.0
  0
MTEXT
  5
2EE
100
AcDbEntity
  8
1
390
0
 62
     2
100
AcDbMText
 10
208.2828
 20
230.854891
 30
0.0
 40
6.0
 41
15.654545
 71
     7
 72
     1
  1
3.4
210
0.0
220
0.0
230
1.0
 11
0.0
 21
1.0
 31
0.0
 73
     1
 44
1.0
  0
LINE
  5
2EF
100
AcDbEntity
  8
1
390
0
  6
Continuous
 62
    11
100
AcDbLine
 10
209.455527
 20
239.636709
 30
0.0
 11
209.455527
 21
207.300346
 31
0.0
  0
LINE
  5
2F0
100
AcDbEntity
  8
1
390
0
  6
Continuous
 62
    11
100
AcDbLine
 10
199.940008
 20
219.700346
 30
0.0
 11
211.255527
 21
219.700346
 31
0.0
  0
LINE
  5
2F1
100
AcDbEntity
  8
1
390
0
  6
Continuous
 62
    11
100
AcDbLine
 10
199.940008
 20
216.300346
 30
0.0
 11
211.255527
 21
216.300346
 31
0.0
  0
POLYLINE
  5
2F2
100
AcDbEntity
  8
1
390
0
  6
Continuous
 62
    11
100
AcDb2dPolyline
 66
     1
 10
0.0
 20
0.0
 30
0.0
 40
3.0
 41
3.0
  0
VERTEX
  5
2F3
100
AcDbEntity
  8
1
390
0
 62
    11
100
AcDbVertex
100
AcDb2dVertex
 10
208.555527
 20
224.200346
 30
0.0
  0
VERTEX
  5
2F4
100
AcDbEntity
  8
1
390
0
 62
    11
100
AcDbVertex
100
AcDb2dVertex
 10
209.455527
 20
219.700346
 30
0.0
  0
VERTEX
  5
2F5
100
AcDbEntity
  8
1
390
0
 62
    11
100
AcDbVertex
100
AcDb2dVertex
 10
210.355527
 20
224.200346
 30
0.0
  0
SEQEND
  5
2F6
100
AcDbEntity
  8
0
390
0
  0
POLYLINE
  5
2F7
100
AcDbEntity
  8
1
390
0
  6
Continuous
 62
    11
100
AcDb2dPolyline
 66
     1
 10
0.0
 20
0.0
 30
0.0
 40
3.0
 41
3.0
  0
VERTEX
  5
2F8
100
AcDbEntity
  8
1
390
0
 62
    11
100
AcDbVertex
100
AcDb2dVertex
 10
210.355527
 20
211.800346
 30
0.0
  0
VERTEX
  5
2F9
100
AcDbEntity
  8
1
390
0
 62
    11
100
AcDbVertex
100
AcDb2dVertex
 10
209.455527
 20
216.300346
 30
0.0
  0
VERTEX
  5
2FA
100
AcDbEntity
  8
1
390
0
 62
    11
100
AcDbVertex
100
AcDb2dVertex
 10
208.555527
 20
211.800346
 30
0.0
  0
SEQEND
  5
2FB
100
AcDbEntity
  8
0
390
0
  0
ENDBLK
  5
2FC
100
AcDbEntity
  8
0
390
0
100
AcDbBlockEnd
  0
BLOCK
  5
2FF
100
AcDbEntity
  8
0
390
0
100
AcDbBlockBegin
  2
AID1071
 70
     0
 10
0.0
 20
0.0
 30
0.0
  3
D_GROUP
  1

  0
MTEXT
  5
300
100
AcDbEntity
  8
1
390
0
 62
     2
100
AcDbMText
 10
236.287849
 20
224.459436
 30
0.0
 40
6.0
 41
9.490909
 71
     7
 72
     1
  1
Φ
210
0.0
220
0.0
230
1.0
 11
0.0
 21
1.0
 31
0.0
 73
     1
 44
1.0
  0
MTEXT
  5
301
100
AcDbEntity
  8
1
390
0
 62
     2
100
AcDbMText
 10
236.287849
 20
230.404891
 30
0.0
 40
6.0
 41
15.381818
 71
     7
 72
     1
  1
2.5
210
0.0
220
0.0
230
1.0
 11
0.0
 21
1.0
 31
0.0
 73
     1
 44
1.0
  0
LINE
  5
302
100
AcDbEntity
  8
1
390
0
  6
Continuous
 62
    11
100
AcDbLine
 10
237.460576
 20
207.750346
 30
0.0
 11
237.460576
 21
239.050346
 31
0.0
  0
POLYLINE
  5
303
100
AcDbEntity
  8
1
390
0
  6
Continuous
 62
    11
100
AcDb2dPolyline
 66
     1
 10
0.0
 20
0.0
 30
0.0
 40
3.0
 41
3.0
  0
VERTEX
  5
304
100
AcDbEntity
  8
1
390
0
 62
    11
100
AcDbVertex
100
AcDb2dVertex
 10
238.360576
 20
212.250346
 30
0.0
  0
VERTEX
  5
305
100
AcDbEntity
  8
1
390
0
 62
    11
100
AcDbVertex
100
AcDb2dVertex
 10
237.460576
 20
216.750346
 30
0.0
  0
VERTEX
  5
306
100
AcDbEntity
  8
1
390
0
 62
    11
100
AcDbVertex
100
AcDb2dVertex
 10
236.560576
 20
212.250346
 30
0.0
  0
SEQEND
  5
307
100
AcDbEntity
  8
0
390
0
  0
POLYLINE
  5
308
100
AcDbEntity
  8
1
390
0
  6
Continuous
 62
    11
100
AcDb2dPolyline
 66
     1
 10
0.0
 20
0.0
 30
0.0
 40
3.0
 41
3.0
  0
VERTEX
  5
309
100
AcDbEntity
  8
1
390
0
 62
    11
100
AcDbVertex
100
AcDb2dVertex
 10
236.560576
 20
223.750346
 30
0.0
  0
VERTEX
  5
30A
100
AcDbEntity
  8
1
390
0
 62
    11
100
AcDbVertex
100
AcDb2dVertex
 10
237.460576
 20
219.250346
 30
0.0
  0
VERTEX
  5
30B
100
AcDbEntity
  8
1
390
0
 62
    11
100
AcDbVertex
100
AcDb2dVertex
 10
238.360576
 20
223.750346
 30
0.0
  0
SEQEND
  5
30C
100
AcDbEntity
  8
0
390
0
  0
ENDBLK
  5
30D
100
AcDbEntity
  8
0
390
0
100
AcDbBlockEnd
  0
BLOCK
  5
310
100
AcDbEntity
  8
0
390
0
100
AcDbBlockBegin
  2
AID1082
 70
     0
 10
0.0
 20
0.0
 30
0.0
  3
D_GROUP
  1

  0
MTEXT
  5
311
100
AcDbEntity
  8
1
390
0
 62
     2
100
AcDbMText
 10
273.540839
 20
233.06412
 30
0.0
 40
6.0
 41
12.545455
 71
     7
 72
     1
  1
55
210
0.0
220
0.0
230
1.0
 73
     1
 44
1.0
  0
LINE
  5
312
100
AcDbEntity
  8
1
390
0
  6
Continuous
 62
    11
100
AcDbLine
 10
304.56672
 20
231.891392
 30
0.0
 11
249.496776
 21
231.891392
 31
0.0
  0
LINE
  5
313
100
AcDbEntity
  8
1
390
0
  6
Continuous
 62
    11
100
AcDbLine
 10
304.56672
 20
222.025346
 30
0.0
 11
304.56672
 21
233.691392
 31
0.0
  0
LINE
  5
314
100
AcDbEntity
  8
1
390
0
  6
Continuous
 62
    11
100
AcDbLine
 10
249.496776
 20
221.800346
 30
0.0
 11
249.496776
 21
233.691392
 31
0.0
  0
POLYLINE
  5
315
100
AcDbEntity
  8
1
390
0
  6
Continuous
 62
    11
100
AcDb2dPolyline
 66
     1
 10
0.0
 20
0.0
 30
0.0
 40
3.0
 41
3.0
  0
VERTEX
  5
316
100
AcDbEntity
  8
1
390
0
 62
    11
100
AcDbVertex
100
AcDb2dVertex
 10
300.06672
 20
232.791392
 30
0.0
  0
VERTEX
  5
317
100
AcDbEntity
  8
1
390
0
 62
    11
100
AcDbVertex
100
AcDb2dVertex
 10
304.56672
 20
231.891392
 30
0.0
  0
VERTEX
  5
318
100
AcDbEntity
  8
1
390
0
 62
    11
100
AcDbVertex
100
AcDb2dVertex
 10
300.06672
 20
230.991392
 30
0.0
  0
SEQEND
  5
319
100
AcDbEntity
  8
0
390
0
  0
POLYLINE
  5
31A
100
AcDbEntity
  8
1
390
0
  6
Continuous
 62
    11
100
AcDb2dPolyline
 66
     1
 10
0.0
 20
0.0
 30
0.0
 40
3.0
 41
3.0
  0
VERTEX
  5
31B
100
AcDbEntity
  8
1
390
0
 62
    11
100
AcDbVertex
100
AcDb2dVertex
 10
253.996776
 20
230.991392
 30
0.0
  0
VERTEX
  5
31C
100
AcDbEntity
  8
1
390
0
 62
    11
100
AcDbVertex
100
AcDb2dVertex
 10
249.496776
 20
231.891392
 30
0.0
  0
VERTEX
  5
31D
100
AcDbEntity
  8
1
390
0
 62
    11
100
AcDbVertex
100
AcDb2dVertex
 10
253.996776
 20
232.791392
 30
0.0
  0
SEQEND
  5
31E
100
AcDbEntity
  8
0
390
0
  0
ENDBLK
  5
31F
100
AcDbEntity
  8
0
390
0
100
AcDbBlockEnd
  0
BLOCK
  5
323
100
AcDbEntity
  8
0
390
0
100
AcDbBlockBegin
  2
AID1097
 70
     0
 10
0.0
 20
0.0
 30
0.0
  3
D_GROUP
  1

  0
MTEXT
  5
324
100
AcDbEntity
  8
1
390
0
 62
     2
100
AcDbMText
 10
188.349099
 20
61.004361
 30
0.0
 40
6.0
 41
9.490909
 71
     7
 72
     1
  1
Φ
210
0.0
220
0.0
230
1.0
 73
     1
 44
1.0
  0
MTEXT
  5
325
100
AcDbEntity
  8
1
390
0
 62
     2
100
AcDbMText
 10
194.294554
 20
61.004361
 30
0.0
 40
6.0
 41
5.454545
 71
     7
 72
     1
  1
6
210
0.0
220
0.0
230
1.0
 73
     1
 44
1.0
  0
MTEXT
  5
326
100
AcDbEntity
  8
1
390
0
 62
     2
100
AcDbMText
 10
200.403645
 20
59.804361
 30
0.0
 40
4.2
 41
14.547273
 71
     7
 72
     1
  1
-0.1
210
0.0
220
0.0
230
1.0
 73
     1
 44
1.0
  0
MTEXT
  5
327
100
AcDbEntity
  8
1
390
0
 62
     2
100
AcDbMText
 10
200.403645
 20
64.691633
 30
0.0
 40
4.2
 41
4.2
 71
     7
 72
     1
  1
　0
210
0.0
220
0.0
230
1.0
 73
     1
 44
1.0
  0
LINE
  5
328
100
AcDbEntity
  8
1
390
0
  6
Continuous
 62
    11
100
AcDbLine
 10
168.140008
 20
58.642542
 30
0.0
 11
208.410917
 21
58.642542
 31
0.0
  0
LINE
  5
329
100
AcDbEntity
  8
1
390
0
  6
Continuous
 62
    11
100
AcDbLine
 10
177.140008
 20
68.499115
 30
0.0
 11
177.140008
 21
56.842542
 31
0.0
  0
LINE
  5
32A
100
AcDbEntity
  8
1
390
0
  6
Continuous
 62
    11
100
AcDbLine
 10
183.140008
 20
68.499115
 30
0.0
 11
183.140008
 21
56.842542
 31
0.0
  0
POLYLINE
  5
32B
100
AcDbEntity
  8
1
390
0
  6
Continuous
 62
    11
100
AcDb2dPolyline
 66
     1
 10
0.0
 20
0.0
 30
0.0
 40
3.0
 41
3.0
  0
VERTEX
  5
32C
100
AcDbEntity
  8
1
390
0
 62
    11
100
AcDbVertex
100
AcDb2dVertex
 10
172.640008
 20
57.742542
 30
0.0
  0
VERTEX
  5
32D
100
AcDbEntity
  8
1
390
0
 62
    11
100
AcDbVertex
100
AcDb2dVertex
 10
177.140008
 20
58.642542
 30
0.0
  0
VERTEX
  5
32E
100
AcDbEntity
  8
1
390
0
 62
    11
100
AcDbVertex
100
AcDb2dVertex
 10
172.640008
 20
59.542542
 30
0.0
  0
SEQEND
  5
32F
100
AcDbEntity
  8
0
390
0
  0
POLYLINE
  5
330
100
AcDbEntity
  8
1
390
0
  6
Continuous
 62
    11
100
AcDb2dPolyline
 66
     1
 10
0.0
 20
0.0
 30
0.0
 40
3.0
 41
3.0
  0
VERTEX
  5
331
100
AcDbEntity
  8
1
390
0
 62
    11
100
AcDbVertex
100
AcDb2dVertex
 10
187.640008
 20
59.542542
 30
0.0
  0
VERTEX
  5
332
100
AcDbEntity
  8
1
390
0
 62
    11
100
AcDbVertex
100
AcDb2dVertex
 10
183.140008
 20
58.642542
 30
0.0
  0
VERTEX
  5
333
100
AcDbEntity
  8
1
390
0
 62
    11
100
AcDbVertex
100
AcDb2dVertex
 10
187.640008
 20
57.742542
 30
0.0
  0
SEQEND
  5
334
100
AcDbEntity
  8
0
390
0
  0
ENDBLK
  5
335
100
AcDbEntity
  8
0
390
0
100
AcDbBlockEnd
  0
BLOCK
  5
338
100
AcDbEntity
  8
0
390
0
100
AcDbBlockBegin
  2
AID1116
 70
     0
 10
0.0
 20
0.0
 30
0.0
  3
D_GROUP
  1

  0
MTEXT
  5
339
100
AcDbEntity
  8
1
390
0
 62
     2
100
AcDbMText
 10
162.531455
 20
80.053661
 30
0.0
 40
6.0
 41
6.054545
 71
     7
 72
     1
  1
4
210
0.0
220
0.0
230
1.0
 11
0.0
 21
1.0
 31
0.0
 73
     1
 44
1.0
  0
MTEXT
  5
33A
100
AcDbEntity
  8
1
390
0
 62
     2
100
AcDbMText
 10
163.731455
 20
86.326388
 30
0.0
 40
4.2
 41
14.547273
 71
     7
 72
     1
  1
-0.1
210
0.0
220
0.0
230
1.0
 11
0.0
 21
1.0
 31
0.0
 73
     1
 44
1.0
  0
MTEXT
  5
33B
100
AcDbEntity
  8
1
390
0
 62
     2
100
AcDbMText
 10
158.844182
 20
86.326388
 30
0.0
 40
4.2
 41
4.2
 71
     7
 72
     1
  1
　0
210
0.0
220
0.0
230
1.0
 11
0.0
 21
1.0
 31
0.0
 73
     1
 44
1.0
  0
LINE
  5
33C
100
AcDbEntity
  8
1
390
0
  6
Continuous
 62
    11
100
AcDbLine
 10
164.893273
 20
60.999115
 30
0.0
 11
164.893273
 21
94.333661
 31
0.0
  0
LINE
  5
33D
100
AcDbEntity
  8
1
390
0
  6
Continuous
 62
    11
100
AcDbLine
 10
176.040008
 20
69.999115
 30
0.0
 11
163.093273
 21
69.999115
 31
0.0
  0
LINE
  5
33E
100
AcDbEntity
  8
1
390
0
  6
Continuous
 62
    11
100
AcDbLine
 10
175.340008
 20
73.999115
 30
0.0
 11
163.093273
 21
73.999115
 31
0.0
  0
POLYLINE
  5
33F
100
AcDbEntity
  8
1
390
0
  6
Continuous
 62
    11
100
AcDb2dPolyline
 66
     1
 10
0.0
 20
0.0
 30
0.0
 40
3.0
 41
3.0
  0
VERTEX
  5
340
100
AcDbEntity
  8
1
390
0
 62
    11
100
AcDbVertex
100
AcDb2dVertex
 10
165.793273
 20
65.499115
 30
0.0
  0
VERTEX
  5
341
100
AcDbEntity
  8
1
390
0
 62
    11
100
AcDbVertex
100
AcDb2dVertex
 10
164.893273
 20
69.999115
 30
0.0
  0
VERTEX
  5
342
100
AcDbEntity
  8
1
390
0
 62
    11
100
AcDbVertex
100
AcDb2dVertex
 10
163.993273
 20
65.499115
 30
0.0
  0
SEQEND
  5
343
100
AcDbEntity
  8
0
390
0
  0
POLYLINE
  5
344
100
AcDbEntity
  8
1
390
0
  6
Continuous
 62
    11
100
AcDb2dPolyline
 66
     1
 10
0.0
 20
0.0
 30
0.0
 40
3.0
 41
3.0
  0
VERTEX
  5
345
100
AcDbEntity
  8
1
390
0
 62
    11
100
AcDbVertex
100
AcDb2dVertex
 10
163.993273
 20
78.499115
 30
0.0
  0
VERTEX
  5
346
100
AcDbEntity
  8
1
390
0
 62
    11
100
AcDbVertex
100
AcDb2dVertex
 10
164.893273
 20
73.999115
 30
0.0
  0
VERTEX
  5
347
100
AcDbEntity
  8
1
390
0
 62
    11
100
AcDbVertex
100
AcDb2dVertex
 10
165.793273
 20
78.499115
 30
0.0
  0
SEQEND
  5
348
100
AcDbEntity
  8
0
390
0
  0
ENDBLK
  5
349
100
AcDbEntity
  8
0
390
0
100
AcDbBlockEnd
  0
BLOCK
  5
34D
100
AcDbEntity
  8
0
390
0
100
AcDbBlockBegin
  2
AID1135
 70
     0
 10
0.0
 20
0.0
 30
0.0
  3
D_GROUP
  1

  0
MTEXT
  5
34E
100
AcDbEntity
  8
1
390
0
 62
     2
100
AcDbMText
 10
151.920458
 20
86.508206
 30
0.0
 40
6.0
 41
12.981818
 71
     7
 72
     1
  1
40
210
0.0
220
0.0
230
1.0
 11
0.0
 21
1.0
 31
0.0
 73
     1
 44
1.0
  0
LINE
  5
34F
100
AcDbEntity
  8
1
390
0
  6
Continuous
 62
    11
100
AcDbLine
 10
153.065912
 20
69.999115
 30
0.0
 11
153.065912
 21
109.999115
 31
0.0
  0
LINE
  5
350
100
AcDbEntity
  8
1
390
0
  6
Continuous
 62
    11
100
AcDbLine
 10
176.040008
 20
69.999115
 30
0.0
 11
151.265912
 21
69.999115
 31
0.0
  0
LINE
  5
351
100
AcDbEntity
  8
1
390
0
  6
Continuous
 62
    11
100
AcDbLine
 10
177.740008
 20
109.999115
 30
0.0
 11
151.265912
 21
109.999115
 31
0.0
  0
POLYLINE
  5
352
100
AcDbEntity
  8
1
390
0
  6
Continuous
 62
    11
100
AcDb2dPolyline
 66
     1
 10
0.0
 20
0.0
 30
0.0
 40
3.0
 41
3.0
  0
VERTEX
  5
353
100
AcDbEntity
  8
1
390
0
 62
    11
100
AcDbVertex
100
AcDb2dVertex
 10
153.965912
 20
74.499115
 30
0.0
  0
VERTEX
  5
354
100
AcDbEntity
  8
1
390
0
 62
    11
100
AcDbVertex
100
AcDb2dVertex
 10
153.065912
 20
69.999115
 30
0.0
  0
VERTEX
  5
355
100
AcDbEntity
  8
1
390
0
 62
    11
100
AcDbVertex
100
AcDb2dVertex
 10
152.165912
 20
74.499115
 30
0.0
  0
SEQEND
  5
356
100
AcDbEntity
  8
0
390
0
  0
POLYLINE
  5
357
100
AcDbEntity
  8
1
390
0
  6
Continuous
 62
    11
100
AcDb2dPolyline
 66
     1
 10
0.0
 20
0.0
 30
0.0
 40
3.0
 41
3.0
  0
VERTEX
  5
358
100
AcDbEntity
  8
1
390
0
 62
    11
100
AcDbVertex
100
AcDb2dVertex
 10
152.165912
 20
105.499115
 30
0.0
  0
VERTEX
  5
359
100
AcDbEntity
  8
1
390
0
 62
    11
100
AcDbVertex
100
AcDb2dVertex
 10
153.065912
 20
109.999115
 30
0.0
  0
VERTEX
  5
35A
100
AcDbEntity
  8
1
390
0
 62
    11
100
AcDbVertex
100
AcDb2dVertex
 10
153.965912
 20
105.499115
 30
0.0
  0
SEQEND
  5
35B
100
AcDbEntity
  8
0
390
0
  0
ENDBLK
  5
35C
100
AcDbEntity
  8
0
390
0
100
AcDbBlockEnd
  0
BLOCK
  5
35F
100
AcDbEntity
  8
0
390
0
100
AcDbBlockBegin
  2
AID1148
 70
     0
 10
0.0
 20
0.0
 30
0.0
  3
D_GROUP
  1

  0
MTEXT
  5
360
100
AcDbEntity
  8
1
390
0
 62
     2
100
AcDbMText
 10
138.182026
 20
108.941388
 30
0.0
 40
6.0
 41
18.981818
 71
     7
 72
     1
  1
100
210
0.0
220
0.0
230
1.0
 11
0.0
 21
1.0
 31
0.0
 73
     1
 44
1.0
  0
MTEXT
  5
361
100
AcDbEntity
  8
1
390
0
 62
     2
100
AcDbMText
 10
139.382026
 20
122.168661
 30
0.0
 40
4.2
 41
15.883636
 71
     7
 72
     1
  1
+0.5
210
0.0
220
0.0
230
1.0
 11
0.0
 21
1.0
 31
0.0
 73
     1
 44
1.0
  0
MTEXT
  5
362
100
AcDbEntity
  8
1
390
0
 62
     2
100
AcDbMText
 10
134.494753
 20
122.168661
 30
0.0
 40
4.2
 41
16.036364
 71
     7
 72
     1
  1
+2.0
210
0.0
220
0.0
230
1.0
 11
0.0
 21
1.0
 31
0.0
 73
     1
 44
1.0
  0
LINE
  5
363
100
AcDbEntity
  8
1
390
0
  6
Continuous
 62
    11
100
AcDbLine
 10
140.562935
 20
69.999115
 30
0.0
 11
140.562935
 21
169.999115
 31
0.0
  0
LINE
  5
364
100
AcDbEntity
  8
1
390
0
  6
Continuous
 62
    11
100
AcDbLine
 10
176.040008
 20
69.999115
 30
0.0
 11
138.762935
 21
69.999115
 31
0.0
  0
LINE
  5
365
100
AcDbEntity
  8
1
390
0
  6
Continuous
 62
    11
100
AcDbLine
 10
177.740008
 20
169.999115
 30
0.0
 11
138.762935
 21
169.999115
 31
0.0
  0
POLYLINE
  5
366
100
AcDbEntity
  8
1
390
0
  6
Continuous
 62
    11
100
AcDb2dPolyline
 66
     1
 10
0.0
 20
0.0
 30
0.0
 40
3.0
 41
3.0
  0
VERTEX
  5
367
100
AcDbEntity
  8
1
390
0
 62
    11
100
AcDbVertex
100
AcDb2dVertex
 10
141.462935
 20
74.499115
 30
0.0
  0
VERTEX
  5
368
100
AcDbEntity
  8
1
390
0
 62
    11
100
AcDbVertex
100
AcDb2dVertex
 10
140.562935
 20
69.999115
 30
0.0
  0
VERTEX
  5
369
100
AcDbEntity
  8
1
390
0
 62
    11
100
AcDbVertex
100
AcDb2dVertex
 10
139.662935
 20
74.499115
 30
0.0
  0
SEQEND
  5
36A
100
AcDbEntity
  8
0
390
0
  0
POLYLINE
  5
36B
100
AcDbEntity
  8
1
390
0
  6
Continuous
 62
    11
100
AcDb2dPolyline
 66
     1
 10
0.0
 20
0.0
 30
0.0
 40
3.0
 41
3.0
  0
VERTEX
  5
36C
100
AcDbEntity
  8
1
390
0
 62
    11
100
AcDbVertex
100
AcDb2dVertex
 10
139.662935
 20
165.499115
 30
0.0
  0
VERTEX
  5
36D
100
AcDbEntity
  8
1
390
0
 62
    11
100
AcDbVertex
100
AcDb2dVertex
 10
140.562935
 20
169.999115
 30
0.0
  0
VERTEX
  5
36E
100
AcDbEntity
  8
1
390
0
 62
    11
100
AcDbVertex
100
AcDb2dVertex
 10
141.462935
 20
165.499115
 30
0.0
  0
SEQEND
  5
36F
100
AcDbEntity
  8
0
390
0
  0
ENDBLK
  5
370
100
AcDbEntity
  8
0
390
0
100
AcDbBlockEnd
  0
BLOCK
  5
373
100
AcDbEntity
  8
0
390
0
100
AcDbBlockBegin
  2
AID1165
 70
     0
 10
0.0
 20
0.0
 30
0.0
  3
D_GROUP
  1

  0
MTEXT
  5
374
100
AcDbEntity
  8
1
390
0
 62
     2
100
AcDbMText
 10
185.949099
 20
182.973739
 30
0.0
 40
6.0
 41
9.490909
 71
     7
 72
     1
  1
Φ
210
0.0
220
0.0
230
1.0
 73
     1
 44
1.0
  0
MTEXT
  5
375
100
AcDbEntity
  8
1
390
0
 62
     2
100
AcDbMText
 10
191.894554
 20
182.973739
 30
0.0
 40
6.0
 41
14.618182
 71
     7
 72
     1
  1
1.2
210
0.0
220
0.0
230
1.0
 73
     1
 44
1.0
  0
MTEXT
  5
376
100
AcDbEntity
  8
1
390
0
 62
     2
100
AcDbMText
 10
202.940008
 20
181.773739
 30
0.0
 40
4.2
 41
25.658182
 71
     7
 72
     1
  1
-0.005
210
0.0
220
0.0
230
1.0
 73
     1
 44
1.0
  0
MTEXT
  5
377
100
AcDbEntity
  8
1
390
0
 62
     2
100
AcDbMText
 10
202.940008
 20
186.661012
 30
0.0
 40
4.2
 41
4.2
 71
     7
 72
     1
  1
　0
210
0.0
220
0.0
230
1.0
 73
     1
 44
1.0
  0
LINE
  5
378
100
AcDbEntity
  8
1
390
0
  6
Continuous
 62
    11
100
AcDbLine
 10
216.502736
 20
180.59283
 30
0.0
 11
170.540008
 21
180.59283
 31
0.0
  0
LINE
  5
379
100
AcDbEntity
  8
1
390
0
  6
Continuous
 62
    11
100
AcDbLine
 10
180.740008
 20
171.799115
 30
0.0
 11
180.740008
 21
182.39283
 31
0.0
  0
LINE
  5
37A
100
AcDbEntity
  8
1
390
0
  6
Continuous
 62
    11
100
AcDbLine
 10
179.540008
 20
171.799115
 30
0.0
 11
179.540008
 21
182.39283
 31
0.0
  0
POLYLINE
  5
37B
100
AcDbEntity
  8
1
390
0
  6
Continuous
 62
    11
100
AcDb2dPolyline
 66
     1
 10
0.0
 20
0.0
 30
0.0
 40
3.0
 41
3.0
  0
VERTEX
  5
37C
100
AcDbEntity
  8
1
390
0
 62
    11
100
AcDbVertex
100
AcDb2dVertex
 10
185.240008
 20
181.49283
 30
0.0
  0
VERTEX
  5
37D
100
AcDbEntity
  8
1
390
0
 62
    11
100
AcDbVertex
100
AcDb2dVertex
 10
180.740008
 20
180.59283
 30
0.0
  0
VERTEX
  5
37E
100
AcDbEntity
  8
1
390
0
 62
    11
100
AcDbVertex
100
AcDb2dVertex
 10
185.240008
 20
179.69283
 30
0.0
  0
SEQEND
  5
37F
100
AcDbEntity
  8
0
390
0
  0
POLYLINE
  5
380
100
AcDbEntity
  8
1
390
0
  6
Continuous
 62
    11
100
AcDb2dPolyline
 66
     1
 10
0.0
 20
0.0
 30
0.0
 40
3.0
 41
3.0
  0
VERTEX
  5
381
100
AcDbEntity
  8
1
390
0
 62
    11
100
AcDbVertex
100
AcDb2dVertex
 10
175.040008
 20
179.69283
 30
0.0
  0
VERTEX
  5
382
100
AcDbEntity
  8
1
390
0
 62
    11
100
AcDbVertex
100
AcDb2dVertex
 10
179.540008
 20
180.59283
 30
0.0
  0
VERTEX
  5
383
100
AcDbEntity
  8
1
390
0
 62
    11
100
AcDbVertex
100
AcDb2dVertex
 10
175.040008
 20
181.49283
 30
0.0
  0
SEQEND
  5
384
100
AcDbEntity
  8
0
390
0
  0
ENDBLK
  5
385
100
AcDbEntity
  8
0
390
0
100
AcDbBlockEnd
  0
BLOCK
  5
388
100
AcDbEntity
  8
0
390
0
100
AcDbBlockBegin
  2
AID1184
 70
     0
 10
0.0
 20
0.0
 30
0.0
  3
D_GROUP
  1

  0
MTEXT
  5
389
100
AcDbEntity
  8
1
390
0
 62
     2
100
AcDbMText
 10
186.349099
 20
94.55735
 30
0.0
 40
6.0
 41
9.490909
 71
     7
 72
     1
  1
Φ
210
0.0
220
0.0
230
1.0
 73
     1
 44
1.0
  0
MTEXT
  5
38A
100
AcDbEntity
  8
1
390
0
 62
     2
100
AcDbMText
 10
192.294554
 20
94.55735
 30
0.0
 40
6.0
 41
5.563636
 71
     7
 72
     1
  1
2
210
0.0
220
0.0
230
1.0
 73
     1
 44
1.0
  0
LINE
  5
38B
100
AcDbEntity
  8
1
390
0
  6
Continuous
 62
    11
100
AcDbLine
 10
196.030917
 20
93.411895
 30
0.0
 11
170.140008
 21
93.411895
 31
0.0
  0
POLYLINE
  5
38C
100
AcDbEntity
  8
1
390
0
  6
Continuous
 62
    11
100
AcDb2dPolyline
 66
     1
 10
0.0
 20
0.0
 30
0.0
 40
3.0
 41
3.0
  0
VERTEX
  5
38D
100
AcDbEntity
  8
1
390
0
 62
    11
100
AcDbVertex
100
AcDb2dVertex
 10
185.640008
 20
94.311895
 30
0.0
  0
VERTEX
  5
38E
100
AcDbEntity
  8
1
390
0
 62
    11
100
AcDbVertex
100
AcDb2dVertex
 10
181.140008
 20
93.411895
 30
0.0
  0
VERTEX
  5
38F
100
AcDbEntity
  8
1
390
0
 62
    11
100
AcDbVertex
100
AcDb2dVertex
 10
185.640008
 20
92.511895
 30
0.0
  0
SEQEND
  5
390
100
AcDbEntity
  8
0
390
0
  0
POLYLINE
  5
391
100
AcDbEntity
  8
1
390
0
  6
Continuous
 62
    11
100
AcDb2dPolyline
 66
     1
 10
0.0
 20
0.0
 30
0.0
 40
3.0
 41
3.0
  0
VERTEX
  5
392
100
AcDbEntity
  8
1
390
0
 62
    11
100
AcDbVertex
100
AcDb2dVertex
 10
174.640008
 20
92.511895
 30
0.0
  0
VERTEX
  5
393
100
AcDbEntity
  8
1
390
0
 62
    11
100
AcDbVertex
100
AcDb2dVertex
 10
179.140008
 20
93.411895
 30
0.0
  0
VERTEX
  5
394
100
AcDbEntity
  8
1
390
0
 62
    11
100
AcDbVertex
100
AcDb2dVertex
 10
174.640008
 20
94.311895
 30
0.0
  0
SEQEND
  5
395
100
AcDbEntity
  8
0
390
0
  0
ENDBLK
  5
396
100
AcDbEntity
  8
0
390
0
100
AcDbBlockEnd
  0
BLOCK
  5
39A
100
AcDbEntity
  8
0
390
0
100
AcDbBlockBegin
  2
AID1197
 70
     0
 10
0.0
 20
0.0
 30
0.0
  3
D_GROUP
  1

  0
MTEXT
  5
39B
100
AcDbEntity
  8
1
390
0
 62
     2
100
AcDbMText
 10
236.626092
 20
200.51531
 30
0.0
 40
6.0
 41
25.963636
 71
     7
 72
     1
  1
1000
210
0.0
220
0.0
230
1.0
 73
     1
 44
1.0
  0
LINE
  5
39C
100
AcDbEntity
  8
1
390
0
  6
Continuous
 62
    11
100
AcDbLine
 10
304.56672
 20
199.369855
 30
0.0
 11
183.140008
 21
199.369855
 31
0.0
  0
LINE
  5
39D
100
AcDbEntity
  8
1
390
0
  6
Continuous
 62
    11
100
AcDbLine
 10
304.56672
 20
213.975346
 30
0.0
 11
304.56672
 21
197.569855
 31
0.0
  0
LINE
  5
39E
100
AcDbEntity
  8
1
390
0
  6
Continuous
 62
    11
100
AcDbLine
 10
183.140008
 20
216.200346
 30
0.0
 11
183.140008
 21
197.569855
 31
0.0
  0
POLYLINE
  5
39F
100
AcDbEntity
  8
1
390
0
  6
Continuous
 62
    11
100
AcDb2dPolyline
 66
     1
 10
0.0
 20
0.0
 30
0.0
 40
3.0
 41
3.0
  0
VERTEX
  5
3A0
100
AcDbEntity
  8
1
390
0
 62
    11
100
AcDbVertex
100
AcDb2dVertex
 10
300.06672
 20
200.269855
 30
0.0
  0
VERTEX
  5
3A1
100
AcDbEntity
  8
1
390
0
 62
    11
100
AcDbVertex
100
AcDb2dVertex
 10
304.56672
 20
199.369855
 30
0.0
  0
VERTEX
  5
3A2
100
AcDbEntity
  8
1
390
0
 62
    11
100
AcDbVertex
100
AcDb2dVertex
 10
300.06672
 20
198.469855
 30
0.0
  0
SEQEND
  5
3A3
100
AcDbEntity
  8
0
390
0
  0
POLYLINE
  5
3A4
100
AcDbEntity
  8
1
390
0
  6
Continuous
 62
    11
100
AcDb2dPolyline
 66
     1
 10
0.0
 20
0.0
 30
0.0
 40
3.0
 41
3.0
  0
VERTEX
  5
3A5
100
AcDbEntity
  8
1
390
0
 62
    11
100
AcDbVertex
100
AcDb2dVertex
 10
187.640008
 20
198.469855
 30
0.0
  0
VERTEX
  5
3A6
100
AcDbEntity
  8
1
390
0
 62
    11
100
AcDbVertex
100
AcDb2dVertex
 10
183.140008
 20
199.369855
 30
0.0
  0
VERTEX
  5
3A7
100
AcDbEntity
  8
1
390
0
 62
    11
100
AcDbVertex
100
AcDb2dVertex
 10
187.640008
 20
200.269855
 30
0.0
  0
SEQEND
  5
3A8
100
AcDbEntity
  8
0
390
0
  0
ENDBLK
  5
3A9
100
AcDbEntity
  8
0
390
0
100
AcDbBlockEnd
  0
BLOCK
  5
3AC
100
AcDbEntity
  8
0
390
0
100
AcDbBlockBegin
  2
AID1210
 70
     0
 10
0.0
 20
0.0
 30
0.0
  3
D_GROUP
  1

  0
MTEXT
  5
3AD
100
AcDbEntity
  8
1
390
0
 62
     7
100
AcDbMText
 10
323.414596
 20
31.625502
 30
0.0
 40
5.0
 41
14.045455
 71
     7
 72
     1
  1
1：1
210
0.0
220
0.0
230
1.0
 73
     1
 44
1.0
  0
ENDBLK
  5
3AE
100
AcDbEntity
  8
0
390
0
100
AcDbBlockEnd
  0
BLOCK
  5
3B1
100
AcDbEntity
  8
0
390
0
100
AcDbBlockBegin
  2
AID1213
 70
     0
 10
0.0
 20
0.0
 30
0.0
  3
D_GROUP
  1

  0
MTEXT
  5
3B2
100
AcDbEntity
  8
1
390
0
 62
     7
100
AcDbMText
 10
353.377492
 20
39.556804
 30
0.0
 40
4.0
 41
106.981818
 71
     7
 72
     1
  1
エジェクタピン形圧力センサ
210
0.0
220
0.0
230
1.0
 73
     1
 44
1.0
  0
ENDBLK
  5
3B3
100
AcDbEntity
  8
0
390
0
100
AcDbBlockEnd
  0
BLOCK
  5
3B6
100
AcDbEntity
  8
0
390
0
100
AcDbBlockBegin
  2
AID1216
 70
     0
 10
0.0
 20
0.0
 30
0.0
  3
D_GROUP
  1

  0
MTEXT
  5
3B7
100
AcDbEntity
  8
1
390
0
 62
     7
100
AcDbMText
 10
362.247569
 20
29.105251
 30
0.0
 40
4.0
 41
68.181818
 71
     7
 72
     1
  1
SSEBQ-01.2X100
210
0.0
220
0.0
230
1.0
 73
     1
 44
1.0
  0
ENDBLK
  5
3B8
100
AcDbEntity
  8
0
390
0
100
AcDbBlockEnd
  0
ENDSEC
  0
SECTION
  2
ENTITIES
  0
LINE
  5
28
100
AcDbEntity
  8
256
390
0
  6
Continuous
 62
     8
100
AcDbLine
 10
222.0
 20
34.5
 30
0.0
 11
271.0
 21
34.5
 31
0.0
  0
LINE
  5
29
100
AcDbEntity
  8
256
390
0
  6
Continuous
 62
     8
100
AcDbLine
 10
390.25
 20
277.0
 30
0.0
 11
390.25
 21
287.0
 31
0.0
  0
LINE
  5
2A
100
AcDbEntity
  8
256
390
0
  6
Continuous
 62
     8
100
AcDbLine
 10
229.511017
 20
262.368011
 30
0.0
 11
234.511017
 21
262.368011
 31
0.0
  0
LINE
  5
2B
100
AcDbEntity
  8
256
390
0
  6
Continuous
 62
     8
100
AcDbLine
 10
222.0
 20
38.0
 30
0.0
 11
271.0
 21
38.0
 31
0.0
  0
LINE
  5
2C
100
AcDbEntity
  8
256
390
0
  6
Continuous
 62
     8
100
AcDbLine
 10
237.0
 20
287.0
 30
0.0
 11
237.0
 21
257.0
 31
0.0
  0
LINE
  5
2D
100
AcDbEntity
  8
256
390
0
  6
Continuous
 62
     8
100
AcDbLine
 10
303.8
 20
48.0
 30
0.0
 11
303.8
 21
10.0
 31
0.0
  0
LINE
  5
2E
100
AcDbEntity
  8
256
390
0
  6
Continuous
 62
     8
100
AcDbLine
 10
385.25
 20
277.0
 30
0.0
 11
385.25
 21
287.0
 31
0.0
  0
LINE
  5
2F
100
AcDbEntity
  8
256
390
0
  6
Continuous
 62
     8
100
AcDbLine
 10
287.4
 20
31.0
 30
0.0
 11
287.4
 21
10.0
 31
0.0
  0
LINE
  5
30
100
AcDbEntity
  8
256
390
0
  6
Continuous
 62
     8
100
AcDbLine
 10
253.750031
 20
44.0
 30
0.0
 11
253.750031
 21
10.0
 31
0.0
  0
LINE
  5
31
100
AcDbEntity
  8
256
390
0
  6
Continuous
 62
     8
100
AcDbLine
 10
410.0
 20
10.0
 30
0.0
 11
410.0
 21
287.0
 31
0.0
  0
LINE
  5
32
100
AcDbEntity
  8
256
390
0
  6
Continuous
 62
     8
100
AcDbLine
 10
335.25
 20
15.666667
 30
0.0
 11
335.25
 21
48.0
 31
0.0
  0
LINE
  5
33
100
AcDbEntity
  8
256
390
0
  6
Continuous
 62
     8
100
AcDbLine
 10
410.0
 20
287.0
 30
0.0
 11
10.0
 21
287.0
 31
0.0
  0
LINE
  5
34
100
AcDbEntity
  8
256
390
0
  6
Continuous
 62
     8
100
AcDbLine
 10
362.0
 20
287.0
 30
0.0
 11
362.0
 21
257.0
 31
0.0
  0
LINE
  5
35
100
AcDbEntity
  8
256
390
0
  6
Continuous
 62
     8
100
AcDbLine
 10
410.0
 20
267.0
 30
0.0
 11
227.0
 21
267.0
 31
0.0
  0
LINE
  5
36
100
AcDbEntity
  8
256
390
0
  6
Continuous
 62
     8
100
AcDbLine
 10
410.0
 20
277.0
 30
0.0
 11
227.0
 21
277.0
 31
0.0
  0
LINE
  5
37
100
AcDbEntity
  8
256
390
0
  6
Continuous
 62
     8
100
AcDbLine
 10
271.0
 20
41.0
 30
0.0
 11
335.25
 21
41.0
 31
0.0
  0
LINE
  5
38
100
AcDbEntity
  8
256
390
0
  6
Continuous
 62
     8
100
AcDbLine
 10
222.0
 20
44.0
 30
0.0
 11
271.0
 21
44.0
 31
0.0
  0
LINE
  5
39
100
AcDbEntity
  8
256
390
0
  6
Continuous
 62
     8
100
AcDbLine
 10
232.011017
 20
261.664886
 30
0.0
 11
229.511017
 21
257.368011
 31
0.0
  0
LINE
  5
3A
100
AcDbEntity
  8
256
390
0
  6
Continuous
 62
     8
100
AcDbLine
 10
248.000031
 20
38.0
 30
0.0
 11
222.0
 21
44.0
 31
0.0
  0
LINE
  5
3B
100
AcDbEntity
  8
256
390
0
  6
Continuous
 62
     8
100
AcDbLine
 10
357.0
 20
262.0
 30
0.0
 11
227.0
 21
262.0
 31
0.0
  0
LINE
  5
3C
100
AcDbEntity
  8
256
390
0
  6
Continuous
 62
     8
100
AcDbLine
 10
222.0
 20
31.0
 30
0.0
 11
320.25
 21
31.0
 31
0.0
  0
LINE
  5
3D
100
AcDbEntity
  8
256
390
0
  6
Continuous
 62
     8
100
AcDbLine
 10
234.511017
 20
267.368011
 30
0.0
 11
232.011017
 21
271.664886
 31
0.0
  0
LINE
  5
3E
100
AcDbEntity
  8
256
390
0
  6
Continuous
 62
     8
100
AcDbLine
 10
385.25
 20
282.0
 30
0.0
 11
362.0
 21
282.0
 31
0.0
  0
LINE
  5
3F
100
AcDbEntity
  8
256
390
0
  6
Continuous
 62
     8
100
AcDbLine
 10
10.0
 20
10.0
 30
0.0
 11
410.0
 21
10.0
 31
0.0
  0
LINE
  5
40
100
AcDbEntity
  8
256
390
0
  6
Continuous
 62
     8
100
AcDbLine
 10
222.0
 20
48.0
 30
0.0
 11
410.0
 21
48.0
 31
0.0
  0
LINE
  5
41
100
AcDbEntity
  8
256
390
0
  6
Continuous
 62
     8
100
AcDbLine
 10
227.000031
 20
10.0
 30
0.0
 11
410.0
 21
10.0
 31
0.0
  0
LINE
  5
42
100
AcDbEntity
  8
256
390
0
  6
Continuous
 62
     8
100
AcDbLine
 10
342.0
 20
287.0
 30
0.0
 11
342.0
 21
257.0
 31
0.0
  0
LINE
  5
43
100
AcDbEntity
  8
256
390
0
  6
Continuous
 62
     8
100
AcDbLine
 10
222.0
 20
13.5
 30
0.0
 11
271.000031
 21
13.5
 31
0.0
  0
LINE
  5
44
100
AcDbEntity
  8
256
390
0
  6
Continuous
 62
     8
100
AcDbLine
 10
222.0
 20
20.5
 30
0.0
 11
271.0
 21
20.5
 31
0.0
  0
LINE
  5
45
100
AcDbEntity
  8
256
390
0
  6
Continuous
 62
     8
100
AcDbLine
 10
222.0
 20
27.5
 30
0.0
 11
271.0
 21
27.5
 31
0.0
  0
LINE
  5
46
100
AcDbEntity
  8
256
390
0
  6
Continuous
 62
     8
100
AcDbLine
 10
248.000031
 20
44.0
 30
0.0
 11
248.000031
 21
10.0
 31
0.0
  0
LINE
  5
47
100
AcDbEntity
  8
256
390
0
  6
Continuous
 62
     8
100
AcDbLine
 10
222.0
 20
48.0
 30
0.0
 11
222.0
 21
10.0
 31
0.0
  0
LINE
  5
48
100
AcDbEntity
  8
256
390
0
  6
Continuous
 62
     8
100
AcDbLine
 10
232.011017
 20
276.664886
 30
0.0
 11
229.511017
 21
272.368011
 31
0.0
  0
LINE
  5
49
100
AcDbEntity
  8
256
390
0
  6
Continuous
 62
     8
100
AcDbLine
 10
357.0
 20
282.0
 30
0.0
 11
227.0
 21
282.0
 31
0.0
  0
LINE
  5
4A
100
AcDbEntity
  8
256
390
0
  6
Continuous
 62
     8
100
AcDbLine
 10
229.511017
 20
267.368011
 30
0.0
 11
234.511017
 21
267.368011
 31
0.0
  0
LINE
  5
4B
100
AcDbEntity
  8
256
390
0
  6
Continuous
 62
     8
100
AcDbLine
 10
222.0
 20
24.0
 30
0.0
 11
271.0
 21
24.0
 31
0.0
  0
LINE
  5
4C
100
AcDbEntity
  8
256
390
0
  6
Continuous
 62
     8
100
AcDbLine
 10
232.011017
 20
281.664886
 30
0.0
 11
229.511017
 21
277.368011
 31
0.0
  0
LINE
  5
4D
100
AcDbEntity
  8
256
390
0
  6
Continuous
 62
     8
100
AcDbLine
 10
265.250031
 20
44.0
 30
0.0
 11
265.250031
 21
10.0
 31
0.0
  0
LINE
  5
4E
100
AcDbEntity
  8
256
390
0
  6
Continuous
 62
     8
100
AcDbLine
 10
229.511017
 20
277.368011
 30
0.0
 11
234.511017
 21
277.368011
 31
0.0
  0
LINE
  5
4F
100
AcDbEntity
  8
256
390
0
  6
Continuous
 62
     8
100
AcDbLine
 10
320.25
 20
10.0
 30
0.0
 11
320.25
 21
48.0
 31
0.0
  0
LINE
  5
50
100
AcDbEntity
  8
256
390
0
  6
Continuous
 62
     8
100
AcDbLine
 10
232.011017
 20
271.664886
 30
0.0
 11
229.511017
 21
267.368011
 31
0.0
  0
LINE
  5
51
100
AcDbEntity
  8
256
390
0
  6
Continuous
 62
     8
100
AcDbLine
 10
234.511017
 20
277.368011
 30
0.0
 11
232.011017
 21
281.664886
 31
0.0
  0
LINE
  5
52
100
AcDbEntity
  8
256
390
0
  6
Continuous
 62
     8
100
AcDbLine
 10
222.0
 20
17.0
 30
0.0
 11
271.0
 21
17.0
 31
0.0
  0
LINE
  5
53
100
AcDbEntity
  8
256
390
0
  6
Continuous
 62
     8
100
AcDbLine
 10
271.0
 20
48.0
 30
0.0
 11
271.0
 21
10.0
 31
0.0
  0
LINE
  5
54
100
AcDbEntity
  8
256
390
0
  6
Continuous
 62
     8
100
AcDbLine
 10
357.0
 20
287.0
 30
0.0
 11
357.0
 21
257.0
 31
0.0
  0
LINE
  5
55
100
AcDbEntity
  8
256
390
0
  6
Continuous
 62
     8
100
AcDbLine
 10
335.25
 20
35.0
 30
0.0
 11
410.0
 21
35.0
 31
0.0
  0
LINE
  5
56
100
AcDbEntity
  8
256
390
0
  6
Continuous
 62
     8
100
AcDbLine
 10
227.0
 20
287.0
 30
0.0
 11
227.0
 21
257.0
 31
0.0
  0
LINE
  5
57
100
AcDbEntity
  8
256
390
0
  6
Continuous
 62
     8
100
AcDbLine
 10
327.0
 20
287.0
 30
0.0
 11
327.0
 21
257.0
 31
0.0
  0
LINE
  5
58
100
AcDbEntity
  8
256
390
0
  6
Continuous
 62
     8
100
AcDbLine
 10
229.511017
 20
272.368011
 30
0.0
 11
234.511017
 21
272.368011
 31
0.0
  0
LINE
  5
59
100
AcDbEntity
  8
256
390
0
  6
Continuous
 62
     8
100
AcDbLine
 10
259.500031
 20
44.0
 30
0.0
 11
259.500031
 21
10.0
 31
0.0
  0
LINE
  5
5A
100
AcDbEntity
  8
256
390
0
  6
Continuous
 62
     8
100
AcDbLine
 10
320.25
 20
15.666667
 30
0.0
 11
410.0
 21
15.666667
 31
0.0
  0
LINE
  5
5B
100
AcDbEntity
  8
256
390
0
  6
Continuous
 62
     8
100
AcDbLine
 10
229.511017
 20
257.368011
 30
0.0
 11
234.511017
 21
257.368011
 31
0.0
  0
LINE
  5
5C
100
AcDbEntity
  8
256
390
0
  6
Continuous
 62
     8
100
AcDbLine
 10
232.011017
 20
266.664886
 30
0.0
 11
229.511017
 21
262.368011
 31
0.0
  0
LINE
  5
5D
100
AcDbEntity
  8
256
390
0
  6
Continuous
 62
     8
100
AcDbLine
 10
410.0
 20
257.0
 30
0.0
 11
227.0
 21
257.0
 31
0.0
  0
LINE
  5
5E
100
AcDbEntity
  8
256
390
0
  6
Continuous
 62
     8
100
AcDbLine
 10
234.511017
 20
257.368011
 30
0.0
 11
232.011017
 21
261.664886
 31
0.0
  0
LINE
  5
5F
100
AcDbEntity
  8
256
390
0
  6
Continuous
 62
     8
100
AcDbLine
 10
271.0
 20
26.5
 30
0.0
 11
410.0
 21
26.5
 31
0.0
  0
LINE
  5
60
100
AcDbEntity
  8
256
390
0
  6
Continuous
 62
     8
100
AcDbLine
 10
10.0
 20
10.0
 30
0.0
 11
10.0
 21
287.0
 31
0.0
  0
LINE
  5
61
100
AcDbEntity
  8
256
390
0
  6
Continuous
 62
     8
100
AcDbLine
 10
234.511017
 20
262.368011
 30
0.0
 11
232.011017
 21
266.664886
 31
0.0
  0
LINE
  5
62
100
AcDbEntity
  8
256
390
0
  6
Continuous
 62
     8
100
AcDbLine
 10
350.25
 20
15.666667
 30
0.0
 11
350.25
 21
48.0
 31
0.0
  0
LINE
  5
63
100
AcDbEntity
  8
256
390
0
  6
Continuous
 62
     8
100
AcDbLine
 10
307.164695
 20
32.573373
 30
0.0
 11
314.235801
 21
39.644442
 31
0.0
  0
LINE
  5
64
100
AcDbEntity
  8
256
390
0
  6
Continuous
 62
     8
100
AcDbLine
 10
357.0
 20
272.0
 30
0.0
 11
227.0
 21
272.0
 31
0.0
  0
LINE
  5
65
100
AcDbEntity
  8
256
390
0
  6
Continuous
 62
     8
100
AcDbLine
 10
234.511017
 20
272.368011
 30
0.0
 11
232.011017
 21
276.664886
 31
0.0
  0
MTEXT
  5
66
100
AcDbEntity
  8
256
390
0
 62
     8
100
AcDbMText
 10
262.375031
 20
28.244792
 30
0.0
 40
1.75
 41
4.55
 71
     8
 72
     1
  1
0.5  
210
0.0
220
0.0
230
1.0
 73
     1
 44
1.0
  0
MTEXT
  5
67
100
AcDbEntity
  8
256
390
0
 62
     8
100
AcDbMText
 10
250.875031
 20
21.244792
 30
0.0
 40
1.75
 41
4.55
 71
     8
 72
     1
  1
0.2  
210
0.0
220
0.0
230
1.0
 73
     1
 44
1.0
  0
MTEXT
  5
68
100
AcDbEntity
  8
256
390
0
 62
     8
100
AcDbMText
 10
250.875031
 20
28.244792
 30
0.0
 40
1.75
 41
3.993182
 71
     8
 72
     1
  1
0.1  
210
0.0
220
0.0
230
1.0
 73
     1
 44
1.0
  0
MTEXT
  5
69
100
AcDbEntity
  8
256
390
0
 62
     8
100
AcDbMText
 10
250.875031
 20
17.744792
 30
0.0
 40
1.75
 41
4.55
 71
     8
 72
     1
  1
0.3  
210
0.0
220
0.0
230
1.0
 73
     1
 44
1.0
  0
MTEXT
  5
6A
100
AcDbEntity
  8
256
390
0
 62
     8
100
AcDbMText
 10
287.02719
 20
42.856306
 30
0.0
 40
3.386667
 41
24.56873
 71
     8
 72
     1
  1
材    質  
210
0.0
220
0.0
230
0.9999999999999999
 73
     1
 44
1.0
  0
MTEXT
  5
6B
100
AcDbEntity
  8
256
390
0
 62
     8
100
AcDbMText
 10
256.625031
 20
35.244792
 30
0.0
 40
1.75
 41
3.993182
 71
     8
 72
     1
  1
0.1  
210
0.0
220
0.0
230
1.0
 73
     1
 44
1.0
  0
MTEXT
  5
6C
100
AcDbEntity
  8
256
390
0
 62
     8
100
AcDbMText
 10
268.125015
 20
14.244792
 30
0.0
 40
1.75
 41
1.590909
 71
     8
 72
     1
  1
6  
210
0.0
220
0.0
230
1.0
 73
     1
 44
1.0
  0
MTEXT
  5
6D
100
AcDbEntity
  8
256
390
0
 62
     8
100
AcDbMText
 10
268.125015
 20
21.244792
 30
0.0
 40
1.75
 41
4.486364
 71
     8
 72
     1
  1
2.5  
210
0.0
220
0.0
230
1.0
 73
     1
 44
1.0
  0
MTEXT
  5
6E
100
AcDbEntity
  8
256
390
0
 62
     8
100
AcDbMText
 10
312.52208
 20
42.980576
 30
0.0
 40
3.386667
 41
17.518305
 71
     8
 72
     1
  1
個 数  
210
0.0
220
0.0
230
0.9999999999999999
 73
     1
 44
1.0
  0
MTEXT
  5
6F
100
AcDbEntity
  8
256
390
0
 62
     8
100
AcDbMText
 10
360.130196
 20
257.742347
 30
0.0
 40
2.822222
 41
5.926666
 71
     8
 72
     1
  1
理  
210
0.0
220
0.0
230
1.0
 73
     1
 44
1.0
  0
MTEXT
  5
70
100
AcDbEntity
  8
256
390
0
 62
     8
100
AcDbMText
 10
257.063488
 20
41.133356
 30
0.0
 40
1.7952
 41
7.6704
 71
     8
 72
     1
  1
中級  
210
0.0
220
0.0
230
1.0
 73
     1
 44
1.0
  0
MTEXT
  5
71
100
AcDbEntity
  8
256
390
0
 62
     8
100
AcDbMText
 10
268.763424
 20
39.076539
 30
0.0
 40
2.0
 41
7.581818
 71
     8
 72
     1
  1
v %%p  
210
0.0
220
0.0
230
1.0
 73
     1
 44
1.0
  0
MTEXT
  5
72
100
AcDbEntity
  8
256
390
0
 62
     8
100
AcDbMText
 10
246.361108
 20
10.744792
 30
0.0
 40
1.75
 41
35.111364
 71
     9
 72
     1
  1
2000を超え4000以下  
210
0.0
220
0.0
230
1.0
 73
     1
 44
1.0
  0
MTEXT
  5
73
100
AcDbEntity
  8
256
390
0
 62
     8
100
AcDbMText
 10
315.229673
 20
32.880846
 30
0.0
 40
3.386667
 41
10.375516
 71
     8
 72
     1
  1
1台  
210
0.0
220
0.0
230
0.9999999999999999
 73
     1
 44
1.0
  0
MTEXT
  5
74
100
AcDbEntity
  8
256
390
0
 62
     8
100
AcDbMText
 10
246.383663
 20
21.244792
 30
0.0
 40
1.75
 41
32.056818
 71
     9
 72
     1
  1
 120を超え 400以下  
210
0.0
220
0.0
230
1.0
 73
     1
 44
1.0
  0
MTEXT
  5
75
100
AcDbEntity
  8
256
390
0
 62
     8
100
AcDbMText
 10
388.380196
 20
278.047566
 30
0.0
 40
3.386667
 41
6.958061
 71
     8
 72
     1
  1
取  
210
0.0
220
0.0
230
0.9999999999999999
 73
     1
 44
1.0
  0
MTEXT
  5
76
100
AcDbEntity
  8
256
390
0
 62
     8
100
AcDbMText
 10
388.380196
 20
282.575181
 30
0.0
 40
3.386667
 41
6.68097
 71
     8
 72
     1
  1
面  
210
0.0
220
0.0
230
0.9999999999999999
 73
     1
 44
1.0
  0
MTEXT
  5
77
100
AcDbEntity
  8
256
390
0
 62
     8
100
AcDbMText
 10
230.223858
 20
38.623908
 30
0.0
 40
1.5
 41
24.272727
 71
     8
 72
     1
  1
寸法の区分(mm)  
210
0.0
220
0.0
230
1.0
 73
     1
 44
1.0
  0
MTEXT
  5
78
100
AcDbEntity
  8
256
390
0
 62
     8
100
AcDbMText
 10
343.211504
 20
19.692223
 30
0.0
 40
3.386667
 41
16.902547
 71
     8
 72
     1
  1
図 番  
210
0.0
220
0.0
230
0.9999999999999999
 73
     1
 44
1.0
  0
MTEXT
  5
79
100
AcDbEntity
  8
256
390
0
 62
     8
100
AcDbMText
 10
262.375031
 20
31.744792
 30
0.0
 40
1.75
 41
4.55
 71
     8
 72
     1
  1
0.3  
210
0.0
220
0.0
230
1.0
 73
     1
 44
1.0
  0
MTEXT
  5
7A
100
AcDbEntity
  8
256
390
0
 62
     8
100
AcDbMText
 10
360.130196
 20
268.089407
 30
0.0
 40
3.386667
 41
7.112001
 71
     8
 72
     1
  1
理  
210
0.0
220
0.0
230
0.9999999999999999
 73
     1
 44
1.0
  0
MTEXT
  5
7B
100
AcDbEntity
  8
256
390
0
 62
     8
100
AcDbMText
 10
246.369552
 20
14.244792
 30
0.0
 40
1.75
 41
34.888636
 71
     9
 72
     1
  1
1000を超え2000以下  
210
0.0
220
0.0
230
1.0
 73
     1
 44
1.0
  0
MTEXT
  5
7C
100
AcDbEntity
  8
256
390
0
 62
     8
100
AcDbMText
 10
268.125015
 20
24.744792
 30
0.0
 40
1.75
 41
4.263636
 71
     8
 72
     1
  1
1.5  
210
0.0
220
0.0
230
1.0
 73
     1
 44
1.0
  0
MTEXT
  5
7D
100
AcDbEntity
  8
256
390
0
 62
     8
100
AcDbMText
 10
262.375031
 20
35.244792
 30
0.0
 40
1.75
 41
4.55
 71
     8
 72
     1
  1
0.2  
210
0.0
220
0.0
230
1.0
 73
     1
 44
1.0
  0
MTEXT
  5
7E
100
AcDbEntity
  8
256
390
0
 62
     8
100
AcDbMText
 10
351.983257
 20
283.013492
 30
0.0
 40
3.386667
 41
21.551517
 71
     8
 72
     1
  1
年月日     
210
0.0
220
0.0
230
0.9999999999999999
 73
     1
 44
1.0
  0
MTEXT
  5
7F
100
AcDbEntity
  8
256
390
0
 62
     8
100
AcDbMText
 10
250.875031
 20
31.744792
 30
0.0
 40
1.75
 41
6.586364
 71
     8
 72
     1
  1
0.05  
210
0.0
220
0.0
230
1.0
 73
     1
 44
1.0
  0
MTEXT
  5
80
100
AcDbEntity
  8
256
390
0
 62
     8
100
AcDbMText
 10
250.875031
 20
35.244792
 30
0.0
 40
1.75
 41
6.586364
 71
     8
 72
     1
  1
0.05  
210
0.0
220
0.0
230
1.0
 73
     1
 44
1.0
  0
MTEXT
  5
81
100
AcDbEntity
  8
256
390
0
 62
     8
100
AcDbMText
 10
262.375031
 20
10.744792
 30
0.0
 40
1.75
 41
1.765909
 71
     8
 72
     1
  1
4  
210
0.0
220
0.0
230
1.0
 73
     1
 44
1.0
  0
MTEXT
  5
82
100
AcDbEntity
  8
256
390
0
 62
     8
100
AcDbMText
 10
343.259623
 20
40.051182
 30
0.0
 40
3.386667
 41
17.210426
 71
     8
 72
     1
  1
名 称  
210
0.0
220
0.0
230
0.9999999999999999
 73
     1
 44
1.0
  0
MTEXT
  5
83
100
AcDbEntity
  8
256
390
0
 62
     8
100
AcDbMText
 10
280.042689
 20
27.073014
 30
0.0
 40
3.386667
 41
17.241214
 71
     8
 72
     1
  1
設 計  
210
0.0
220
0.0
230
0.9999999999999999
 73
     1
 44
1.0
  0
MTEXT
  5
84
100
AcDbEntity
  8
256
390
0
 62
     8
100
AcDbMText
 10
268.125015
 20
17.744792
 30
0.0
 40
1.75
 41
1.765909
 71
     8
 72
     1
  1
4  
210
0.0
220
0.0
230
1.0
 73
     1
 44
1.0
  0
MTEXT
  5
85
100
AcDbEntity
  8
256
390
0
 62
     8
100
AcDbMText
 10
256.625031
 20
28.244792
 30
0.0
 40
1.75
 41
4.55
 71
     8
 72
     1
  1
0.2  
210
0.0
220
0.0
230
1.0
 73
     1
 44
1.0
  0
MTEXT
  5
86
100
AcDbEntity
  8
256
390
0
 62
     8
100
AcDbMText
 10
246.368174
 20
17.744792
 30
0.0
 40
1.75
 41
33.138636
 71
     9
 72
     1
  1
 400を超え1000以下  
210
0.0
220
0.0
230
1.0
 73
     1
 44
1.0
  0
MTEXT
  5
87
100
AcDbEntity
  8
256
390
0
 62
     8
100
AcDbMText
 10
250.875031
 20
14.244792
 30
0.0
 40
1.75
 41
4.55
 71
     8
 72
     1
  1
0.5  
210
0.0
220
0.0
230
1.0
 73
     1
 44
1.0
  0
MTEXT
  5
88
100
AcDbEntity
  8
256
390
0
 62
     8
100
AcDbMText
 10
257.26344
 20
39.076539
 30
0.0
 40
2.0
 41
8.563636
 71
     8
 72
     1
  1
m %%p  
210
0.0
220
0.0
230
1.0
 73
     1
 44
1.0
  0
MTEXT
  5
89
100
AcDbEntity
  8
256
390
0
 62
     8
100
AcDbMText
 10
246.444454
 20
35.244792
 30
0.0
 40
1.75
 41
29.543182
 71
     9
 72
     1
  1
 0.5を超え   3以下  
210
0.0
220
0.0
230
1.0
 73
     1
 44
1.0
  0
MTEXT
  5
8A
100
AcDbEntity
  8
256
390
0
 62
     8
100
AcDbMText
 10
246.445896
 20
31.744792
 30
0.0
 40
1.75
 41
26.615909
 71
     9
 72
     1
  1
   3を超え   6以下  
210
0.0
220
0.0
230
1.0
 73
     1
 44
1.0
  0
MTEXT
  5
8B
100
AcDbEntity
  8
256
390
0
 62
     8
100
AcDbMText
 10
343.228244
 20
29.512776
 30
0.0
 40
2.54
 41
22.998545
 71
     8
 72
     1
  1
部品番号  
210
0.0
220
0.0
230
1.0
 73
     1
 44
1.0
  0
MTEXT
  5
8C
100
AcDbEntity
  8
256
390
0
 62
     8
100
AcDbMText
 10
251.19527
 20
41.133356
 30
0.0
 40
1.7952
 41
8.04576
 71
     8
 72
     1
  1
精級  
210
0.0
220
0.0
230
1.0
 73
     1
 44
1.0
  0
MTEXT
  5
8D
100
AcDbEntity
  8
256
390
0
 62
     8
100
AcDbMText
 10
246.399214
 20
24.744792
 30
0.0
 40
1.75
 41
30.243182
 71
     9
 72
     1
  1
  30を超え 120以下  
210
0.0
220
0.0
230
1.0
 73
     1
 44
1.0
  0
MTEXT
  5
8E
100
AcDbEntity
  8
256
390
0
 62
     8
100
AcDbMText
 10
262.375031
 20
24.744792
 30
0.0
 40
1.75
 41
4.565909
 71
     8
 72
     1
  1
0.8  
210
0.0
220
0.0
230
1.0
 73
     1
 44
1.0
  0
MTEXT
  5
8F
100
AcDbEntity
  8
256
390
0
 62
     8
100
AcDbMText
 10
242.4153
 20
40.925781
 30
0.0
 40
1.5
 41
13.636364
 71
     8
 72
     1
  1
公差等級  
210
0.0
220
0.0
230
1.0
 73
     1
 44
1.0
  0
MTEXT
  5
90
100
AcDbEntity
  8
256
390
0
 62
     8
100
AcDbMText
 10
246.430153
 20
28.244792
 30
0.0
 40
1.75
 41
27.395455
 71
     9
 72
     1
  1
   6を超え  30以下  
210
0.0
220
0.0
230
1.0
 73
     1
 44
1.0
  0
MTEXT
  5
91
100
AcDbEntity
  8
256
390
0
 62
     8
100
AcDbMText
 10
285.330511
 20
282.942152
 30
0.0
 40
3.386667
 41
59.482188
 71
     8
 72
     1
  1
訂    正    内    容  
210
0.0
220
0.0
230
0.9999999999999999
 73
     1
 44
1.0
  0
MTEXT
  5
92
100
AcDbEntity
  8
256
390
0
 62
     8
100
AcDbMText
 10
256.625031
 20
24.744792
 30
0.0
 40
1.75
 41
4.55
 71
     8
 72
     1
  1
0.3  
210
0.0
220
0.0
230
1.0
 73
     1
 44
1.0
  0
MTEXT
  5
93
100
AcDbEntity
  8
256
390
0
 62
     8
100
AcDbMText
 10
262.375031
 20
17.744792
 30
0.0
 40
1.75
 41
1.622727
 71
     8
 72
     1
  1
2  
210
0.0
220
0.0
230
1.0
 73
     1
 44
1.0
  0
MTEXT
  5
94
100
AcDbEntity
  8
256
390
0
 62
     8
100
AcDbMText
 10
262.375031
 20
14.244792
 30
0.0
 40
1.75
 41
1.622727
 71
     8
 72
     1
  1
3  
210
0.0
220
0.0
230
1.0
 73
     1
 44
1.0
  0
MTEXT
  5
95
100
AcDbEntity
  8
256
390
0
 62
     8
100
AcDbMText
 10
328.687321
 20
19.668163
 30
0.0
 40
3.386667
 41
22.536729
 71
     8
 72
     1
  1
三角法  
210
0.0
220
0.0
230
0.9999999999999999
 73
     1
 44
1.0
  0
MTEXT
  5
96
100
AcDbEntity
  8
256
390
0
 62
     8
100
AcDbMText
 10
365.92539
 20
11.0735
 30
0.0
 40
3.386667
 41
99.506434
 71
     8
 72
     1
  1
双 葉 電 子 工 業 株 式 会 社  
210
0.0
220
0.0
230
0.9999999999999999
 73
     1
 44
1.0
  0
MTEXT
  5
97
100
AcDbEntity
  8
256
390
0
 62
     8
100
AcDbMText
 10
256.625031
 20
17.744792
 30
0.0
 40
1.75
 41
4.565909
 71
     8
 72
     1
  1
0.8  
210
0.0
220
0.0
230
1.0
 73
     1
 44
1.0
  0
MTEXT
  5
98
100
AcDbEntity
  8
256
390
0
 62
     8
100
AcDbMText
 10
312.769883
 20
27.273035
 30
0.0
 40
3.386667
 41
17.518305
 71
     8
 72
     1
  1
承 認  
210
0.0
220
0.0
230
0.9999999999999999
 73
     1
 44
1.0
  0
MTEXT
  5
99
100
AcDbEntity
  8
256
390
0
 62
     8
100
AcDbMText
 10
268.125015
 20
28.244792
 30
0.0
 40
1.75
 41
0.843182
 71
     8
 72
     1
  1
1  
210
0.0
220
0.0
230
1.0
 73
     1
 44
1.0
  0
MTEXT
  5
9A
100
AcDbEntity
  8
256
390
0
 62
     8
100
AcDbMText
 10
247.07562
 20
45.235875
 30
0.0
 40
1.7
 41
74.846364
 71
     8
 72
     1
  1
削り加工寸法の普通許容差 JIS B 0405-1991  
210
0.0
220
0.0
230
1.0
 73
     1
 44
1.0
  0
MTEXT
  5
9B
100
AcDbEntity
  8
256
390
0
 62
     8
100
AcDbMText
 10
250.875031
 20
24.744792
 30
0.0
 40
1.75
 41
6.586364
 71
     8
 72
     1
  1
0.15  
210
0.0
220
0.0
230
1.0
 73
     1
 44
1.0
  0
MTEXT
  5
9C
100
AcDbEntity
  8
256
390
0
 62
     8
100
AcDbMText
 10
250.875031
 20
9.839584
 30
0.0
 40
2.54
 41
2.632364
 71
     8
 72
     1
  1
-  
210
0.0
220
0.0
230
1.0
 73
     1
 44
1.0
  0
MTEXT
  5
9D
100
AcDbEntity
  8
256
390
0
 62
     8
100
AcDbMText
 10
296.045235
 20
27.214792
 30
0.0
 40
3.386667
 41
17.025699
 71
     8
 72
     1
  1
検 図  
210
0.0
220
0.0
230
0.9999999999999999
 73
     1
 44
1.0
  0
MTEXT
  5
9E
100
AcDbEntity
  8
256
390
0
 62
     8
100
AcDbMText
 10
268.125015
 20
34.339584
 30
0.0
 40
2.54
 41
2.632364
 71
     8
 72
     1
  1
-  
210
0.0
220
0.0
230
1.0
 73
     1
 44
1.0
  0
MTEXT
  5
9F
100
AcDbEntity
  8
256
390
0
 62
     8
100
AcDbMText
 10
256.625031
 20
31.744792
 30
0.0
 40
1.75
 41
3.993182
 71
     8
 72
     1
  1
0.1  
210
0.0
220
0.0
230
1.0
 73
     1
 44
1.0
  0
MTEXT
  5
A0
100
AcDbEntity
  8
256
390
0
 62
     8
100
AcDbMText
 10
263.01344
 20
39.076539
 30
0.0
 40
2.0
 41
7.527273
 71
     8
 72
     1
  1
c %%p  
210
0.0
220
0.0
230
1.0
 73
     1
 44
1.0
  0
MTEXT
  5
A1
100
AcDbEntity
  8
256
390
0
 62
     8
100
AcDbMText
 10
360.130196
 20
278.047566
 30
0.0
 40
3.386667
 41
6.68097
 71
     8
 72
     1
  1
上  
210
0.0
220
0.0
230
0.9999999999999999
 73
     1
 44
1.0
  0
MTEXT
  5
A2
100
AcDbEntity
  8
256
390
0
 62
     8
100
AcDbMText
 10
232.748022
 20
282.92144
 30
0.0
 40
3.386667
 41
14.870547
 71
     8
 72
     1
  1
記号  
210
0.0
220
0.0
230
0.9999999999999999
 73
     1
 44
1.0
  0
MTEXT
  5
A3
100
AcDbEntity
  8
256
390
0
 62
     8
100
AcDbMText
 10
256.625031
 20
21.244792
 30
0.0
 40
1.75
 41
4.55
 71
     8
 72
     1
  1
0.5  
210
0.0
220
0.0
230
1.0
 73
     1
 44
1.0
  0
MTEXT
  5
A4
100
AcDbEntity
  8
256
390
0
 62
     8
100
AcDbMText
 10
256.625031
 20
10.744792
 30
0.0
 40
1.75
 41
1.622727
 71
     8
 72
     1
  1
2  
210
0.0
220
0.0
230
1.0
 73
     1
 44
1.0
  0
MTEXT
  5
A5
100
AcDbEntity
  8
256
390
0
 62
     8
100
AcDbMText
 10
262.375031
 20
21.244792
 30
0.0
 40
1.75
 41
4.263636
 71
     8
 72
     1
  1
1.2  
210
0.0
220
0.0
230
1.0
 73
     1
 44
1.0
  0
MTEXT
  5
A6
100
AcDbEntity
  8
256
390
0
 62
     8
100
AcDbMText
 10
360.130196
 20
282.575181
 30
0.0
 40
3.386667
 41
7.050425
 71
     8
 72
     1
  1
仕  
210
0.0
220
0.0
230
0.9999999999999999
 73
     1
 44
1.0
  0
MTEXT
  5
A7
100
AcDbEntity
  8
256
390
0
 62
     8
100
AcDbMText
 10
268.125015
 20
10.744792
 30
0.0
 40
1.75
 41
1.654545
 71
     8
 72
     1
  1
8  
210
0.0
220
0.0
230
1.0
 73
     1
 44
1.0
  0
MTEXT
  5
A8
100
AcDbEntity
  8
256
390
0
 62
     8
100
AcDbMText
 10
360.130196
 20
260.858133
 30
0.0
 40
2.822222
 41
5.875353
 71
     8
 72
     1
  1
処  
210
0.0
220
0.0
230
1.0
 73
     1
 44
1.0
  0
MTEXT
  5
A9
100
AcDbEntity
  8
256
390
0
 62
     8
100
AcDbMText
 10
336.870941
 20
283.013492
 30
0.0
 40
3.386667
 41
22.81382
 71
     8
 72
     1
  1
担当者     
210
0.0
220
0.0
230
0.9999999999999999
 73
     1
 44
1.0
  0
MTEXT
  5
AA
100
AcDbEntity
  8
256
390
0
 62
     8
100
AcDbMText
 10
251.577735
 20
39.076539
 30
0.0
 40
2.0
 41
6.836364
 71
     8
 72
     1
  1
f %%p  
210
0.0
220
0.0
230
1.0
 73
     1
 44
1.0
  0
MTEXT
  5
AB
100
AcDbEntity
  8
256
390
0
 62
     8
100
AcDbMText
 10
360.130196
 20
263.973919
 30
0.0
 40
2.822222
 41
5.952323
 71
     8
 72
     1
  1
熱  
210
0.0
220
0.0
230
1.0
 73
     1
 44
1.0
  0
MTEXT
  5
AC
100
AcDbEntity
  8
256
390
0
 62
     8
100
AcDbMText
 10
268.125015
 20
31.744792
 30
0.0
 40
1.75
 41
4.55
 71
     8
 72
     1
  1
0.5  
210
0.0
220
0.0
230
1.0
 73
     1
 44
1.0
  0
MTEXT
  5
AD
100
AcDbEntity
  8
256
390
0
 62
     8
100
AcDbMText
 10
328.494219
 20
43.012096
 30
0.0
 40
3.386667
 41
17.30279
 71
     8
 72
     1
  1
尺 度  
210
0.0
220
0.0
230
0.9999999999999999
 73
     1
 44
1.0
  0
MTEXT
  5
AE
100
AcDbEntity
  8
256
390
0
 62
     8
100
AcDbMText
 10
262.660189
 20
41.133356
 30
0.0
 40
1.7952
 41
7.9968
 71
     8
 72
     1
  1
粗級  
210
0.0
220
0.0
230
1.0
 73
     1
 44
1.0
  0
MTEXT
  5
AF
100
AcDbEntity
  8
256
390
0
 62
     8
100
AcDbMText
 10
225.086682
 20
40.357732
 30
0.0
 40
1.5
 41
6.640909
 71
     8
 72
     1
  1
基準  
210
0.0
220
0.0
230
1.0
 73
     1
 44
1.0
  0
MTEXT
  5
B0
100
AcDbEntity
  8
256
390
0
 62
     8
100
AcDbMText
 10
268.384088
 20
41.201556
 30
0.0
 40
1.584
 41
10.8
 71
     8
 72
     1
  1
極粗級  
210
0.0
220
0.0
230
1.0
 73
     1
 44
1.0
  0
MTEXT
  5
B1
100
AcDbEntity
  8
256
390
0
 62
     8
100
AcDbMText
 10
256.625031
 20
14.244792
 30
0.0
 40
1.75
 41
4.263636
 71
     8
 72
     1
  1
1.2  
210
0.0
220
0.0
230
1.0
 73
     1
 44
1.0
  0
MTEXT
  5
B2
100
AcDbEntity
  8
256
390
0
 62
     8
100
AcDbMText
 10
360.130196
 20
272.53334
 30
0.0
 40
3.386667
 41
7.050425
 71
     8
 72
     1
  1
処  
210
0.0
220
0.0
230
0.9999999999999999
 73
     1
 44
1.0
  0
INSERT
  5
B7
100
AcDbEntity
  8
256
390
0
100
AcDbBlockReference
  2
AID278
 10
0.0
 20
0.0
 30
0.0
  0
LINE
  5
B9
100
AcDbEntity
  8
1
390
0
  6
Continuous
 62
     7
100
AcDbLine
 10
183.140008
 20
73.699115
 30
0.0
 11
183.10277
 21
73.632503
 31
0.0
  0
POLYLINE
  5
BB
100
AcDbEntity
  8
1
390
0
  6
DOT
 62
     9
100
AcDb2dPolyline
 66
     1
 10
0.0
 20
0.0
 30
0.0
 40
3.0
 41
3.0
  0
VERTEX
  5
BC
100
AcDbEntity
  8
1
390
0
 62
     9
100
AcDbVertex
100
AcDb2dVertex
 10
182.985846
 20
73.558167
 30
0.0
  0
VERTEX
  5
BD
100
AcDbEntity
  8
1
390
0
 62
     9
100
AcDbVertex
100
AcDb2dVertex
 10
183.068375
 20
73.630093
 30
0.0
  0
VERTEX
  5
BE
100
AcDbEntity
  8
1
390
0
 62
     9
100
AcDbVertex
100
AcDb2dVertex
 10
183.099546
 20
73.633476
 30
0.0
  0
SEQEND
  5
BF
100
AcDbEntity
  8
0
390
0
  0
LINE
  5
C0
100
AcDbEntity
  8
1
390
0
  6
DOT
 62
     9
100
AcDbLine
 10
183.099546
 20
73.633476
 30
0.0
 11
183.10277
 21
73.632503
 31
0.0
  0
POLYLINE
  5
C1
100
AcDbEntity
  8
1
390
0
  6
Continuous
 62
     7
100
AcDb2dPolyline
 66
     1
 10
0.0
 20
0.0
 30
0.0
 40
3.0
 41
3.0
  0
VERTEX
  5
C2
100
AcDbEntity
  8
1
390
0
 62
     7
100
AcDbVertex
100
AcDb2dVertex
 10
183.099546
 20
73.633476
 30
0.0
  0
VERTEX
  5
C3
100
AcDbEntity
  8
1
390
0
 62
     7
100
AcDbVertex
100
AcDb2dVertex
 10
183.003966
 20
73.579051
 30
0.0
  0
VERTEX
  5
C4
100
AcDbEntity
  8
1
390
0
 62
     7
100
AcDbVertex
100
AcDb2dVertex
 10
182.985846
 20
73.558167
 30
0.0
  0
SEQEND
  5
C5
100
AcDbEntity
  8
0
390
0
  0
ARC
  5
C6
100
AcDbEntity
  8
1
390
0
  6
Continuous
 62
     7
100
AcDbCircle
 10
150.773016
 20
97.669906
 30
0.0
 40
40.237326
210
0.0
220
0.0
230
1.0
100
AcDbArc
 50
320.635128
 51
323.184651
  0
ARC
  5
C7
100
AcDbEntity
  8
1
390
0
  6
Continuous
 62
     7
100
AcDbCircle
 10
132.795028
 20
31.262611
 30
0.0
 40
63.660664
210
0.0
220
0.0
230
1.0
100
AcDbArc
 50
37.954009
 51
39.550572
  0
POLYLINE
  5
C8
100
AcDbEntity
  8
1
390
0
  6
Continuous
 62
     7
100
AcDb2dPolyline
 66
     1
 10
0.0
 20
0.0
 30
0.0
 40
3.0
 41
3.0
  0
VERTEX
  5
C9
100
AcDbEntity
  8
1
390
0
 62
     7
100
AcDbVertex
100
AcDb2dVertex
 10
182.99176
 20
70.41575
 30
0.0
  0
VERTEX
  5
CA
100
AcDbEntity
  8
1
390
0
 62
     7
100
AcDbVertex
100
AcDb2dVertex
 10
183.072295
 20
70.352728
 30
0.0
  0
VERTEX
  5
CB
100
AcDbEntity
  8
1
390
0
 62
     7
100
AcDbVertex
100
AcDb2dVertex
 10
183.09659
 20
70.351603
 30
0.0
  0
SEQEND
  5
CC
100
AcDbEntity
  8
0
390
0
  0
LINE
  5
CD
100
AcDbEntity
  8
1
390
0
  6
Continuous
 62
     7
100
AcDbLine
 10
183.108722
 20
70.354955
 30
0.0
 11
183.140008
 21
70.299115
 31
0.0
  0
LINE
  5
CE
100
AcDbEntity
  8
1
390
0
  6
DOT
 62
     9
100
AcDbLine
 10
183.117401
 20
70.339336
 30
0.0
 11
183.108722
 21
70.354955
 31
0.0
  0
POLYLINE
  5
CF
100
AcDbEntity
  8
1
390
0
  6
DOT
 62
     9
100
AcDb2dPolyline
 66
     1
 10
0.0
 20
0.0
 30
0.0
 40
3.0
 41
3.0
  0
VERTEX
  5
D0
100
AcDbEntity
  8
1
390
0
 62
     9
100
AcDbVertex
100
AcDb2dVertex
 10
183.09659
 20
70.351603
 30
0.0
  0
VERTEX
  5
D1
100
AcDbEntity
  8
1
390
0
 62
     9
100
AcDbVertex
100
AcDb2dVertex
 10
183.000358
 20
70.406212
 30
0.0
  0
VERTEX
  5
D2
100
AcDbEntity
  8
1
390
0
 62
     9
100
AcDbVertex
100
AcDb2dVertex
 10
182.99176
 20
70.41575
 30
0.0
  0
SEQEND
  5
D3
100
AcDbEntity
  8
0
390
0
  0
ARC
  5
D4
100
AcDbEntity
  8
1
390
0
  6
DOT
 62
     9
100
AcDbCircle
 10
127.257334
 20
26.817778
 30
0.0
 40
70.760932
210
0.0
220
0.0
230
1.0
100
AcDbArc
 50
38.034114
 51
39.470467
  0
ARC
  5
D5
100
AcDbEntity
  8
1
390
0
  6
DOT
 62
     9
100
AcDbCircle
 10
146.855232
 20
100.740749
 30
0.0
 40
45.214091
210
0.0
220
0.0
230
1.0
100
AcDbArc
 50
320.775462
 51
323.044317
  0
LINE
  5
D6
100
AcDbEntity
  8
1
390
0
  6
Continuous
 62
     7
100
AcDbLine
 10
183.140008
 20
73.999115
 30
0.0
 11
177.140008
 21
73.999115
 31
0.0
  0
LINE
  5
D7
100
AcDbEntity
  8
1
390
0
  6
Continuous
 62
     7
100
AcDbLine
 10
183.040008
 20
70.199115
 30
0.0
 11
177.240008
 21
70.199115
 31
0.0
  0
LINE
  5
D8
100
AcDbEntity
  8
1
390
0
  6
Continuous
 62
     7
100
AcDbLine
 10
182.440008
 20
69.999115
 30
0.0
 11
177.840008
 21
69.999115
 31
0.0
  0
POLYLINE
  5
D9
100
AcDbEntity
  8
1
390
0
  6
Continuous
 62
     7
100
AcDb2dPolyline
 66
     1
 10
0.0
 20
0.0
 30
0.0
 40
3.0
 41
3.0
  0
VERTEX
  5
DA
100
AcDbEntity
  8
1
390
0
 62
     7
100
AcDbVertex
100
AcDb2dVertex
 10
183.654604
 20
72.149115
 30
0.0
 42
0.146714
  0
VERTEX
  5
DB
100
AcDbEntity
  8
1
390
0
 62
     7
100
AcDbVertex
100
AcDb2dVertex
 10
183.560929
 20
73.247509
 30
0.0
  0
VERTEX
  5
DC
100
AcDbEntity
  8
1
390
0
 62
     7
100
AcDbVertex
100
AcDb2dVertex
 10
183.486931
 20
73.370898
 30
0.0
  0
VERTEX
  5
DD
100
AcDbEntity
  8
1
390
0
 62
     7
100
AcDbVertex
100
AcDb2dVertex
 10
183.392142
 20
73.476281
 30
0.0
  0
VERTEX
  5
DE
100
AcDbEntity
  8
1
390
0
 62
     7
100
AcDbVertex
100
AcDb2dVertex
 10
183.278688
 20
73.558737
 30
0.0
  0
VERTEX
  5
DF
100
AcDbEntity
  8
1
390
0
 62
     7
100
AcDbVertex
100
AcDb2dVertex
 10
183.166598
 20
73.611235
 30
0.0
  0
VERTEX
  5
E0
100
AcDbEntity
  8
1
390
0
 62
     7
100
AcDbVertex
100
AcDb2dVertex
 10
183.129402
 20
73.62417
 30
0.0
  0
SEQEND
  5
E1
100
AcDbEntity
  8
0
390
0
  0
POLYLINE
  5
E2
100
AcDbEntity
  8
1
390
0
  6
Continuous
 62
     7
100
AcDb2dPolyline
 66
     1
 10
0.0
 20
0.0
 30
0.0
 40
3.0
 41
3.0
  0
VERTEX
  5
E3
100
AcDbEntity
  8
1
390
0
 62
     7
100
AcDbVertex
100
AcDb2dVertex
 10
183.206719
 20
70.38613
 30
0.0
  0
VERTEX
  5
E4
100
AcDbEntity
  8
1
390
0
 62
     7
100
AcDbVertex
100
AcDb2dVertex
 10
183.334947
 20
70.445405
 30
0.0
  0
VERTEX
  5
E5
100
AcDbEntity
  8
1
390
0
 62
     7
100
AcDbVertex
100
AcDb2dVertex
 10
183.444126
 20
70.525563
 30
0.0
  0
VERTEX
  5
E6
100
AcDbEntity
  8
1
390
0
 62
     7
100
AcDbVertex
100
AcDb2dVertex
 10
183.538006
 20
70.632243
 30
0.0
  0
VERTEX
  5
E7
100
AcDbEntity
  8
1
390
0
 62
     7
100
AcDbVertex
100
AcDb2dVertex
 10
183.61252
 20
70.762471
 30
0.0
  0
VERTEX
  5
E8
100
AcDbEntity
  8
1
390
0
 62
     7
100
AcDbVertex
100
AcDb2dVertex
 10
183.650937
 20
70.860936
 30
0.0
 42
0.129024
  0
VERTEX
  5
E9
100
AcDbEntity
  8
1
390
0
 62
     7
100
AcDbVertex
100
AcDb2dVertex
 10
183.664694
 20
71.799115
 30
0.0
  0
SEQEND
  5
EA
100
AcDbEntity
  8
0
390
0
  0
LINE
  5
EB
100
AcDbEntity
  8
1
390
0
  6
Continuous
 62
     7
100
AcDbLine
 10
183.206719
 20
70.38613
 30
0.0
 11
183.09659
 21
70.351603
 31
0.0
  0
POLYLINE
  5
EC
100
AcDbEntity
  8
1
390
0
  6
Continuous
 62
     7
100
AcDb2dPolyline
 66
     1
 10
0.0
 20
0.0
 30
0.0
 40
3.0
 41
3.0
  0
VERTEX
  5
ED
100
AcDbEntity
  8
1
390
0
 62
     7
100
AcDbVertex
100
AcDb2dVertex
 10
183.664694
 20
71.799115
 30
0.0
  0
VERTEX
  5
EE
100
AcDbEntity
  8
1
390
0
 62
     7
100
AcDbVertex
100
AcDb2dVertex
 10
183.644216
 20
71.92888
 30
0.0
  0
VERTEX
  5
EF
100
AcDbEntity
  8
1
390
0
 62
     7
100
AcDbVertex
100
AcDb2dVertex
 10
183.641858
 20
72.030581
 30
0.0
  0
VERTEX
  5
F0
100
AcDbEntity
  8
1
390
0
 62
     7
100
AcDbVertex
100
AcDb2dVertex
 10
183.654604
 20
72.149115
 30
0.0
  0
SEQEND
  5
F1
100
AcDbEntity
  8
0
390
0
  0
LINE
  5
F2
100
AcDbEntity
  8
1
390
0
  6
Continuous
 62
     7
100
AcDbLine
 10
198.140008
 20
70.299115
 30
0.0
 11
198.140008
 21
73.699115
 31
0.0
  0
POLYLINE
  5
F3
100
AcDbEntity
  8
1
390
0
  6
DOT
 62
     9
100
AcDb2dPolyline
 66
     1
 10
0.0
 20
0.0
 30
0.0
 40
3.0
 41
3.0
  0
VERTEX
  5
F4
100
AcDbEntity
  8
1
390
0
 62
     9
100
AcDbVertex
100
AcDb2dVertex
 10
183.129402
 20
73.62417
 30
0.0
  0
VERTEX
  5
F5
100
AcDbEntity
  8
1
390
0
 62
     9
100
AcDbVertex
100
AcDb2dVertex
 10
183.223764
 20
73.587215
 30
0.0
  0
VERTEX
  5
F6
100
AcDbEntity
  8
1
390
0
 62
     9
100
AcDbVertex
100
AcDb2dVertex
 10
183.348276
 20
73.512608
 30
0.0
  0
VERTEX
  5
F7
100
AcDbEntity
  8
1
390
0
 62
     9
100
AcDbVertex
100
AcDb2dVertex
 10
183.45291
 20
73.413878
 30
0.0
  0
VERTEX
  5
F8
100
AcDbEntity
  8
1
390
0
 62
     9
100
AcDbVertex
100
AcDb2dVertex
 10
183.539128
 20
73.289029
 30
0.0
  0
VERTEX
  5
F9
100
AcDbEntity
  8
1
390
0
 62
     9
100
AcDbVertex
100
AcDb2dVertex
 10
183.585935
 20
73.192488
 30
0.0
 42
-0.13535
  0
VERTEX
  5
FA
100
AcDbEntity
  8
1
390
0
 62
     9
100
AcDbVertex
100
AcDb2dVertex
 10
183.654604
 20
72.149115
 30
0.0
  0
SEQEND
  5
FB
100
AcDbEntity
  8
0
390
0
  0
POLYLINE
  5
FC
100
AcDbEntity
  8
1
390
0
  6
DOT
 62
     9
100
AcDb2dPolyline
 66
     1
 10
0.0
 20
0.0
 30
0.0
 40
3.0
 41
3.0
  0
VERTEX
  5
FD
100
AcDbEntity
  8
1
390
0
 62
     9
100
AcDbVertex
100
AcDb2dVertex
 10
183.654604
 20
72.149115
 30
0.0
  0
VERTEX
  5
FE
100
AcDbEntity
  8
1
390
0
 62
     9
100
AcDbVertex
100
AcDb2dVertex
 10
183.649238
 20
72.114733
 30
0.0
  0
VERTEX
  5
FF
100
AcDbEntity
  8
1
390
0
 62
     9
100
AcDbVertex
100
AcDb2dVertex
 10
183.645191
 20
72.080126
 30
0.0
  0
VERTEX
  5
100
100
AcDbEntity
  8
1
390
0
 62
     9
100
AcDbVertex
100
AcDb2dVertex
 10
183.642523
 20
72.045071
 30
0.0
  0
VERTEX
  5
101
100
AcDbEntity
  8
1
390
0
 62
     9
100
AcDbVertex
100
AcDb2dVertex
 10
183.641319
 20
72.009917
 30
0.0
  0
VERTEX
  5
102
100
AcDbEntity
  8
1
390
0
 62
     9
100
AcDbVertex
100
AcDb2dVertex
 10
183.641613
 20
71.974747
 30
0.0
  0
VERTEX
  5
103
100
AcDbEntity
  8
1
390
0
 62
     9
100
AcDbVertex
100
AcDb2dVertex
 10
183.643386
 20
71.939611
 30
0.0
  0
VERTEX
  5
104
100
AcDbEntity
  8
1
390
0
 62
     9
100
AcDbVertex
100
AcDb2dVertex
 10
183.646603
 20
71.904621
 30
0.0
  0
VERTEX
  5
105
100
AcDbEntity
  8
1
390
0
 62
     9
100
AcDbVertex
100
AcDb2dVertex
 10
183.651315
 20
71.869183
 30
0.0
  0
VERTEX
  5
106
100
AcDbEntity
  8
1
390
0
 62
     9
100
AcDbVertex
100
AcDb2dVertex
 10
183.657381
 20
71.833989
 30
0.0
  0
VERTEX
  5
107
100
AcDbEntity
  8
1
390
0
 62
     9
100
AcDbVertex
100
AcDb2dVertex
 10
183.664694
 20
71.799115
 30
0.0
  0
SEQEND
  5
108
100
AcDbEntity
  8
0
390
0
  0
POLYLINE
  5
109
100
AcDbEntity
  8
1
390
0
  6
DOT
 62
     9
100
AcDb2dPolyline
 66
     1
 10
0.0
 20
0.0
 30
0.0
 40
3.0
 41
3.0
  0
VERTEX
  5
10A
100
AcDbEntity
  8
1
390
0
 62
     9
100
AcDbVertex
100
AcDb2dVertex
 10
183.664694
 20
71.799115
 30
0.0
 42
-0.127133
  0
VERTEX
  5
10B
100
AcDbEntity
  8
1
390
0
 62
     9
100
AcDbVertex
100
AcDb2dVertex
 10
183.655095
 20
70.87375
 30
0.0
  0
VERTEX
  5
10C
100
AcDbEntity
  8
1
390
0
 62
     9
100
AcDbVertex
100
AcDb2dVertex
 10
183.600249
 20
70.736811
 30
0.0
  0
VERTEX
  5
10D
100
AcDbEntity
  8
1
390
0
 62
     9
100
AcDbVertex
100
AcDb2dVertex
 10
183.528781
 20
70.619334
 30
0.0
  0
VERTEX
  5
10E
100
AcDbEntity
  8
1
390
0
 62
     9
100
AcDbVertex
100
AcDb2dVertex
 10
183.436309
 20
70.518698
 30
0.0
  0
VERTEX
  5
10F
100
AcDbEntity
  8
1
390
0
 62
     9
100
AcDbVertex
100
AcDb2dVertex
 10
183.32517
 20
70.439748
 30
0.0
  0
VERTEX
  5
110
100
AcDbEntity
  8
1
390
0
 62
     9
100
AcDbVertex
100
AcDb2dVertex
 10
183.206719
 20
70.38613
 30
0.0
  0
SEQEND
  5
111
100
AcDbEntity
  8
0
390
0
  0
LINE
  5
112
100
AcDbEntity
  8
1
390
0
  6
DOT
 62
     9
100
AcDbLine
 10
183.10277
 20
73.632503
 30
0.0
 11
183.129402
 21
73.62417
 31
0.0
  0
LINE
  5
113
100
AcDbEntity
  8
1
390
0
  6
Continuous
 62
     7
100
AcDbLine
 10
203.140008
 20
70.599115
 30
0.0
 11
203.140008
 21
73.399115
 31
0.0
  0
LINE
  5
114
100
AcDbEntity
  8
1
390
0
  6
Continuous
 62
     7
100
AcDbLine
 10
181.140008
 20
108.039523
 30
0.0
 11
179.140008
 21
108.039523
 31
0.0
  0
LINE
  5
115
100
AcDbEntity
  8
1
390
0
  6
Continuous
 62
     7
100
AcDbLine
 10
180.740008
 20
169.999115
 30
0.0
 11
179.540008
 21
169.999115
 31
0.0
  0
LINE
  5
116
100
AcDbEntity
  8
1
390
0
  6
Continuous
 62
     7
100
AcDbLine
 10
177.140008
 20
73.999115
 30
0.0
 11
177.140008
 21
70.299115
 31
0.0
  0
LINE
  5
117
100
AcDbEntity
  8
1
390
0
  6
Continuous
 62
     7
100
AcDbLine
 10
183.140008
 20
73.699009
 30
0.0
 11
183.140008
 21
73.699115
 31
0.0
  0
LINE
  5
118
100
AcDbEntity
  8
1
390
0
  6
Continuous
 62
     7
100
AcDbLine
 10
183.140008
 20
73.699115
 30
0.0
 11
183.140008
 21
73.999115
 31
0.0
  0
ARC
  5
119
100
AcDbEntity
  8
1
390
0
  6
Continuous
 62
     7
100
AcDbCircle
 10
177.240008
 20
70.299115
 30
0.0
 40
0.1
210
0.0
220
0.0
230
1.0
100
AcDbArc
 50
180.0
 51
270.0
  0
ARC
  5
11A
100
AcDbEntity
  8
1
390
0
  6
Continuous
 62
     7
100
AcDbCircle
 10
183.040008
 20
70.299115
 30
0.0
 40
0.1
210
0.0
220
0.0
230
1.0
100
AcDbArc
 50
270.0
 51
360.0
  0
LINE
  5
11B
100
AcDbEntity
  8
1
390
0
  6
Continuous
 62
     7
100
AcDbLine
 10
177.640008
 20
70.199115
 30
0.0
 11
177.840008
 21
69.999115
 31
0.0
  0
LINE
  5
11C
100
AcDbEntity
  8
1
390
0
  6
Continuous
 62
     7
100
AcDbLine
 10
182.440008
 20
69.999115
 30
0.0
 11
182.640008
 21
70.199115
 31
0.0
  0
LINE
  5
11D
100
AcDbEntity
  8
1
390
0
  6
Continuous
 62
     7
100
AcDbLine
 10
198.140008
 20
73.699115
 30
0.0
 11
183.140008
 21
73.699115
 31
0.0
  0
LINE
  5
11E
100
AcDbEntity
  8
1
390
0
  6
Continuous
 62
     7
100
AcDbLine
 10
183.140008
 20
70.299115
 30
0.0
 11
198.140008
 21
70.299115
 31
0.0
  0
LINE
  5
11F
100
AcDbEntity
  8
1
390
0
  6
Continuous
 62
     7
100
AcDbLine
 10
203.140008
 20
73.399115
 30
0.0
 11
198.140008
 21
73.399115
 31
0.0
  0
LINE
  5
120
100
AcDbEntity
  8
1
390
0
  6
Continuous
 62
     7
100
AcDbLine
 10
198.140008
 20
70.599115
 30
0.0
 11
203.140008
 21
70.599115
 31
0.0
  0
LINE
  5
121
100
AcDbEntity
  8
1
390
0
  6
Continuous
 62
     7
100
AcDbLine
 10
224.406462
 20
73.249115
 30
0.0
 11
203.140008
 21
73.249115
 31
0.0
  0
LINE
  5
122
100
AcDbEntity
  8
1
390
0
  6
Continuous
 62
     7
100
AcDbLine
 10
203.140008
 20
70.749115
 30
0.0
 11
223.659717
 21
70.749115
 31
0.0
  0
LINE
  5
123
100
AcDbEntity
  8
1
390
0
  6
Continuous
 62
     7
100
AcDbLine
 10
179.140008
 20
108.039523
 30
0.0
 11
179.140008
 21
73.999115
 31
0.0
  0
LINE
  5
124
100
AcDbEntity
  8
1
390
0
  6
Continuous
 62
     7
100
AcDbLine
 10
181.140008
 20
73.999115
 30
0.0
 11
181.140008
 21
108.039523
 31
0.0
  0
ARC
  5
125
100
AcDbEntity
  8
1
390
0
  6
Continuous
 62
     7
100
AcDbCircle
 10
174.540008
 20
109.999115
 30
0.0
 40
5.0
210
0.0
220
0.0
230
1.0
100
AcDbArc
 50
336.926082
 51
360.0
  0
ARC
  5
126
100
AcDbEntity
  8
1
390
0
  6
Continuous
 62
     7
100
AcDbCircle
 10
185.740008
 20
109.999115
 30
0.0
 40
5.0
210
0.0
220
0.0
230
1.0
100
AcDbArc
 50
180.0
 51
203.073918
  0
LINE
  5
127
100
AcDbEntity
  8
1
390
0
  6
Continuous
 62
     7
100
AcDbLine
 10
179.540008
 20
169.999115
 30
0.0
 11
179.540008
 21
109.999115
 31
0.0
  0
LINE
  5
128
100
AcDbEntity
  8
1
390
0
  6
Continuous
 62
     7
100
AcDbLine
 10
180.740008
 20
109.999115
 30
0.0
 11
180.740008
 21
169.999115
 31
0.0
  0
LINE
  5
129
100
AcDbEntity
  8
1
390
0
  6
Continuous
 62
     7
100
AcDbLine
 10
285.16672
 20
69.249115
 30
0.0
 11
285.16672
 21
74.749115
 31
0.0
  0
LINE
  5
12A
100
AcDbEntity
  8
1
390
0
  6
Continuous
 62
     7
100
AcDbLine
 10
285.16672
 20
69.249115
 30
0.0
 11
283.56672
 21
69.249115
 31
0.0
  0
LINE
  5
12B
100
AcDbEntity
  8
1
390
0
  6
Continuous
 62
     7
100
AcDbLine
 10
285.16672
 20
74.749115
 30
0.0
 11
283.56672
 21
74.749115
 31
0.0
  0
LINE
  5
12C
100
AcDbEntity
  8
1
390
0
  6
Continuous
 62
     7
100
AcDbLine
 10
283.56672
 20
69.249115
 30
0.0
 11
283.56672
 21
74.749115
 31
0.0
  0
LINE
  5
12D
100
AcDbEntity
  8
1
390
0
  6
Continuous
 62
     7
100
AcDbLine
 10
282.996776
 20
68.799115
 30
0.0
 11
282.996776
 21
75.199115
 31
0.0
  0
LINE
  5
12E
100
AcDbEntity
  8
1
390
0
  6
Continuous
 62
     7
100
AcDbLine
 10
278.496776
 20
75.199115
 30
0.0
 11
278.496776
 21
74.999115
 31
0.0
  0
LINE
  5
12F
100
AcDbEntity
  8
1
390
0
  6
Continuous
 62
     7
100
AcDbLine
 10
278.496776
 20
68.999115
 30
0.0
 11
278.496776
 21
68.799115
 31
0.0
  0
LINE
  5
130
100
AcDbEntity
  8
1
390
0
  6
Continuous
 62
     7
100
AcDbLine
 10
278.496776
 20
68.999115
 30
0.0
 11
276.596776
 21
68.999115
 31
0.0
  0
LINE
  5
131
100
AcDbEntity
  8
1
390
0
  6
Continuous
 62
     7
100
AcDbLine
 10
276.596776
 20
74.999115
 30
0.0
 11
276.596776
 21
68.999115
 31
0.0
  0
LINE
  5
132
100
AcDbEntity
  8
1
390
0
  6
Continuous
 62
     7
100
AcDbLine
 10
278.496776
 20
74.999115
 30
0.0
 11
276.596776
 21
74.999115
 31
0.0
  0
LINE
  5
133
100
AcDbEntity
  8
1
390
0
  6
Continuous
 62
     7
100
AcDbLine
 10
276.596776
 20
68.999115
 30
0.0
 11
276.496776
 21
68.999115
 31
0.0
  0
LINE
  5
134
100
AcDbEntity
  8
1
390
0
  6
Continuous
 62
     7
100
AcDbLine
 10
276.496776
 20
68.999115
 30
0.0
 11
276.496776
 21
74.999115
 31
0.0
  0
LINE
  5
135
100
AcDbEntity
  8
1
390
0
  6
Continuous
 62
     7
100
AcDbLine
 10
276.496776
 20
74.999115
 30
0.0
 11
276.596776
 21
74.999115
 31
0.0
  0
LINE
  5
136
100
AcDbEntity
  8
1
390
0
  6
Continuous
 62
     7
100
AcDbLine
 10
288.46672
 20
68.824115
 30
0.0
 11
288.46672
 21
75.174115
 31
0.0
  0
LINE
  5
137
100
AcDbEntity
  8
1
390
0
  6
Continuous
 62
     7
100
AcDbLine
 10
288.56672
 20
75.074115
 30
0.0
 11
288.56672
 21
68.924115
 31
0.0
  0
LINE
  5
138
100
AcDbEntity
  8
1
390
0
  6
Continuous
 62
     7
100
AcDbLine
 10
291.16672
 20
75.174115
 30
0.0
 11
291.16672
 21
71.999115
 31
0.0
  0
LINE
  5
139
100
AcDbEntity
  8
1
390
0
  6
Continuous
 62
     7
100
AcDbLine
 10
291.06672
 20
68.924115
 30
0.0
 11
291.06672
 21
75.074115
 31
0.0
  0
LINE
  5
13A
100
AcDbEntity
  8
1
390
0
  6
Continuous
 62
     7
100
AcDbLine
 10
291.16672
 20
71.999115
 30
0.0
 11
291.16672
 21
68.824115
 31
0.0
  0
LINE
  5
13B
100
AcDbEntity
  8
1
390
0
  6
Continuous
 62
     7
100
AcDbLine
 10
286.16672
 20
75.174115
 30
0.0
 11
286.16672
 21
71.999115
 31
0.0
  0
LINE
  5
13C
100
AcDbEntity
  8
1
390
0
  6
Continuous
 62
     7
100
AcDbLine
 10
286.16672
 20
71.999115
 30
0.0
 11
286.16672
 21
68.824115
 31
0.0
  0
LINE
  5
13D
100
AcDbEntity
  8
1
390
0
  6
Continuous
 62
     7
100
AcDbLine
 10
286.06672
 20
68.924115
 30
0.0
 11
286.06672
 21
75.074115
 31
0.0
  0
LINE
  5
13E
100
AcDbEntity
  8
1
390
0
  6
Continuous
 62
     7
100
AcDbLine
 10
293.46672
 20
68.824115
 30
0.0
 11
293.46672
 21
75.174115
 31
0.0
  0
LINE
  5
13F
100
AcDbEntity
  8
1
390
0
  6
Continuous
 62
     7
100
AcDbLine
 10
293.56672
 20
75.074115
 30
0.0
 11
293.56672
 21
68.924115
 31
0.0
  0
LINE
  5
140
100
AcDbEntity
  8
1
390
0
  6
Continuous
 62
     7
100
AcDbLine
 10
276.496776
 20
68.899115
 30
0.0
 11
276.496776
 21
68.999115
 31
0.0
  0
LINE
  5
141
100
AcDbEntity
  8
1
390
0
  6
Continuous
 62
     7
100
AcDbLine
 10
263.496776
 20
68.899115
 30
0.0
 11
263.496776
 21
75.099115
 31
0.0
  0
LINE
  5
142
100
AcDbEntity
  8
1
390
0
  6
Continuous
 62
     7
100
AcDbLine
 10
276.496776
 20
74.999115
 30
0.0
 11
276.496776
 21
75.099115
 31
0.0
  0
LINE
  5
143
100
AcDbEntity
  8
1
390
0
  6
Continuous
 62
     7
100
AcDbLine
 10
261.996776
 20
69.344018
 30
0.0
 11
261.996776
 21
74.654212
 31
0.0
  0
LINE
  5
144
100
AcDbEntity
  8
1
390
0
  6
Continuous
 62
     7
100
AcDbLine
 10
296.56672
 20
69.099115
 30
0.0
 11
296.56672
 21
74.899115
 31
0.0
  0
LINE
  5
145
100
AcDbEntity
  8
1
390
0
  6
Continuous
 62
     7
100
AcDbLine
 10
249.496776
 20
69.999115
 30
0.0
 11
249.496776
 21
73.999115
 31
0.0
  0
LINE
  5
146
100
AcDbEntity
  8
1
390
0
  6
Continuous
 62
     7
100
AcDbLine
 10
304.56672
 20
74.224115
 30
0.0
 11
304.56672
 21
69.774115
 31
0.0
  0
LINE
  5
147
100
AcDbEntity
  8
1
390
0
  6
Continuous
 62
     7
100
AcDbLine
 10
282.996776
 20
75.199115
 30
0.0
 11
278.496776
 21
75.199115
 31
0.0
  0
LINE
  5
148
100
AcDbEntity
  8
1
390
0
  6
Continuous
 62
     7
100
AcDbLine
 10
278.496776
 20
68.799115
 30
0.0
 11
282.996776
 21
68.799115
 31
0.0
  0
LINE
  5
149
100
AcDbEntity
  8
1
390
0
  6
Continuous
 62
     7
100
AcDbLine
 10
288.46672
 20
68.824115
 30
0.0
 11
288.56672
 21
68.924115
 31
0.0
  0
LINE
  5
14A
100
AcDbEntity
  8
1
390
0
  6
Continuous
 62
     7
100
AcDbLine
 10
288.56672
 20
75.074115
 30
0.0
 11
288.46672
 21
75.174115
 31
0.0
  0
LINE
  5
14B
100
AcDbEntity
  8
1
390
0
  6
Continuous
 62
     7
100
AcDbLine
 10
291.16672
 20
75.174115
 30
0.0
 11
291.06672
 21
75.074115
 31
0.0
  0
LINE
  5
14C
100
AcDbEntity
  8
1
390
0
  6
Continuous
 62
     7
100
AcDbLine
 10
291.06672
 20
68.924115
 30
0.0
 11
291.16672
 21
68.824115
 31
0.0
  0
LINE
  5
14D
100
AcDbEntity
  8
1
390
0
  6
Continuous
 62
     7
100
AcDbLine
 10
286.16672
 20
68.824115
 30
0.0
 11
288.46672
 21
68.824115
 31
0.0
  0
LINE
  5
14E
100
AcDbEntity
  8
1
390
0
  6
Continuous
 62
     7
100
AcDbLine
 10
288.46672
 20
75.174115
 30
0.0
 11
286.16672
 21
75.174115
 31
0.0
  0
LINE
  5
14F
100
AcDbEntity
  8
1
390
0
  6
Continuous
 62
     7
100
AcDbLine
 10
286.16672
 20
75.174115
 30
0.0
 11
286.06672
 21
75.074115
 31
0.0
  0
LINE
  5
150
100
AcDbEntity
  8
1
390
0
  6
Continuous
 62
     7
100
AcDbLine
 10
286.06672
 20
68.924115
 30
0.0
 11
286.16672
 21
68.824115
 31
0.0
  0
LINE
  5
151
100
AcDbEntity
  8
1
390
0
  6
Continuous
 62
     7
100
AcDbLine
 10
291.16672
 20
68.824115
 30
0.0
 11
293.46672
 21
68.824115
 31
0.0
  0
LINE
  5
152
100
AcDbEntity
  8
1
390
0
  6
Continuous
 62
     7
100
AcDbLine
 10
293.46672
 20
75.174115
 30
0.0
 11
291.16672
 21
75.174115
 31
0.0
  0
LINE
  5
153
100
AcDbEntity
  8
1
390
0
  6
Continuous
 62
     7
100
AcDbLine
 10
293.46672
 20
68.824115
 30
0.0
 11
293.56672
 21
68.924115
 31
0.0
  0
LINE
  5
154
100
AcDbEntity
  8
1
390
0
  6
Continuous
 62
     7
100
AcDbLine
 10
293.56672
 20
75.074115
 30
0.0
 11
293.46672
 21
75.174115
 31
0.0
  0
LINE
  5
155
100
AcDbEntity
  8
1
390
0
  6
Continuous
 62
     7
100
AcDbLine
 10
263.496776
 20
68.899115
 30
0.0
 11
276.496776
 21
68.899115
 31
0.0
  0
LINE
  5
156
100
AcDbEntity
  8
1
390
0
  6
Continuous
 62
     7
100
AcDbLine
 10
276.496776
 20
75.099115
 30
0.0
 11
263.496776
 21
75.099115
 31
0.0
  0
LINE
  5
157
100
AcDbEntity
  8
1
390
0
  6
Continuous
 62
     7
100
AcDbLine
 10
263.496776
 20
75.099115
 30
0.0
 11
261.996776
 21
74.654212
 31
0.0
  0
LINE
  5
158
100
AcDbEntity
  8
1
390
0
  6
Continuous
 62
     7
100
AcDbLine
 10
261.996776
 20
69.344018
 30
0.0
 11
263.496776
 21
68.899115
 31
0.0
  0
LINE
  5
159
100
AcDbEntity
  8
1
390
0
  6
Continuous
 62
     7
100
AcDbLine
 10
288.56672
 20
68.999115
 30
0.0
 11
291.06672
 21
68.999115
 31
0.0
  0
LINE
  5
15A
100
AcDbEntity
  8
1
390
0
  6
Continuous
 62
     7
100
AcDbLine
 10
291.06672
 20
74.999115
 30
0.0
 11
288.56672
 21
74.999115
 31
0.0
  0
LINE
  5
15B
100
AcDbEntity
  8
1
390
0
  6
Continuous
 62
     7
100
AcDbLine
 10
293.56672
 20
68.999115
 30
0.0
 11
296.46672
 21
68.999115
 31
0.0
  0
LINE
  5
15C
100
AcDbEntity
  8
1
390
0
  6
Continuous
 62
     7
100
AcDbLine
 10
296.46672
 20
74.999115
 30
0.0
 11
293.56672
 21
74.999115
 31
0.0
  0
ARC
  5
15D
100
AcDbEntity
  8
1
390
0
  6
Continuous
 62
     7
100
AcDbCircle
 10
296.46672
 20
69.099115
 30
0.0
 40
0.1
210
0.0
220
0.0
230
0.9999999999999999
100
AcDbArc
 50
270.0
 51
360.0
  0
ARC
  5
15E
100
AcDbEntity
  8
1
390
0
  6
Continuous
 62
     7
100
AcDbCircle
 10
296.46672
 20
74.899115
 30
0.0
 40
0.1
210
0.0
220
0.0
230
1.0
100
AcDbArc
 50
0.0
 51
90.0
  0
LINE
  5
15F
100
AcDbEntity
  8
1
390
0
  6
Continuous
 62
     7
100
AcDbLine
 10
285.16672
 20
69.324115
 30
0.0
 11
286.06672
 21
69.324115
 31
0.0
  0
LINE
  5
160
100
AcDbEntity
  8
1
390
0
  6
Continuous
 62
     7
100
AcDbLine
 10
286.06672
 20
74.674115
 30
0.0
 11
285.16672
 21
74.674115
 31
0.0
  0
LINE
  5
161
100
AcDbEntity
  8
1
390
0
  6
Continuous
 62
     7
100
AcDbLine
 10
261.996776
 20
74.654212
 30
0.0
 11
249.496776
 21
73.999115
 31
0.0
  0
LINE
  5
162
100
AcDbEntity
  8
1
390
0
  6
Continuous
 62
     7
100
AcDbLine
 10
249.496776
 20
69.999115
 30
0.0
 11
261.996776
 21
69.344018
 31
0.0
  0
LINE
  5
163
100
AcDbEntity
  8
1
390
0
  6
Continuous
 62
     7
100
AcDbLine
 10
282.996776
 20
69.499115
 30
0.0
 11
283.56672
 21
69.499115
 31
0.0
  0
LINE
  5
164
100
AcDbEntity
  8
1
390
0
  6
Continuous
 62
     7
100
AcDbLine
 10
283.56672
 20
74.499115
 30
0.0
 11
282.996776
 21
74.499115
 31
0.0
  0
LINE
  5
165
100
AcDbEntity
  8
1
390
0
  6
Continuous
 62
     7
100
AcDbLine
 10
296.56672
 20
69.524115
 30
0.0
 11
304.31672
 21
69.524115
 31
0.0
  0
LINE
  5
166
100
AcDbEntity
  8
1
390
0
  6
Continuous
 62
     7
100
AcDbLine
 10
304.31672
 20
74.474115
 30
0.0
 11
296.56672
 21
74.474115
 31
0.0
  0
ARC
  5
167
100
AcDbEntity
  8
1
390
0
  6
Continuous
 62
     7
100
AcDbCircle
 10
304.31672
 20
74.224115
 30
0.0
 40
0.25
210
0.0
220
0.0
230
1.0
100
AcDbArc
 50
0.0
 51
90.0
  0
ARC
  5
168
100
AcDbEntity
  8
1
390
0
  6
Continuous
 62
     7
100
AcDbCircle
 10
304.31672
 20
69.774115
 30
0.0
 40
0.25
210
0.0
220
0.0
230
1.0
100
AcDbArc
 50
270.0
 51
360.0
  0
LINE
  5
169
100
AcDbEntity
  8
1
390
0
  6
Continuous
 62
     7
100
AcDbLine
 10
249.496776
 20
73.249115
 30
0.0
 11
229.406462
 21
73.249115
 31
0.0
  0
LINE
  5
16A
100
AcDbEntity
  8
1
390
0
  6
Continuous
 62
     7
100
AcDbLine
 10
228.659717
 20
70.749115
 30
0.0
 11
249.496776
 21
70.749115
 31
0.0
  0
LINE
  5
16B
100
AcDbEntity
  8
1
390
0
  6
Continuous
 62
     9
100
AcDbLine
 10
223.242135
 20
69.35111
 30
0.0
 11
224.837431
 21
74.691936
 31
0.0
  0
LINE
  5
16C
100
AcDbEntity
  8
1
390
0
  6
Continuous
 62
     9
100
AcDbLine
 10
228.242135
 20
69.35111
 30
0.0
 11
229.837431
 21
74.691936
 31
0.0
  0
LINE
  5
16D
100
AcDbEntity
  8
1
390
0
  6
Continuous
 62
     7
100
AcDbLine
 10
93.785275
 20
73.999115
 30
0.0
 11
87.785275
 21
73.999115
 31
0.0
  0
POLYLINE
  5
16E
100
AcDbEntity
  8
1
390
0
  6
DOT
 62
     9
100
AcDb2dPolyline
 66
     1
 10
0.0
 20
0.0
 30
0.0
 40
3.0
 41
3.0
  0
VERTEX
  5
16F
100
AcDbEntity
  8
1
390
0
 62
     9
100
AcDbVertex
100
AcDb2dVertex
 10
89.835956
 20
73.558167
 30
0.0
  0
VERTEX
  5
170
100
AcDbEntity
  8
1
390
0
 62
     9
100
AcDbVertex
100
AcDb2dVertex
 10
89.87608
 20
73.573469
 30
0.0
  0
VERTEX
  5
171
100
AcDbEntity
  8
1
390
0
 62
     9
100
AcDbVertex
100
AcDb2dVertex
 10
89.916965
 20
73.58711
 30
0.0
  0
VERTEX
  5
172
100
AcDbEntity
  8
1
390
0
 62
     9
100
AcDbVertex
100
AcDb2dVertex
 10
89.958507
 20
73.599065
 30
0.0
  0
VERTEX
  5
173
100
AcDbEntity
  8
1
390
0
 62
     9
100
AcDbVertex
100
AcDb2dVertex
 10
90.000604
 20
73.609308
 30
0.0
  0
VERTEX
  5
174
100
AcDbEntity
  8
1
390
0
 62
     9
100
AcDbVertex
100
AcDb2dVertex
 10
90.044468
 20
73.618054
 30
0.0
  0
VERTEX
  5
175
100
AcDbEntity
  8
1
390
0
 62
     9
100
AcDbVertex
100
AcDb2dVertex
 10
90.088846
 20
73.624985
 30
0.0
  0
VERTEX
  5
176
100
AcDbEntity
  8
1
390
0
 62
     9
100
AcDbVertex
100
AcDb2dVertex
 10
90.133619
 20
73.630093
 30
0.0
  0
VERTEX
  5
177
100
AcDbEntity
  8
1
390
0
 62
     9
100
AcDbVertex
100
AcDb2dVertex
 10
90.178667
 20
73.63337
 30
0.0
  0
VERTEX
  5
178
100
AcDbEntity
  8
1
390
0
 62
     9
100
AcDbVertex
100
AcDb2dVertex
 10
90.207423
 20
73.634502
 30
0.0
  0
VERTEX
  5
179
100
AcDbEntity
  8
1
390
0
 62
     9
100
AcDbVertex
100
AcDb2dVertex
 10
90.236253
 20
73.634897
 30
0.0
  0
VERTEX
  5
17A
100
AcDbEntity
  8
1
390
0
 62
     9
100
AcDbVertex
100
AcDb2dVertex
 10
90.265221
 20
73.634555
 30
0.0
  0
VERTEX
  5
17B
100
AcDbEntity
  8
1
390
0
 62
     9
100
AcDbVertex
100
AcDb2dVertex
 10
90.29422
 20
73.633476
 30
0.0
  0
SEQEND
  5
17C
100
AcDbEntity
  8
0
390
0
  0
LINE
  5
17D
100
AcDbEntity
  8
1
390
0
  6
DOT
 62
     9
100
AcDbLine
 10
90.29422
 20
73.633476
 30
0.0
 11
90.314059
 21
73.632503
 31
0.0
  0
ARC
  5
17E
100
AcDbEntity
  8
1
390
0
  6
DOT
 62
     9
100
AcDbCircle
 10
90.785275
 20
71.998979
 30
0.0
 40
1.700131
210
0.0
220
0.0
230
1.0
100
AcDbArc
 50
73.908962
 51
106.091038
  0
LINE
  5
17F
100
AcDbEntity
  8
1
390
0
  6
DOT
 62
     9
100
AcDbLine
 10
91.25649
 20
73.632503
 30
0.0
 11
91.276329
 21
73.633476
 31
0.0
  0
POLYLINE
  5
180
100
AcDbEntity
  8
1
390
0
  6
DOT
 62
     9
100
AcDb2dPolyline
 66
     1
 10
0.0
 20
0.0
 30
0.0
 40
3.0
 41
3.0
  0
VERTEX
  5
181
100
AcDbEntity
  8
1
390
0
 62
     9
100
AcDbVertex
100
AcDb2dVertex
 10
91.276329
 20
73.633476
 30
0.0
  0
VERTEX
  5
182
100
AcDbEntity
  8
1
390
0
 62
     9
100
AcDbVertex
100
AcDb2dVertex
 10
91.319671
 20
73.634814
 30
0.0
  0
VERTEX
  5
183
100
AcDbEntity
  8
1
390
0
 62
     9
100
AcDbVertex
100
AcDb2dVertex
 10
91.362953
 20
73.634501
 30
0.0
  0
VERTEX
  5
184
100
AcDbEntity
  8
1
390
0
 62
     9
100
AcDbVertex
100
AcDb2dVertex
 10
91.406069
 20
73.632535
 30
0.0
  0
VERTEX
  5
185
100
AcDbEntity
  8
1
390
0
 62
     9
100
AcDbVertex
100
AcDb2dVertex
 10
91.448914
 20
73.628913
 30
0.0
  0
VERTEX
  5
186
100
AcDbEntity
  8
1
390
0
 62
     9
100
AcDbVertex
100
AcDb2dVertex
 10
91.492616
 20
73.623458
 30
0.0
  0
VERTEX
  5
187
100
AcDbEntity
  8
1
390
0
 62
     9
100
AcDbVertex
100
AcDb2dVertex
 10
91.535959
 20
73.616248
 30
0.0
  0
VERTEX
  5
188
100
AcDbEntity
  8
1
390
0
 62
     9
100
AcDbVertex
100
AcDb2dVertex
 10
91.578831
 20
73.607296
 30
0.0
  0
VERTEX
  5
189
100
AcDbEntity
  8
1
390
0
 62
     9
100
AcDbVertex
100
AcDb2dVertex
 10
91.621122
 20
73.596616
 30
0.0
  0
VERTEX
  5
18A
100
AcDbEntity
  8
1
390
0
 62
     9
100
AcDbVertex
100
AcDb2dVertex
 10
91.649939
 20
73.588242
 30
0.0
  0
VERTEX
  5
18B
100
AcDbEntity
  8
1
390
0
 62
     9
100
AcDbVertex
100
AcDb2dVertex
 10
91.67844
 20
73.579051
 30
0.0
  0
VERTEX
  5
18C
100
AcDbEntity
  8
1
390
0
 62
     9
100
AcDbVertex
100
AcDb2dVertex
 10
91.706697
 20
73.569014
 30
0.0
  0
VERTEX
  5
18D
100
AcDbEntity
  8
1
390
0
 62
     9
100
AcDbVertex
100
AcDb2dVertex
 10
91.734593
 20
73.558167
 30
0.0
  0
SEQEND
  5
18E
100
AcDbEntity
  8
0
390
0
  0
ARC
  5
18F
100
AcDbEntity
  8
1
390
0
  6
DOT
 62
     9
100
AcDbCircle
 10
90.353927
 20
70.598645
 30
0.0
 40
3.265733
210
0.0
220
0.0
230
1.0
100
AcDbArc
 50
28.344341
 51
64.990174
  0
ARC
  5
190
100
AcDbEntity
  8
1
390
0
  6
DOT
 62
     9
100
AcDbCircle
 10
90.494752
 20
73.2682
 30
0.0
 40
3.103156
210
0.0
220
0.0
230
1.0
100
AcDbArc
 50
293.189211
 51
331.743702
  0
POLYLINE
  5
191
100
AcDbEntity
  8
1
390
0
  6
DOT
 62
     9
100
AcDb2dPolyline
 66
     1
 10
0.0
 20
0.0
 30
0.0
 40
3.0
 41
3.0
  0
VERTEX
  5
192
100
AcDbEntity
  8
1
390
0
 62
     9
100
AcDbVertex
100
AcDb2dVertex
 10
91.716678
 20
70.41575
 30
0.0
  0
VERTEX
  5
193
100
AcDbEntity
  8
1
390
0
 62
     9
100
AcDbVertex
100
AcDb2dVertex
 10
91.676404
 20
70.401713
 30
0.0
  0
VERTEX
  5
194
100
AcDbEntity
  8
1
390
0
 62
     9
100
AcDbVertex
100
AcDb2dVertex
 10
91.63542
 20
70.389339
 30
0.0
  0
VERTEX
  5
195
100
AcDbEntity
  8
1
390
0
 62
     9
100
AcDbVertex
100
AcDb2dVertex
 10
91.593828
 20
70.378649
 30
0.0
  0
VERTEX
  5
196
100
AcDbEntity
  8
1
390
0
 62
     9
100
AcDbVertex
100
AcDb2dVertex
 10
91.551734
 20
70.369667
 30
0.0
  0
VERTEX
  5
197
100
AcDbEntity
  8
1
390
0
 62
     9
100
AcDbVertex
100
AcDb2dVertex
 10
91.507928
 20
70.362212
 30
0.0
  0
VERTEX
  5
198
100
AcDbEntity
  8
1
390
0
 62
     9
100
AcDbVertex
100
AcDb2dVertex
 10
91.463662
 20
70.356564
 30
0.0
  0
VERTEX
  5
199
100
AcDbEntity
  8
1
390
0
 62
     9
100
AcDbVertex
100
AcDb2dVertex
 10
91.419057
 20
70.352728
 30
0.0
  0
VERTEX
  5
19A
100
AcDbEntity
  8
1
390
0
 62
     9
100
AcDbVertex
100
AcDb2dVertex
 10
91.374232
 20
70.350709
 30
0.0
  0
VERTEX
  5
19B
100
AcDbEntity
  8
1
390
0
 62
     9
100
AcDbVertex
100
AcDb2dVertex
 10
91.334102
 20
70.350437
 30
0.0
  0
VERTEX
  5
19C
100
AcDbEntity
  8
1
390
0
 62
     9
100
AcDbVertex
100
AcDb2dVertex
 10
91.293828
 20
70.351603
 30
0.0
  0
SEQEND
  5
19D
100
AcDbEntity
  8
0
390
0
  0
LINE
  5
19E
100
AcDbEntity
  8
1
390
0
  6
DOT
 62
     9
100
AcDbLine
 10
91.293828
 20
70.351603
 30
0.0
 11
91.217405
 21
70.354955
 31
0.0
  0
ARC
  5
19F
100
AcDbEntity
  8
1
390
0
  6
DOT
 62
     9
100
AcDbCircle
 10
90.785247
 20
71.999327
 30
0.0
 40
1.700212
210
0.0
220
0.0
230
1.0
100
AcDbArc
 50
270.000924
 51
284.724942
  0
ARC
  5
1A0
100
AcDbEntity
  8
1
390
0
  6
DOT
 62
     9
100
AcDbCircle
 10
90.785275
 20
71.999115
 30
0.0
 40
1.7
210
0.0
220
0.0
230
1.0
100
AcDbArc
 50
255.274134
 51
270.0
  0
LINE
  5
1A1
100
AcDbEntity
  8
1
390
0
  6
DOT
 62
     9
100
AcDbLine
 10
90.353144
 20
70.354955
 30
0.0
 11
90.276721
 21
70.351603
 31
0.0
  0
POLYLINE
  5
1A2
100
AcDbEntity
  8
1
390
0
  6
DOT
 62
     9
100
AcDb2dPolyline
 66
     1
 10
0.0
 20
0.0
 30
0.0
 40
3.0
 41
3.0
  0
VERTEX
  5
1A3
100
AcDbEntity
  8
1
390
0
 62
     9
100
AcDbVertex
100
AcDb2dVertex
 10
90.276721
 20
70.351603
 30
0.0
  0
VERTEX
  5
1A4
100
AcDbEntity
  8
1
390
0
 62
     9
100
AcDbVertex
100
AcDb2dVertex
 10
90.224066
 20
70.350371
 30
0.0
  0
VERTEX
  5
1A5
100
AcDbEntity
  8
1
390
0
 62
     9
100
AcDbVertex
100
AcDb2dVertex
 10
90.171556
 20
70.3516
 30
0.0
  0
VERTEX
  5
1A6
100
AcDbEntity
  8
1
390
0
 62
     9
100
AcDbVertex
100
AcDb2dVertex
 10
90.119385
 20
70.355297
 30
0.0
  0
VERTEX
  5
1A7
100
AcDbEntity
  8
1
390
0
 62
     9
100
AcDbVertex
100
AcDb2dVertex
 10
90.066463
 20
70.361647
 30
0.0
  0
VERTEX
  5
1A8
100
AcDbEntity
  8
1
390
0
 62
     9
100
AcDbVertex
100
AcDb2dVertex
 10
90.014095
 20
70.370588
 30
0.0
  0
VERTEX
  5
1A9
100
AcDbEntity
  8
1
390
0
 62
     9
100
AcDbVertex
100
AcDb2dVertex
 10
89.962481
 20
70.382097
 30
0.0
  0
VERTEX
  5
1AA
100
AcDbEntity
  8
1
390
0
 62
     9
100
AcDbVertex
100
AcDb2dVertex
 10
89.934947
 20
70.389383
 30
0.0
  0
VERTEX
  5
1AB
100
AcDbEntity
  8
1
390
0
 62
     9
100
AcDbVertex
100
AcDb2dVertex
 10
89.907681
 20
70.397413
 30
0.0
  0
VERTEX
  5
1AC
100
AcDbEntity
  8
1
390
0
 62
     9
100
AcDbVertex
100
AcDb2dVertex
 10
89.880622
 20
70.406212
 30
0.0
  0
VERTEX
  5
1AD
100
AcDbEntity
  8
1
390
0
 62
     9
100
AcDbVertex
100
AcDb2dVertex
 10
89.853871
 20
70.41575
 30
0.0
  0
SEQEND
  5
1AE
100
AcDbEntity
  8
0
390
0
  0
ARC
  5
1AF
100
AcDbEntity
  8
1
390
0
  6
DOT
 62
     9
100
AcDbCircle
 10
91.135513
 20
73.333445
 30
0.0
 40
3.186777
210
0.0
220
0.0
230
1.0
100
AcDbArc
 50
208.781295
 51
246.285792
  0
ARC
  5
1B0
100
AcDbEntity
  8
1
390
0
  6
DOT
 62
     9
100
AcDbCircle
 10
91.160515
 20
70.658117
 30
0.0
 40
3.18822
210
0.0
220
0.0
230
1.0
100
AcDbArc
 50
114.547899
 51
152.117586
  0
LINE
  5
1B1
100
AcDbEntity
  8
1
390
0
  6
Continuous
 62
     7
100
AcDbLine
 10
93.685275
 20
70.199115
 30
0.0
 11
87.885275
 21
70.199115
 31
0.0
  0
LINE
  5
1B2
100
AcDbEntity
  8
1
390
0
  6
Continuous
 62
     7
100
AcDbLine
 10
93.085275
 20
69.999115
 30
0.0
 11
90.785275
 21
69.999115
 31
0.0
  0
LINE
  5
1B3
100
AcDbEntity
  8
1
390
0
  6
Continuous
 62
     7
100
AcDbLine
 10
90.785275
 20
69.999115
 30
0.0
 11
88.485275
 21
69.999115
 31
0.0
  0
LINE
  5
1B4
100
AcDbEntity
  8
1
390
0
  6
Continuous
 62
     7
100
AcDbLine
 10
91.785275
 20
108.039523
 30
0.0
 11
89.785275
 21
108.039523
 31
0.0
  0
LINE
  5
1B5
100
AcDbEntity
  8
1
390
0
  6
Continuous
 62
     7
100
AcDbLine
 10
91.385275
 20
169.999115
 30
0.0
 11
90.185275
 21
169.999115
 31
0.0
  0
ARC
  5
1B6
100
AcDbEntity
  8
1
390
0
  6
DOT
 62
     9
100
AcDbCircle
 10
90.78522
 20
71.99916
 30
0.0
 40
1.70006
210
0.0
220
0.0
230
1.0
100
AcDbArc
 50
288.412375
 51
353.242397
  0
ARC
  5
1B7
100
AcDbEntity
  8
1
390
0
  6
DOT
 62
     9
100
AcDbCircle
 10
90.785275
 20
71.999115
 30
0.0
 40
1.7
210
0.0
220
0.0
230
1.0
100
AcDbArc
 50
186.756327
 51
251.588901
  0
ARC
  5
1B8
100
AcDbEntity
  8
1
390
0
  6
DOT
 62
     9
100
AcDbCircle
 10
90.785275
 20
71.999115
 30
0.0
 40
1.7
210
0.0
220
0.0
230
1.0
100
AcDbArc
 50
5.062093
 51
72.923729
  0
ARC
  5
1B9
100
AcDbEntity
  8
1
390
0
  6
DOT
 62
     9
100
AcDbCircle
 10
90.785304
 20
71.999092
 30
0.0
 40
1.700031
210
0.0
220
0.0
230
1.0
100
AcDbArc
 50
107.076977
 51
174.937201
  0
LINE
  5
1BA
100
AcDbEntity
  8
1
390
0
  6
DOT
 62
     9
100
AcDbLine
 10
90.248359
 20
70.38613
 30
0.0
 11
90.353144
 21
70.354955
 31
0.0
  0
LINE
  5
1BB
100
AcDbEntity
  8
1
390
0
  6
DOT
 62
     9
100
AcDbLine
 10
91.217405
 20
70.354955
 30
0.0
 11
91.32219
 21
70.38613
 31
0.0
  0
LINE
  5
1BC
100
AcDbEntity
  8
1
390
0
  6
DOT
 62
     9
100
AcDbLine
 10
91.28447
 20
73.62417
 30
0.0
 11
91.25649
 21
73.632503
 31
0.0
  0
LINE
  5
1BD
100
AcDbEntity
  8
1
390
0
  6
DOT
 62
     9
100
AcDbLine
 10
90.314059
 20
73.632503
 30
0.0
 11
90.286079
 21
73.62417
 31
0.0
  0
ARC
  5
1BE
100
AcDbEntity
  8
1
390
0
  6
DOT
 62
     9
100
AcDbCircle
 10
90.785546
 20
71.999119
 30
0.0
 40
1.70027
210
0.0
220
0.0
230
1.0
100
AcDbArc
 50
174.93885
 51
186.755384
  0
POLYLINE
  5
1BF
100
AcDbEntity
  8
1
390
0
  6
DOT
 62
     9
100
AcDb2dPolyline
 66
     1
 10
0.0
 20
0.0
 30
0.0
 40
3.0
 41
3.0
  0
VERTEX
  5
1C0
100
AcDbEntity
  8
1
390
0
 62
     9
100
AcDbVertex
100
AcDb2dVertex
 10
92.473469
 20
71.799115
 30
0.0
  0
VERTEX
  5
1C1
100
AcDbEntity
  8
1
390
0
 62
     9
100
AcDbVertex
100
AcDb2dVertex
 10
92.483823
 20
71.92888
 30
0.0
  0
VERTEX
  5
1C2
100
AcDbEntity
  8
1
390
0
 62
     9
100
AcDbVertex
100
AcDb2dVertex
 10
92.484981
 20
72.030581
 30
0.0
  0
VERTEX
  5
1C3
100
AcDbEntity
  8
1
390
0
 62
     9
100
AcDbVertex
100
AcDb2dVertex
 10
92.478644
 20
72.149115
 30
0.0
  0
SEQEND
  5
1C4
100
AcDbEntity
  8
0
390
0
  0
CIRCLE
  5
1C5
100
AcDbEntity
  8
1
390
0
  6
DOT
 62
     9
100
AcDbCircle
 10
90.785275
 20
71.999115
 30
0.0
 40
1.4
210
0.0
220
0.0
230
1.0
  0
CIRCLE
  5
1C6
100
AcDbEntity
  8
1
390
0
  6
DOT
 62
     9
100
AcDbCircle
 10
90.785275
 20
71.999115
 30
0.0
 40
1.25
210
0.0
220
0.0
230
1.0
  0
ARC
  5
1C7
100
AcDbEntity
  8
1
390
0
  6
DOT
 62
     9
100
AcDbCircle
 10
90.785275
 20
71.999115
 30
0.0
 40
2.655097
210
0.0
220
0.0
230
1.0
100
AcDbArc
 50
90.0
 51
112.125343
  0
ARC
  5
1C8
100
AcDbEntity
  8
1
390
0
  6
Continuous
 62
     7
100
AcDbCircle
 10
90.785275
 20
71.999115
 30
0.0
 40
2.655097
210
0.0
220
0.0
230
1.0
100
AcDbArc
 50
112.125343
 51
131.125732
  0
ARC
  5
1C9
100
AcDbEntity
  8
1
390
0
  6
DOT
 62
     9
100
AcDbCircle
 10
90.785275
 20
71.999115
 30
0.0
 40
2.655097
210
0.0
220
0.0
230
1.0
100
AcDbArc
 50
131.125732
 51
222.682975
  0
ARC
  5
1CA
100
AcDbEntity
  8
1
390
0
  6
DOT
 62
     9
100
AcDbCircle
 10
90.785275
 20
71.999115
 30
0.0
 40
2.655097
210
0.0
220
0.0
230
1.0
100
AcDbArc
 50
222.682975
 51
228.874268
  0
ARC
  5
1CB
100
AcDbEntity
  8
1
390
0
  6
Continuous
 62
     7
100
AcDbCircle
 10
90.785275
 20
71.999115
 30
0.0
 40
2.655097
210
0.0
220
0.0
230
1.0
100
AcDbArc
 50
228.874268
 51
311.125732
  0
ARC
  5
1CC
100
AcDbEntity
  8
1
390
0
  6
DOT
 62
     9
100
AcDbCircle
 10
90.785275
 20
71.999115
 30
0.0
 40
2.655097
210
0.0
220
0.0
230
1.0
100
AcDbArc
 50
311.125732
 51
317.317025
  0
ARC
  5
1CD
100
AcDbEntity
  8
1
390
0
  6
DOT
 62
     9
100
AcDbCircle
 10
90.785275
 20
71.999115
 30
0.0
 40
2.655097
210
0.0
220
0.0
230
1.0
100
AcDbArc
 50
317.317025
 51
48.874268
  0
ARC
  5
1CE
100
AcDbEntity
  8
1
390
0
  6
Continuous
 62
     7
100
AcDbCircle
 10
90.785275
 20
71.999115
 30
0.0
 40
2.655097
210
0.0
220
0.0
230
1.0
100
AcDbArc
 50
48.874268
 51
67.874657
  0
ARC
  5
1CF
100
AcDbEntity
  8
1
390
0
  6
DOT
 62
     9
100
AcDbCircle
 10
90.785275
 20
71.999115
 30
0.0
 40
2.655097
210
0.0
220
0.0
230
1.0
100
AcDbArc
 50
67.874657
 51
90.0
  0
ARC
  5
1D0
100
AcDbEntity
  8
1
390
0
  6
DOT
 62
     9
100
AcDbCircle
 10
90.785275
 20
71.999115
 30
0.0
 40
2.0
210
0.0
220
0.0
230
1.0
100
AcDbArc
 50
90.0
 51
244.158067
  0
ARC
  5
1D1
100
AcDbEntity
  8
1
390
0
  6
DOT
 62
     9
100
AcDbCircle
 10
90.785275
 20
71.999115
 30
0.0
 40
2.0
210
0.0
220
0.0
230
1.0
100
AcDbArc
 50
244.158067
 51
270.0
  0
ARC
  5
1D2
100
AcDbEntity
  8
1
390
0
  6
DOT
 62
     9
100
AcDbCircle
 10
90.785275
 20
71.999115
 30
0.0
 40
2.0
210
0.0
220
0.0
230
1.0
100
AcDbArc
 50
270.0
 51
295.841933
  0
ARC
  5
1D3
100
AcDbEntity
  8
1
390
0
  6
DOT
 62
     9
100
AcDbCircle
 10
90.785275
 20
71.999115
 30
0.0
 40
2.0
210
0.0
220
0.0
230
1.0
100
AcDbArc
 50
295.841933
 51
90.0
  0
ARC
  5
1D4
100
AcDbEntity
  8
1
390
0
  6
DOT
 62
     9
100
AcDbCircle
 10
90.785275
 20
71.999115
 30
0.0
 40
3.1
210
0.0
220
0.0
230
1.0
100
AcDbArc
 50
90.0
 51
108.819063
  0
ARC
  5
1D5
100
AcDbEntity
  8
1
390
0
  6
Continuous
 62
     7
100
AcDbCircle
 10
90.785275
 20
71.999115
 30
0.0
 40
3.1
210
0.0
220
0.0
230
1.0
100
AcDbArc
 50
108.819063
 51
139.82223
  0
ARC
  5
1D6
100
AcDbEntity
  8
1
390
0
  6
DOT
 62
     9
100
AcDbCircle
 10
90.785275
 20
71.999115
 30
0.0
 40
3.1
210
0.0
220
0.0
230
1.0
100
AcDbArc
 50
139.82223
 51
165.407449
  0
ARC
  5
1D7
100
AcDbEntity
  8
1
390
0
  6
Continuous
 62
     7
100
AcDbCircle
 10
90.785275
 20
71.999115
 30
0.0
 40
3.1
210
0.0
220
0.0
230
1.0
100
AcDbArc
 50
165.407449
 51
194.592551
  0
ARC
  5
1D8
100
AcDbEntity
  8
1
390
0
  6
DOT
 62
     9
100
AcDbCircle
 10
90.785275
 20
71.999115
 30
0.0
 40
3.1
210
0.0
220
0.0
230
1.0
100
AcDbArc
 50
194.592551
 51
215.495933
  0
ARC
  5
1D9
100
AcDbEntity
  8
1
390
0
  6
Continuous
 62
     7
100
AcDbCircle
 10
90.785275
 20
71.999115
 30
0.0
 40
3.1
210
0.0
220
0.0
230
1.0
100
AcDbArc
 50
215.495933
 51
324.504067
  0
ARC
  5
1DA
100
AcDbEntity
  8
1
390
0
  6
DOT
 62
     9
100
AcDbCircle
 10
90.785275
 20
71.999115
 30
0.0
 40
3.1
210
0.0
220
0.0
230
1.0
100
AcDbArc
 50
324.504067
 51
345.407449
  0
ARC
  5
1DB
100
AcDbEntity
  8
1
390
0
  6
Continuous
 62
     7
100
AcDbCircle
 10
90.785275
 20
71.999115
 30
0.0
 40
3.1
210
0.0
220
0.0
230
1.0
100
AcDbArc
 50
345.407449
 51
14.592551
  0
ARC
  5
1DC
100
AcDbEntity
  8
1
390
0
  6
DOT
 62
     9
100
AcDbCircle
 10
90.785275
 20
71.999115
 30
0.0
 40
3.1
210
0.0
220
0.0
230
1.0
100
AcDbArc
 50
14.592551
 51
40.17777
  0
ARC
  5
1DD
100
AcDbEntity
  8
1
390
0
  6
Continuous
 62
     7
100
AcDbCircle
 10
90.785275
 20
71.999115
 30
0.0
 40
3.1
210
0.0
220
0.0
230
1.0
100
AcDbArc
 50
40.17777
 51
71.180937
  0
ARC
  5
1DE
100
AcDbEntity
  8
1
390
0
  6
DOT
 62
     9
100
AcDbCircle
 10
90.785275
 20
71.999115
 30
0.0
 40
3.1
210
0.0
220
0.0
230
1.0
100
AcDbArc
 50
71.180937
 51
90.0
  0
ARC
  5
1DF
100
AcDbEntity
  8
1
390
0
  6
Continuous
 62
     7
100
AcDbCircle
 10
90.785275
 20
71.999115
 30
0.0
 40
3.2
210
0.0
220
0.0
230
1.0
100
AcDbArc
 50
38.682187
 51
69.635865
  0
ARC
  5
1E0
100
AcDbEntity
  8
1
390
0
  6
DOT
 62
     9
100
AcDbCircle
 10
90.785275
 20
71.999115
 30
0.0
 40
3.2
210
0.0
220
0.0
230
1.0
100
AcDbArc
 50
20.364135
 51
38.682187
  0
ARC
  5
1E1
100
AcDbEntity
  8
1
390
0
  6
Continuous
 62
     7
100
AcDbCircle
 10
90.785275
 20
71.999115
 30
0.0
 40
3.2
210
0.0
220
0.0
230
1.0
100
AcDbArc
 50
339.635865
 51
20.364135
  0
ARC
  5
1E2
100
AcDbEntity
  8
1
390
0
  6
DOT
 62
     9
100
AcDbCircle
 10
90.785275
 20
71.999115
 30
0.0
 40
3.2
210
0.0
220
0.0
230
1.0
100
AcDbArc
 50
325.771134
 51
339.635865
  0
ARC
  5
1E3
100
AcDbEntity
  8
1
390
0
  6
Continuous
 62
     7
100
AcDbCircle
 10
90.785275
 20
71.999115
 30
0.0
 40
3.2
210
0.0
220
0.0
230
1.0
100
AcDbArc
 50
290.364135
 51
325.771134
  0
LINE
  5
1E4
100
AcDbEntity
  8
1
390
0
  6
Continuous
 62
     7
100
AcDbLine
 10
91.898827
 20
68.999115
 30
0.0
 11
91.5663
 21
68.999115
 31
0.0
  0
LINE
  5
1E5
100
AcDbEntity
  8
1
390
0
  6
DOT
 62
     9
100
AcDbLine
 10
91.5663
 20
74.999115
 30
0.0
 11
91.822048
 21
74.999115
 31
0.0
  0
LINE
  5
1E6
100
AcDbEntity
  8
1
390
0
  6
Continuous
 62
     7
100
AcDbLine
 10
91.822048
 20
74.999115
 30
0.0
 11
91.898827
 21
74.999115
 31
0.0
  0
LINE
  5
1E7
100
AcDbEntity
  8
1
390
0
  6
DOT
 62
     9
100
AcDbLine
 10
91.5663
 20
68.999115
 30
0.0
 11
90.00425
 21
68.999115
 31
0.0
  0
LINE
  5
1E8
100
AcDbEntity
  8
1
390
0
  6
DOT
 62
     9
100
AcDbLine
 10
90.00425
 20
74.999115
 30
0.0
 11
91.5663
 21
74.999115
 31
0.0
  0
ARC
  5
1E9
100
AcDbEntity
  8
1
390
0
  6
Continuous
 62
     7
100
AcDbCircle
 10
90.785275
 20
71.999115
 30
0.0
 40
3.2
210
0.0
220
0.0
230
1.0
100
AcDbArc
 50
214.228866
 51
249.635865
  0
ARC
  5
1EA
100
AcDbEntity
  8
1
390
0
  6
DOT
 62
     9
100
AcDbCircle
 10
90.785275
 20
71.999115
 30
0.0
 40
3.2
210
0.0
220
0.0
230
1.0
100
AcDbArc
 50
200.364135
 51
214.228866
  0
ARC
  5
1EB
100
AcDbEntity
  8
1
390
0
  6
Continuous
 62
     7
100
AcDbCircle
 10
90.785275
 20
71.999115
 30
0.0
 40
3.2
210
0.0
220
0.0
230
1.0
100
AcDbArc
 50
159.635865
 51
200.364135
  0
ARC
  5
1EC
100
AcDbEntity
  8
1
390
0
  6
DOT
 62
     9
100
AcDbCircle
 10
90.785275
 20
71.999115
 30
0.0
 40
3.2
210
0.0
220
0.0
230
1.0
100
AcDbArc
 50
141.317813
 51
159.635865
  0
ARC
  5
1ED
100
AcDbEntity
  8
1
390
0
  6
Continuous
 62
     7
100
AcDbCircle
 10
90.785275
 20
71.999115
 30
0.0
 40
3.2
210
0.0
220
0.0
230
1.0
100
AcDbArc
 50
110.364135
 51
141.317813
  0
LINE
  5
1EE
100
AcDbEntity
  8
1
390
0
  6
Continuous
 62
     7
100
AcDbLine
 10
90.00425
 20
68.999115
 30
0.0
 11
89.671722
 21
68.999115
 31
0.0
  0
LINE
  5
1EF
100
AcDbEntity
  8
1
390
0
  6
Continuous
 62
     7
100
AcDbLine
 10
89.671722
 20
74.999115
 30
0.0
 11
89.748712
 21
74.999115
 31
0.0
  0
LINE
  5
1F0
100
AcDbEntity
  8
1
390
0
  6
DOT
 62
     9
100
AcDbLine
 10
89.748712
 20
74.999115
 30
0.0
 11
90.00425
 21
74.999115
 31
0.0
  0
ARC
  5
1F1
100
AcDbEntity
  8
1
390
0
  6
Continuous
 62
     7
100
AcDbCircle
 10
90.785275
 20
71.999115
 30
0.0
 40
3.2
210
0.0
220
0.0
230
1.0
100
AcDbArc
 50
249.635865
 51
290.364135
  0
ARC
  5
1F2
100
AcDbEntity
  8
1
390
0
  6
Continuous
 62
     7
100
AcDbCircle
 10
90.785275
 20
71.999115
 30
0.0
 40
3.2
210
0.0
220
0.0
230
1.0
100
AcDbArc
 50
108.209957
 51
110.364135
  0
ARC
  5
1F3
100
AcDbEntity
  8
1
390
0
  6
DOT
 62
     9
100
AcDbCircle
 10
90.785275
 20
71.999115
 30
0.0
 40
3.2
210
0.0
220
0.0
230
1.0
100
AcDbArc
 50
71.790043
 51
108.209957
  0
ARC
  5
1F4
100
AcDbEntity
  8
1
390
0
  6
Continuous
 62
     7
100
AcDbCircle
 10
90.785275
 20
71.999115
 30
0.0
 40
3.2
210
0.0
220
0.0
230
1.0
100
AcDbArc
 50
69.635865
 51
71.790043
  0
CIRCLE
  5
1F5
100
AcDbEntity
  8
1
390
0
  6
DOT
 62
     9
100
AcDbCircle
 10
90.785275
 20
71.999115
 30
0.0
 40
2.5
210
0.0
220
0.0
230
1.0
  0
LINE
  5
1F6
100
AcDbEntity
  8
1
390
0
  6
DOT
 62
     9
100
AcDbLine
 10
92.421581
 20
69.249115
 30
0.0
 11
92.216183
 21
69.249115
 31
0.0
  0
LINE
  5
1F7
100
AcDbEntity
  8
1
390
0
  6
DOT
 62
     9
100
AcDbLine
 10
92.216183
 20
69.249115
 30
0.0
 11
89.354366
 21
69.249115
 31
0.0
  0
LINE
  5
1F8
100
AcDbEntity
  8
1
390
0
  6
DOT
 62
     9
100
AcDbLine
 10
89.354366
 20
69.249115
 30
0.0
 11
89.148968
 21
69.249115
 31
0.0
  0
LINE
  5
1F9
100
AcDbEntity
  8
1
390
0
  6
DOT
 62
     9
100
AcDbLine
 10
89.148968
 20
74.749115
 30
0.0
 11
89.354366
 21
74.749115
 31
0.0
  0
LINE
  5
1FA
100
AcDbEntity
  8
1
390
0
  6
DOT
 62
     9
100
AcDbLine
 10
89.354366
 20
74.749115
 30
0.0
 11
89.785275
 21
74.749115
 31
0.0
  0
LINE
  5
1FB
100
AcDbEntity
  8
1
390
0
  6
DOT
 62
     9
100
AcDbLine
 10
89.785275
 20
74.749115
 30
0.0
 11
91.785275
 21
74.749115
 31
0.0
  0
LINE
  5
1FC
100
AcDbEntity
  8
1
390
0
  6
DOT
 62
     9
100
AcDbLine
 10
91.785275
 20
74.749115
 30
0.0
 11
92.216183
 21
74.749115
 31
0.0
  0
LINE
  5
1FD
100
AcDbEntity
  8
1
390
0
  6
DOT
 62
     9
100
AcDbLine
 10
92.216183
 20
74.749115
 30
0.0
 11
92.421581
 21
74.749115
 31
0.0
  0
CIRCLE
  5
1FE
100
AcDbEntity
  8
1
390
0
  6
DOT
 62
     9
100
AcDbCircle
 10
90.785275
 20
71.999115
 30
0.0
 40
2.675
210
0.0
220
0.0
230
1.0
  0
ARC
  5
1FF
100
AcDbEntity
  8
1
390
0
  6
DOT
 62
     9
100
AcDbCircle
 10
90.785275
 20
71.999115
 30
0.0
 40
3.075
210
0.0
220
0.0
230
1.0
100
AcDbArc
 50
90.0
 51
103.899449
  0
ARC
  5
200
100
AcDbEntity
  8
1
390
0
  6
DOT
 62
     9
100
AcDbCircle
 10
90.785275
 20
71.999115
 30
0.0
 40
3.075
210
0.0
220
0.0
230
1.0
100
AcDbArc
 50
103.899449
 51
108.977889
  0
ARC
  5
201
100
AcDbEntity
  8
1
390
0
  6
DOT
 62
     9
100
AcDbCircle
 10
90.785275
 20
71.999115
 30
0.0
 40
3.075
210
0.0
220
0.0
230
1.0
100
AcDbArc
 50
108.977889
 51
116.580197
  0
ARC
  5
202
100
AcDbEntity
  8
1
390
0
  6
DOT
 62
     9
100
AcDbCircle
 10
90.785275
 20
71.999115
 30
0.0
 40
3.075
210
0.0
220
0.0
230
1.0
100
AcDbArc
 50
116.580197
 51
139.427742
  0
ARC
  5
203
100
AcDbEntity
  8
1
390
0
  6
DOT
 62
     9
100
AcDbCircle
 10
90.785275
 20
71.999115
 30
0.0
 40
3.075
210
0.0
220
0.0
230
1.0
100
AcDbArc
 50
139.427742
 51
167.319617
  0
ARC
  5
204
100
AcDbEntity
  8
1
390
0
  6
DOT
 62
     9
100
AcDbCircle
 10
90.785275
 20
71.999115
 30
0.0
 40
3.075
210
0.0
220
0.0
230
1.0
100
AcDbArc
 50
167.319617
 51
192.680383
  0
ARC
  5
205
100
AcDbEntity
  8
1
390
0
  6
DOT
 62
     9
100
AcDbCircle
 10
90.785275
 20
71.999115
 30
0.0
 40
3.075
210
0.0
220
0.0
230
1.0
100
AcDbArc
 50
192.680383
 51
216.416624
  0
ARC
  5
206
100
AcDbEntity
  8
1
390
0
  6
DOT
 62
     9
100
AcDbCircle
 10
90.785275
 20
71.999115
 30
0.0
 40
3.075
210
0.0
220
0.0
230
1.0
100
AcDbArc
 50
216.416624
 51
243.419803
  0
ARC
  5
207
100
AcDbEntity
  8
1
390
0
  6
DOT
 62
     9
100
AcDbCircle
 10
90.785275
 20
71.999115
 30
0.0
 40
3.075
210
0.0
220
0.0
230
1.0
100
AcDbArc
 50
243.419803
 51
256.100551
  0
ARC
  5
208
100
AcDbEntity
  8
1
390
0
  6
DOT
 62
     9
100
AcDbCircle
 10
90.785275
 20
71.999115
 30
0.0
 40
3.075
210
0.0
220
0.0
230
1.0
100
AcDbArc
 50
256.100551
 51
283.899449
  0
ARC
  5
209
100
AcDbEntity
  8
1
390
0
  6
DOT
 62
     9
100
AcDbCircle
 10
90.785275
 20
71.999115
 30
0.0
 40
3.075
210
0.0
220
0.0
230
1.0
100
AcDbArc
 50
283.899449
 51
296.580197
  0
ARC
  5
20A
100
AcDbEntity
  8
1
390
0
  6
DOT
 62
     9
100
AcDbCircle
 10
90.785275
 20
71.999115
 30
0.0
 40
3.075
210
0.0
220
0.0
230
1.0
100
AcDbArc
 50
296.580197
 51
323.583376
  0
ARC
  5
20B
100
AcDbEntity
  8
1
390
0
  6
DOT
 62
     9
100
AcDbCircle
 10
90.785275
 20
71.999115
 30
0.0
 40
3.075
210
0.0
220
0.0
230
1.0
100
AcDbArc
 50
323.583376
 51
347.319617
  0
ARC
  5
20C
100
AcDbEntity
  8
1
390
0
  6
DOT
 62
     9
100
AcDbCircle
 10
90.785275
 20
71.999115
 30
0.0
 40
3.075
210
0.0
220
0.0
230
1.0
100
AcDbArc
 50
347.319617
 51
12.680383
  0
ARC
  5
20D
100
AcDbEntity
  8
1
390
0
  6
DOT
 62
     9
100
AcDbCircle
 10
90.785275
 20
71.999115
 30
0.0
 40
3.075
210
0.0
220
0.0
230
1.0
100
AcDbArc
 50
12.680383
 51
40.572258
  0
ARC
  5
20E
100
AcDbEntity
  8
1
390
0
  6
DOT
 62
     9
100
AcDbCircle
 10
90.785275
 20
71.999115
 30
0.0
 40
3.075
210
0.0
220
0.0
230
1.0
100
AcDbArc
 50
40.572258
 51
63.419803
  0
ARC
  5
20F
100
AcDbEntity
  8
1
390
0
  6
DOT
 62
     9
100
AcDbCircle
 10
90.785275
 20
71.999115
 30
0.0
 40
3.075
210
0.0
220
0.0
230
1.0
100
AcDbArc
 50
63.419803
 51
71.022111
  0
ARC
  5
210
100
AcDbEntity
  8
1
390
0
  6
DOT
 62
     9
100
AcDbCircle
 10
90.785275
 20
71.999115
 30
0.0
 40
3.075
210
0.0
220
0.0
230
1.0
100
AcDbArc
 50
71.022111
 51
76.100551
  0
ARC
  5
211
100
AcDbEntity
  8
1
390
0
  6
DOT
 62
     9
100
AcDbCircle
 10
90.785275
 20
71.999115
 30
0.0
 40
3.075
210
0.0
220
0.0
230
1.0
100
AcDbArc
 50
76.100551
 51
90.0
  0
ARC
  5
212
100
AcDbEntity
  8
1
390
0
  6
DOT
 62
     9
100
AcDbCircle
 10
90.785275
 20
71.999115
 30
0.0
 40
3.175
210
0.0
220
0.0
230
1.0
100
AcDbArc
 50
340.888268
 51
360.0
  0
ARC
  5
213
100
AcDbEntity
  8
1
390
0
  6
DOT
 62
     9
100
AcDbCircle
 10
90.785275
 20
71.999115
 30
0.0
 40
3.175
210
0.0
220
0.0
230
1.0
100
AcDbArc
 50
325.463639
 51
340.888268
  0
ARC
  5
214
100
AcDbEntity
  8
1
390
0
  6
DOT
 62
     9
100
AcDbCircle
 10
90.785275
 20
71.999115
 30
0.0
 40
3.175
210
0.0
220
0.0
230
1.0
100
AcDbArc
 50
299.986667
 51
325.463639
  0
ARC
  5
215
100
AcDbEntity
  8
1
390
0
  6
DOT
 62
     9
100
AcDbCircle
 10
90.785275
 20
71.999115
 30
0.0
 40
3.175
210
0.0
220
0.0
230
1.0
100
AcDbArc
 50
289.059956
 51
299.986667
  0
ARC
  5
216
100
AcDbEntity
  8
1
390
0
  6
DOT
 62
     9
100
AcDbCircle
 10
90.785275
 20
71.999115
 30
0.0
 40
3.175
210
0.0
220
0.0
230
1.0
100
AcDbArc
 50
250.940044
 51
289.059956
  0
ARC
  5
217
100
AcDbEntity
  8
1
390
0
  6
DOT
 62
     9
100
AcDbCircle
 10
90.785275
 20
71.999115
 30
0.0
 40
3.175
210
0.0
220
0.0
230
1.0
100
AcDbArc
 50
240.013333
 51
250.940044
  0
ARC
  5
218
100
AcDbEntity
  8
1
390
0
  6
DOT
 62
     9
100
AcDbCircle
 10
90.785275
 20
71.999115
 30
0.0
 40
3.175
210
0.0
220
0.0
230
1.0
100
AcDbArc
 50
214.536361
 51
240.013333
  0
ARC
  5
219
100
AcDbEntity
  8
1
390
0
  6
DOT
 62
     9
100
AcDbCircle
 10
90.785275
 20
71.999115
 30
0.0
 40
3.175
210
0.0
220
0.0
230
1.0
100
AcDbArc
 50
199.111732
 51
214.536361
  0
ARC
  5
21A
100
AcDbEntity
  8
1
390
0
  6
DOT
 62
     9
100
AcDbCircle
 10
90.785275
 20
71.999115
 30
0.0
 40
3.175
210
0.0
220
0.0
230
1.0
100
AcDbArc
 50
160.888268
 51
199.111732
  0
ARC
  5
21B
100
AcDbEntity
  8
1
390
0
  6
DOT
 62
     9
100
AcDbCircle
 10
90.785275
 20
71.999115
 30
0.0
 40
3.175
210
0.0
220
0.0
230
1.0
100
AcDbArc
 50
140.955687
 51
160.888268
  0
ARC
  5
21C
100
AcDbEntity
  8
1
390
0
  6
DOT
 62
     9
100
AcDbCircle
 10
90.785275
 20
71.999115
 30
0.0
 40
3.175
210
0.0
220
0.0
230
1.0
100
AcDbArc
 50
119.986667
 51
140.955687
  0
ARC
  5
21D
100
AcDbEntity
  8
1
390
0
  6
DOT
 62
     9
100
AcDbCircle
 10
90.785275
 20
71.999115
 30
0.0
 40
3.175
210
0.0
220
0.0
230
1.0
100
AcDbArc
 50
109.059956
 51
119.986667
  0
ARC
  5
21E
100
AcDbEntity
  8
1
390
0
  6
DOT
 62
     9
100
AcDbCircle
 10
90.785275
 20
71.999115
 30
0.0
 40
3.175
210
0.0
220
0.0
230
1.0
100
AcDbArc
 50
70.940044
 51
109.059956
  0
ARC
  5
21F
100
AcDbEntity
  8
1
390
0
  6
DOT
 62
     9
100
AcDbCircle
 10
90.785275
 20
71.999115
 30
0.0
 40
3.175
210
0.0
220
0.0
230
1.0
100
AcDbArc
 50
60.013333
 51
70.940044
  0
ARC
  5
220
100
AcDbEntity
  8
1
390
0
  6
DOT
 62
     9
100
AcDbCircle
 10
90.785275
 20
71.999115
 30
0.0
 40
3.175
210
0.0
220
0.0
230
1.0
100
AcDbArc
 50
39.044313
 51
60.013333
  0
ARC
  5
221
100
AcDbEntity
  8
1
390
0
  6
DOT
 62
     9
100
AcDbCircle
 10
90.785275
 20
71.999115
 30
0.0
 40
3.175
210
0.0
220
0.0
230
1.0
100
AcDbArc
 50
19.111732
 51
39.044313
  0
ARC
  5
222
100
AcDbEntity
  8
1
390
0
  6
DOT
 62
     9
100
AcDbCircle
 10
90.785275
 20
71.999115
 30
0.0
 40
3.175
210
0.0
220
0.0
230
1.0
100
AcDbArc
 50
0.0
 51
19.111732
  0
CIRCLE
  5
223
100
AcDbEntity
  8
1
390
0
  6
DOT
 62
     9
100
AcDbCircle
 10
90.785275
 20
71.999115
 30
0.0
 40
3.0
210
0.0
220
0.0
230
1.0
  0
CIRCLE
  5
224
100
AcDbEntity
  8
1
390
0
  6
DOT
 62
     9
100
AcDbCircle
 10
90.785275
 20
71.999115
 30
0.0
 40
2.475
210
0.0
220
0.0
230
1.0
  0
LINE
  5
225
100
AcDbEntity
  8
1
390
0
  6
Continuous
 62
     7
100
AcDbLine
 10
87.785275
 20
73.999115
 30
0.0
 11
87.785275
 21
70.299115
 31
0.0
  0
LINE
  5
226
100
AcDbEntity
  8
1
390
0
  6
Continuous
 62
     7
100
AcDbLine
 10
93.785275
 20
70.299115
 30
0.0
 11
93.785275
 21
73.999115
 31
0.0
  0
ARC
  5
227
100
AcDbEntity
  8
1
390
0
  6
Continuous
 62
     7
100
AcDbCircle
 10
87.885275
 20
70.299115
 30
0.0
 40
0.1
210
0.0
220
0.0
230
1.0
100
AcDbArc
 50
180.0
 51
270.0
  0
ARC
  5
228
100
AcDbEntity
  8
1
390
0
  6
Continuous
 62
     7
100
AcDbCircle
 10
93.685275
 20
70.299115
 30
0.0
 40
0.1
210
0.0
220
0.0
230
1.0
100
AcDbArc
 50
270.0
 51
360.0
  0
LINE
  5
229
100
AcDbEntity
  8
1
390
0
  6
Continuous
 62
     7
100
AcDbLine
 10
88.285275
 20
70.199115
 30
0.0
 11
88.485275
 21
69.999115
 31
0.0
  0
LINE
  5
22A
100
AcDbEntity
  8
1
390
0
  6
Continuous
 62
     7
100
AcDbLine
 10
93.085275
 20
69.999115
 30
0.0
 11
93.285275
 21
70.199115
 31
0.0
  0
LINE
  5
22B
100
AcDbEntity
  8
1
390
0
  6
Continuous
 62
     7
100
AcDbLine
 10
89.785275
 20
108.039523
 30
0.0
 11
89.785275
 21
73.999115
 31
0.0
  0
LINE
  5
22C
100
AcDbEntity
  8
1
390
0
  6
Continuous
 62
     7
100
AcDbLine
 10
91.785275
 20
73.999115
 30
0.0
 11
91.785275
 21
108.039523
 31
0.0
  0
ARC
  5
22D
100
AcDbEntity
  8
1
390
0
  6
Continuous
 62
     7
100
AcDbCircle
 10
85.185275
 20
109.999115
 30
0.0
 40
5.0
210
0.0
220
0.0
230
1.0
100
AcDbArc
 50
336.926082
 51
360.0
  0
ARC
  5
22E
100
AcDbEntity
  8
1
390
0
  6
Continuous
 62
     7
100
AcDbCircle
 10
96.385275
 20
109.999115
 30
0.0
 40
5.0
210
0.0
220
0.0
230
1.0
100
AcDbArc
 50
180.0
 51
203.073918
  0
LINE
  5
22F
100
AcDbEntity
  8
1
390
0
  6
Continuous
 62
     7
100
AcDbLine
 10
90.185275
 20
169.999115
 30
0.0
 11
90.185275
 21
109.999115
 31
0.0
  0
LINE
  5
230
100
AcDbEntity
  8
1
390
0
  6
Continuous
 62
     7
100
AcDbLine
 10
91.385275
 20
109.999115
 30
0.0
 11
91.385275
 21
169.999115
 31
0.0
  0
CIRCLE
  5
231
100
AcDbEntity
  8
1
390
0
  6
Continuous
 62
     7
100
AcDbCircle
 10
180.140008
 20
218.000346
 30
0.0
 40
0.6
210
0.0
220
0.0
230
1.0
  0
CIRCLE
  5
232
100
AcDbEntity
  8
1
390
0
  6
Continuous
 62
     7
100
AcDbCircle
 10
180.140008
 20
218.000346
 30
0.0
 40
1.0
210
0.0
220
0.0
230
1.0
  0
CIRCLE
  5
233
100
AcDbEntity
  8
1
390
0
  6
Continuous
 62
     7
100
AcDbCircle
 10
180.140008
 20
218.000346
 30
0.0
 40
3.0
210
0.0
220
0.0
230
1.0
  0
ARC
  5
234
100
AcDbEntity
  8
1
390
0
  6
Continuous
 62
     7
100
AcDbCircle
 10
184.203258
 20
223.700346
 30
0.0
 40
4.0
210
0.0
220
0.0
230
1.0
100
AcDbArc
 50
234.516796
 51
258.463041
  0
POLYLINE
  5
235
100
AcDbEntity
  8
1
390
0
  6
Continuous
 62
     7
100
AcDb2dPolyline
 66
     1
 10
0.0
 20
0.0
 30
0.0
 40
3.0
 41
3.0
  0
VERTEX
  5
236
100
AcDbEntity
  8
1
390
0
 62
     7
100
AcDbVertex
100
AcDb2dVertex
 10
183.654604
 20
216.306976
 30
0.0
  0
VERTEX
  5
237
100
AcDbEntity
  8
1
390
0
 62
     7
100
AcDbVertex
100
AcDb2dVertex
 10
183.692139
 20
216.4031
 30
0.0
  0
VERTEX
  5
238
100
AcDbEntity
  8
1
390
0
 62
     7
100
AcDbVertex
100
AcDb2dVertex
 10
183.674009
 20
216.530514
 30
0.0
 42
0.117185
  0
VERTEX
  5
239
100
AcDbEntity
  8
1
390
0
 62
     7
100
AcDbVertex
100
AcDb2dVertex
 10
183.129402
 20
217.50115
 30
0.0
  0
SEQEND
  5
23A
100
AcDbEntity
  8
0
390
0
  0
ARC
  5
23B
100
AcDbEntity
  8
1
390
0
  6
Continuous
 62
     7
100
AcDbCircle
 10
183.203258
 20
217.199325
 30
0.0
 40
1.0
210
0.0
220
0.0
230
1.0
100
AcDbArc
 50
281.536959
 51
296.83009
  0
LINE
  5
23C
100
AcDbEntity
  8
1
390
0
  6
Continuous
 62
     7
100
AcDbLine
 10
198.140008
 20
216.300346
 30
0.0
 11
198.140008
 21
219.700346
 31
0.0
  0
LINE
  5
23D
100
AcDbEntity
  8
1
390
0
  6
DOT
 62
     9
100
AcDbLine
 10
183.641249
 20
219.700346
 30
0.0
 11
183.664694
 21
219.68854
 31
0.0
  0
POLYLINE
  5
23E
100
AcDbEntity
  8
1
390
0
  6
Continuous
 62
     7
100
AcDb2dPolyline
 66
     1
 10
0.0
 20
0.0
 30
0.0
 40
3.0
 41
3.0
  0
VERTEX
  5
23F
100
AcDbEntity
  8
1
390
0
 62
     7
100
AcDbVertex
100
AcDb2dVertex
 10
183.129402
 20
218.499541
 30
0.0
 42
0.12413
  0
VERTEX
  5
240
100
AcDbEntity
  8
1
390
0
 62
     7
100
AcDbVertex
100
AcDb2dVertex
 10
183.682729
 20
219.511306
 30
0.0
  0
VERTEX
  5
241
100
AcDbEntity
  8
1
390
0
 62
     7
100
AcDbVertex
100
AcDb2dVertex
 10
183.690771
 20
219.626361
 30
0.0
  0
VERTEX
  5
242
100
AcDbEntity
  8
1
390
0
 62
     7
100
AcDbVertex
100
AcDb2dVertex
 10
183.654604
 20
219.693715
 30
0.0
  0
SEQEND
  5
243
100
AcDbEntity
  8
0
390
0
  0
POLYLINE
  5
244
100
AcDbEntity
  8
1
390
0
  6
DOT
 62
     9
100
AcDb2dPolyline
 66
     1
 10
0.0
 20
0.0
 30
0.0
 40
3.0
 41
3.0
  0
VERTEX
  5
245
100
AcDbEntity
  8
1
390
0
 62
     9
100
AcDbVertex
100
AcDb2dVertex
 10
183.664694
 20
219.68854
 30
0.0
  0
VERTEX
  5
246
100
AcDbEntity
  8
1
390
0
 62
     9
100
AcDbVertex
100
AcDb2dVertex
 10
183.717889
 20
219.580028
 30
0.0
  0
VERTEX
  5
247
100
AcDbEntity
  8
1
390
0
 62
     9
100
AcDbVertex
100
AcDb2dVertex
 10
183.710744
 20
219.478444
 30
0.0
 42
-0.128623
  0
VERTEX
  5
248
100
AcDbEntity
  8
1
390
0
 62
     9
100
AcDbVertex
100
AcDb2dVertex
 10
183.206719
 20
218.537261
 30
0.0
  0
SEQEND
  5
249
100
AcDbEntity
  8
0
390
0
  0
LINE
  5
24A
100
AcDbEntity
  8
1
390
0
  6
DOT
 62
     9
100
AcDbLine
 10
183.206719
 20
218.537261
 30
0.0
 11
183.108722
 21
218.432476
 31
0.0
  0
LINE
  5
24B
100
AcDbEntity
  8
1
390
0
  6
DOT
 62
     9
100
AcDbLine
 10
183.108722
 20
217.568215
 30
0.0
 11
183.206719
 21
217.46343
 31
0.0
  0
POLYLINE
  5
24C
100
AcDbEntity
  8
1
390
0
  6
DOT
 62
     9
100
AcDb2dPolyline
 66
     1
 10
0.0
 20
0.0
 30
0.0
 40
3.0
 41
3.0
  0
VERTEX
  5
24D
100
AcDbEntity
  8
1
390
0
 62
     9
100
AcDbVertex
100
AcDb2dVertex
 10
183.206719
 20
217.46343
 30
0.0
 42
-0.126867
  0
VERTEX
  5
24E
100
AcDbEntity
  8
1
390
0
 62
     9
100
AcDbVertex
100
AcDb2dVertex
 10
183.710002
 20
216.526684
 30
0.0
  0
VERTEX
  5
24F
100
AcDbEntity
  8
1
390
0
 62
     9
100
AcDbVertex
100
AcDb2dVertex
 10
183.718
 20
216.422824
 30
0.0
  0
VERTEX
  5
250
100
AcDbEntity
  8
1
390
0
 62
     9
100
AcDbVertex
100
AcDb2dVertex
 10
183.684911
 20
216.326972
 30
0.0
  0
VERTEX
  5
251
100
AcDbEntity
  8
1
390
0
 62
     9
100
AcDbVertex
100
AcDb2dVertex
 10
183.664694
 20
216.312151
 30
0.0
  0
SEQEND
  5
252
100
AcDbEntity
  8
0
390
0
  0
LINE
  5
253
100
AcDbEntity
  8
1
390
0
  6
Continuous
 62
     7
100
AcDbLine
 10
183.129402
 20
217.50115
 30
0.0
 11
183.10277
 21
217.52913
 31
0.0
  0
LINE
  5
254
100
AcDbEntity
  8
1
390
0
  6
Continuous
 62
     7
100
AcDbLine
 10
183.10277
 20
218.471561
 30
0.0
 11
183.129402
 21
218.499541
 31
0.0
  0
ARC
  5
255
100
AcDbEntity
  8
1
390
0
  6
DOT
 62
     9
100
AcDbCircle
 10
180.140008
 20
218.000346
 30
0.0
 40
3.0
210
0.0
220
0.0
230
1.0
100
AcDbArc
 50
0.0
 51
8.2819
  0
ARC
  5
256
100
AcDbEntity
  8
1
390
0
  6
Continuous
 62
     7
100
AcDbCircle
 10
183.203258
 20
218.801366
 30
0.0
 40
1.0
210
0.0
220
0.0
230
1.0
100
AcDbArc
 50
63.16991
 51
78.463041
  0
ARC
  5
257
100
AcDbEntity
  8
1
390
0
  6
Continuous
 62
     7
100
AcDbCircle
 10
184.203258
 20
212.300346
 30
0.0
 40
4.0
210
0.0
220
0.0
230
1.0
100
AcDbArc
 50
101.536959
 51
125.483204
  0
LINE
  5
258
100
AcDbEntity
  8
1
390
0
  6
Continuous
 62
     7
100
AcDbLine
 10
203.140008
 20
216.600346
 30
0.0
 11
203.140008
 21
219.400346
 31
0.0
  0
CIRCLE
  5
259
100
AcDbEntity
  8
1
390
0
  6
DOT
 62
     9
100
AcDbCircle
 10
180.140008
 20
218.000346
 30
0.0
 40
2.5
210
0.0
220
0.0
230
1.0
  0
CIRCLE
  5
25A
100
AcDbEntity
  8
1
390
0
  6
DOT
 62
     9
100
AcDbCircle
 10
180.140008
 20
218.000346
 30
0.0
 40
2.3
210
0.0
220
0.0
230
1.0
  0
LINE
  5
25B
100
AcDbEntity
  8
1
390
0
  6
Continuous
 62
     7
100
AcDbLine
 10
198.140008
 20
219.700346
 30
0.0
 11
183.64141
 21
219.700346
 31
0.0
  0
LINE
  5
25C
100
AcDbEntity
  8
1
390
0
  6
Continuous
 62
     7
100
AcDbLine
 10
183.641316
 20
216.300346
 30
0.0
 11
198.140008
 21
216.300346
 31
0.0
  0
LINE
  5
25D
100
AcDbEntity
  8
1
390
0
  6
Continuous
 62
     7
100
AcDbLine
 10
203.140008
 20
219.400346
 30
0.0
 11
198.140008
 21
219.400346
 31
0.0
  0
LINE
  5
25E
100
AcDbEntity
  8
1
390
0
  6
Continuous
 62
     7
100
AcDbLine
 10
198.140008
 20
216.600346
 30
0.0
 11
203.140008
 21
216.600346
 31
0.0
  0
LINE
  5
25F
100
AcDbEntity
  8
1
390
0
  6
Continuous
 62
     7
100
AcDbLine
 10
224.950561
 20
219.250346
 30
0.0
 11
203.140008
 21
219.250346
 31
0.0
  0
LINE
  5
260
100
AcDbEntity
  8
1
390
0
  6
Continuous
 62
     7
100
AcDbLine
 10
203.140008
 20
216.750346
 30
0.0
 11
224.20982
 21
216.750346
 31
0.0
  0
LINE
  5
261
100
AcDbEntity
  8
1
390
0
  6
Continuous
 62
     7
100
AcDbLine
 10
282.996776
 20
214.800346
 30
0.0
 11
282.996776
 21
221.200346
 31
0.0
  0
LINE
  5
262
100
AcDbEntity
  8
1
390
0
  6
Continuous
 62
     7
100
AcDbLine
 10
276.596776
 20
221.200346
 30
0.0
 11
276.596776
 21
219.113898
 31
0.0
  0
LINE
  5
263
100
AcDbEntity
  8
1
390
0
  6
DOT
 62
     9
100
AcDbLine
 10
278.496776
 20
216.886793
 30
0.0
 11
276.596776
 21
216.886793
 31
0.0
  0
LINE
  5
264
100
AcDbEntity
  8
1
390
0
  6
Continuous
 62
     7
100
AcDbLine
 10
276.596776
 20
216.886793
 30
0.0
 11
276.596776
 21
214.800346
 31
0.0
  0
LINE
  5
265
100
AcDbEntity
  8
1
390
0
  6
Continuous
 62
     7
100
AcDbLine
 10
278.496776
 20
216.886793
 30
0.0
 11
276.596776
 21
216.886793
 31
0.0
  0
LINE
  5
266
100
AcDbEntity
  8
1
390
0
  6
Continuous
 62
     7
100
AcDbLine
 10
278.496776
 20
219.113898
 30
0.0
 11
276.596776
 21
219.113898
 31
0.0
  0
LINE
  5
267
100
AcDbEntity
  8
1
390
0
  6
Continuous
 62
     7
100
AcDbLine
 10
278.496776
 20
219.113898
 30
0.0
 11
278.496776
 21
216.886793
 31
0.0
  0
LINE
  5
268
100
AcDbEntity
  8
1
390
0
  6
Continuous
 62
     7
100
AcDbLine
 10
286.16672
 20
221.175346
 30
0.0
 11
286.16672
 21
214.825346
 31
0.0
  0
LINE
  5
269
100
AcDbEntity
  8
1
390
0
  6
Continuous
 62
     7
100
AcDbLine
 10
286.06672
 20
214.925346
 30
0.0
 11
286.06672
 21
218.000346
 31
0.0
  0
LINE
  5
26A
100
AcDbEntity
  8
1
390
0
  6
Continuous
 62
     7
100
AcDbLine
 10
286.06672
 20
218.000346
 30
0.0
 11
286.06672
 21
221.075346
 31
0.0
  0
LINE
  5
26B
100
AcDbEntity
  8
1
390
0
  6
Continuous
 62
     7
100
AcDbLine
 10
288.46672
 20
214.825346
 30
0.0
 11
288.46672
 21
221.175346
 31
0.0
  0
LINE
  5
26C
100
AcDbEntity
  8
1
390
0
  6
Continuous
 62
     7
100
AcDbLine
 10
288.56672
 20
221.075346
 30
0.0
 11
288.56672
 21
214.925346
 31
0.0
  0
LINE
  5
26D
100
AcDbEntity
  8
1
390
0
  6
Continuous
 62
     7
100
AcDbLine
 10
291.16672
 20
221.175346
 30
0.0
 11
291.16672
 21
214.825346
 31
0.0
  0
LINE
  5
26E
100
AcDbEntity
  8
1
390
0
  6
Continuous
 62
     7
100
AcDbLine
 10
293.46672
 20
214.825346
 30
0.0
 11
293.46672
 21
221.175346
 31
0.0
  0
LINE
  5
26F
100
AcDbEntity
  8
1
390
0
  6
Continuous
 62
     7
100
AcDbLine
 10
293.56672
 20
221.075346
 30
0.0
 11
293.56672
 21
214.925346
 31
0.0
  0
LINE
  5
270
100
AcDbEntity
  8
1
390
0
  6
Continuous
 62
     7
100
AcDbLine
 10
291.06672
 20
214.925346
 30
0.0
 11
291.06672
 21
218.000346
 31
0.0
  0
LINE
  5
271
100
AcDbEntity
  8
1
390
0
  6
Continuous
 62
     7
100
AcDbLine
 10
291.06672
 20
218.000346
 30
0.0
 11
291.06672
 21
221.075346
 31
0.0
  0
LINE
  5
272
100
AcDbEntity
  8
1
390
0
  6
Continuous
 62
     7
100
AcDbLine
 10
276.496776
 20
214.900346
 30
0.0
 11
276.496776
 21
217.219321
 31
0.0
  0
LINE
  5
273
100
AcDbEntity
  8
1
390
0
  6
Continuous
 62
     7
100
AcDbLine
 10
263.496776
 20
214.900346
 30
0.0
 11
263.496776
 21
218.000346
 31
0.0
  0
LINE
  5
274
100
AcDbEntity
  8
1
390
0
  6
Continuous
 62
     7
100
AcDbLine
 10
276.496776
 20
218.781371
 30
0.0
 11
276.496776
 21
221.100346
 31
0.0
  0
LINE
  5
275
100
AcDbEntity
  8
1
390
0
  6
Continuous
 62
     7
100
AcDbLine
 10
263.496776
 20
218.000346
 30
0.0
 11
263.496776
 21
221.100346
 31
0.0
  0
LINE
  5
276
100
AcDbEntity
  8
1
390
0
  6
Continuous
 62
     7
100
AcDbLine
 10
276.496776
 20
217.219321
 30
0.0
 11
276.496776
 21
218.781371
 31
0.0
  0
LINE
  5
277
100
AcDbEntity
  8
1
390
0
  6
Continuous
 62
     7
100
AcDbLine
 10
261.996776
 20
215.345248
 30
0.0
 11
261.996776
 21
218.000346
 31
0.0
  0
LINE
  5
278
100
AcDbEntity
  8
1
390
0
  6
Continuous
 62
     7
100
AcDbLine
 10
261.996776
 20
218.000346
 30
0.0
 11
261.996776
 21
220.655443
 31
0.0
  0
POLYLINE
  5
279
100
AcDbEntity
  8
1
390
0
  6
Continuous
 62
     7
100
AcDb2dPolyline
 66
     1
 10
0.0
 20
0.0
 30
0.0
 40
3.0
 41
3.0
  0
VERTEX
  5
27A
100
AcDbEntity
  8
1
390
0
 62
     7
100
AcDbVertex
100
AcDb2dVertex
 10
276.496776
 20
217.219321
 30
0.0
  0
VERTEX
  5
27B
100
AcDbEntity
  8
1
390
0
 62
     7
100
AcDbVertex
100
AcDb2dVertex
 10
276.543065
 20
217.052121
 30
0.0
  0
VERTEX
  5
27C
100
AcDbEntity
  8
1
390
0
 62
     7
100
AcDbVertex
100
AcDb2dVertex
 10
276.596776
 20
216.886793
 30
0.0
  0
SEQEND
  5
27D
100
AcDbEntity
  8
0
390
0
  0
POLYLINE
  5
27E
100
AcDbEntity
  8
1
390
0
  6
Continuous
 62
     7
100
AcDb2dPolyline
 66
     1
 10
0.0
 20
0.0
 30
0.0
 40
3.0
 41
3.0
  0
VERTEX
  5
27F
100
AcDbEntity
  8
1
390
0
 62
     7
100
AcDbVertex
100
AcDb2dVertex
 10
276.596776
 20
219.113898
 30
0.0
  0
VERTEX
  5
280
100
AcDbEntity
  8
1
390
0
 62
     7
100
AcDbVertex
100
AcDb2dVertex
 10
276.575521
 20
219.051259
 30
0.0
  0
VERTEX
  5
281
100
AcDbEntity
  8
1
390
0
 62
     7
100
AcDbVertex
100
AcDb2dVertex
 10
276.533728
 20
218.917115
 30
0.0
  0
VERTEX
  5
282
100
AcDbEntity
  8
1
390
0
 62
     7
100
AcDbVertex
100
AcDb2dVertex
 10
276.496776
 20
218.781371
 30
0.0
  0
SEQEND
  5
283
100
AcDbEntity
  8
0
390
0
  0
POLYLINE
  5
284
100
AcDbEntity
  8
1
390
0
  6
DOT
 62
     9
100
AcDb2dPolyline
 66
     1
 10
0.0
 20
0.0
 30
0.0
 40
3.0
 41
3.0
  0
VERTEX
  5
285
100
AcDbEntity
  8
1
390
0
 62
     9
100
AcDbVertex
100
AcDb2dVertex
 10
276.496776
 20
218.781371
 30
0.0
  0
VERTEX
  5
286
100
AcDbEntity
  8
1
390
0
 62
     9
100
AcDbVertex
100
AcDb2dVertex
 10
276.543065
 20
218.94857
 30
0.0
  0
VERTEX
  5
287
100
AcDbEntity
  8
1
390
0
 62
     9
100
AcDbVertex
100
AcDb2dVertex
 10
276.596776
 20
219.113898
 30
0.0
  0
SEQEND
  5
288
100
AcDbEntity
  8
0
390
0
  0
POLYLINE
  5
289
100
AcDbEntity
  8
1
390
0
  6
DOT
 62
     9
100
AcDb2dPolyline
 66
     1
 10
0.0
 20
0.0
 30
0.0
 40
3.0
 41
3.0
  0
VERTEX
  5
28A
100
AcDbEntity
  8
1
390
0
 62
     9
100
AcDbVertex
100
AcDb2dVertex
 10
276.596776
 20
216.886793
 30
0.0
  0
VERTEX
  5
28B
100
AcDbEntity
  8
1
390
0
 62
     9
100
AcDbVertex
100
AcDb2dVertex
 10
276.543162
 20
217.051799
 30
0.0
  0
VERTEX
  5
28C
100
AcDbEntity
  8
1
390
0
 62
     9
100
AcDbVertex
100
AcDb2dVertex
 10
276.496776
 20
217.219321
 30
0.0
  0
SEQEND
  5
28D
100
AcDbEntity
  8
0
390
0
  0
LINE
  5
28E
100
AcDbEntity
  8
1
390
0
  6
Continuous
 62
     7
100
AcDbLine
 10
296.56672
 20
215.100346
 30
0.0
 11
296.56672
 21
218.000346
 31
0.0
  0
LINE
  5
28F
100
AcDbEntity
  8
1
390
0
  6
Continuous
 62
     7
100
AcDbLine
 10
296.56672
 20
218.000346
 30
0.0
 11
296.56672
 21
220.900346
 31
0.0
  0
LINE
  5
290
100
AcDbEntity
  8
1
390
0
  6
Continuous
 62
     7
100
AcDbLine
 10
285.16672
 20
216.364039
 30
0.0
 11
283.56672
 21
216.364039
 31
0.0
  0
LINE
  5
291
100
AcDbEntity
  8
1
390
0
  6
Continuous
 62
     7
100
AcDbLine
 10
285.16672
 20
219.636652
 30
0.0
 11
283.56672
 21
219.636652
 31
0.0
  0
LINE
  5
292
100
AcDbEntity
  8
1
390
0
  6
Continuous
 62
     7
100
AcDbLine
 10
283.56672
 20
219.636652
 30
0.0
 11
283.56672
 21
216.364039
 31
0.0
  0
LINE
  5
293
100
AcDbEntity
  8
1
390
0
  6
Continuous
 62
     7
100
AcDbLine
 10
285.16672
 20
216.364039
 30
0.0
 11
285.16672
 21
219.636652
 31
0.0
  0
LINE
  5
294
100
AcDbEntity
  8
1
390
0
  6
Continuous
 62
     7
100
AcDbLine
 10
285.16672
 20
214.800346
 30
0.0
 11
285.16672
 21
216.364039
 31
0.0
  0
LINE
  5
295
100
AcDbEntity
  8
1
390
0
  6
Continuous
 62
     7
100
AcDbLine
 10
283.56672
 20
214.800346
 30
0.0
 11
283.56672
 21
216.364039
 31
0.0
  0
LINE
  5
296
100
AcDbEntity
  8
1
390
0
  6
DOT
 62
     9
100
AcDbLine
 10
285.16672
 20
216.364039
 30
0.0
 11
283.56672
 21
216.364039
 31
0.0
  0
LINE
  5
297
100
AcDbEntity
  8
1
390
0
  6
Continuous
 62
     7
100
AcDbLine
 10
283.56672
 20
219.636652
 30
0.0
 11
283.56672
 21
221.200346
 31
0.0
  0
LINE
  5
298
100
AcDbEntity
  8
1
390
0
  6
Continuous
 62
     7
100
AcDbLine
 10
285.16672
 20
219.636652
 30
0.0
 11
285.16672
 21
221.200346
 31
0.0
  0
LINE
  5
299
100
AcDbEntity
  8
1
390
0
  6
Continuous
 62
     7
100
AcDbLine
 10
249.496776
 20
216.000346
 30
0.0
 11
249.496776
 21
218.000346
 31
0.0
  0
LINE
  5
29A
100
AcDbEntity
  8
1
390
0
  6
Continuous
 62
     7
100
AcDbLine
 10
249.496776
 20
218.000346
 30
0.0
 11
249.496776
 21
220.000346
 31
0.0
  0
LINE
  5
29B
100
AcDbEntity
  8
1
390
0
  6
Continuous
 62
     7
100
AcDbLine
 10
304.56672
 20
220.225346
 30
0.0
 11
304.56672
 21
218.000346
 31
0.0
  0
LINE
  5
29C
100
AcDbEntity
  8
1
390
0
  6
Continuous
 62
     7
100
AcDbLine
 10
304.56672
 20
218.000346
 30
0.0
 11
304.56672
 21
215.775346
 31
0.0
  0
LINE
  5
29D
100
AcDbEntity
  8
1
390
0
  6
Continuous
 62
     7
100
AcDbLine
 10
282.996776
 20
221.200346
 30
0.0
 11
276.596776
 21
221.200346
 31
0.0
  0
LINE
  5
29E
100
AcDbEntity
  8
1
390
0
  6
Continuous
 62
     7
100
AcDbLine
 10
276.596776
 20
214.800346
 30
0.0
 11
282.996776
 21
214.800346
 31
0.0
  0
LINE
  5
29F
100
AcDbEntity
  8
1
390
0
  6
Continuous
 62
     7
100
AcDbLine
 10
286.16672
 20
221.175346
 30
0.0
 11
286.06672
 21
221.075346
 31
0.0
  0
LINE
  5
2A0
100
AcDbEntity
  8
1
390
0
  6
Continuous
 62
     7
100
AcDbLine
 10
286.06672
 20
214.925346
 30
0.0
 11
286.16672
 21
214.825346
 31
0.0
  0
LINE
  5
2A1
100
AcDbEntity
  8
1
390
0
  6
Continuous
 62
     7
100
AcDbLine
 10
288.46672
 20
214.825346
 30
0.0
 11
288.56672
 21
214.925346
 31
0.0
  0
LINE
  5
2A2
100
AcDbEntity
  8
1
390
0
  6
Continuous
 62
     7
100
AcDbLine
 10
288.56672
 20
221.075346
 30
0.0
 11
288.46672
 21
221.175346
 31
0.0
  0
LINE
  5
2A3
100
AcDbEntity
  8
1
390
0
  6
Continuous
 62
     7
100
AcDbLine
 10
286.16672
 20
214.825346
 30
0.0
 11
288.46672
 21
214.825346
 31
0.0
  0
LINE
  5
2A4
100
AcDbEntity
  8
1
390
0
  6
Continuous
 62
     7
100
AcDbLine
 10
288.46672
 20
221.175346
 30
0.0
 11
286.16672
 21
221.175346
 31
0.0
  0
LINE
  5
2A5
100
AcDbEntity
  8
1
390
0
  6
Continuous
 62
     7
100
AcDbLine
 10
291.16672
 20
214.825346
 30
0.0
 11
293.46672
 21
214.825346
 31
0.0
  0
LINE
  5
2A6
100
AcDbEntity
  8
1
390
0
  6
Continuous
 62
     7
100
AcDbLine
 10
293.46672
 20
221.175346
 30
0.0
 11
291.16672
 21
221.175346
 31
0.0
  0
LINE
  5
2A7
100
AcDbEntity
  8
1
390
0
  6
Continuous
 62
     7
100
AcDbLine
 10
293.46672
 20
214.825346
 30
0.0
 11
293.56672
 21
214.925346
 31
0.0
  0
LINE
  5
2A8
100
AcDbEntity
  8
1
390
0
  6
Continuous
 62
     7
100
AcDbLine
 10
293.56672
 20
221.075346
 30
0.0
 11
293.46672
 21
221.175346
 31
0.0
  0
LINE
  5
2A9
100
AcDbEntity
  8
1
390
0
  6
Continuous
 62
     7
100
AcDbLine
 10
291.16672
 20
221.175346
 30
0.0
 11
291.06672
 21
221.075346
 31
0.0
  0
LINE
  5
2AA
100
AcDbEntity
  8
1
390
0
  6
Continuous
 62
     7
100
AcDbLine
 10
291.06672
 20
214.925346
 30
0.0
 11
291.16672
 21
214.825346
 31
0.0
  0
LINE
  5
2AB
100
AcDbEntity
  8
1
390
0
  6
Continuous
 62
     7
100
AcDbLine
 10
263.496776
 20
214.900346
 30
0.0
 11
276.496776
 21
214.900346
 31
0.0
  0
LINE
  5
2AC
100
AcDbEntity
  8
1
390
0
  6
Continuous
 62
     7
100
AcDbLine
 10
276.496776
 20
221.100346
 30
0.0
 11
263.496776
 21
221.100346
 31
0.0
  0
LINE
  5
2AD
100
AcDbEntity
  8
1
390
0
  6
Continuous
 62
     7
100
AcDbLine
 10
263.496776
 20
221.100346
 30
0.0
 11
261.996776
 21
220.655443
 31
0.0
  0
LINE
  5
2AE
100
AcDbEntity
  8
1
390
0
  6
Continuous
 62
     7
100
AcDbLine
 10
261.996776
 20
215.345248
 30
0.0
 11
263.496776
 21
214.900346
 31
0.0
  0
LINE
  5
2AF
100
AcDbEntity
  8
1
390
0
  6
Continuous
 62
     7
100
AcDbLine
 10
288.56672
 20
215.000346
 30
0.0
 11
291.06672
 21
215.000346
 31
0.0
  0
LINE
  5
2B0
100
AcDbEntity
  8
1
390
0
  6
Continuous
 62
     7
100
AcDbLine
 10
291.06672
 20
221.000346
 30
0.0
 11
288.56672
 21
221.000346
 31
0.0
  0
LINE
  5
2B1
100
AcDbEntity
  8
1
390
0
  6
Continuous
 62
     7
100
AcDbLine
 10
293.56672
 20
215.000346
 30
0.0
 11
296.46672
 21
215.000346
 31
0.0
  0
LINE
  5
2B2
100
AcDbEntity
  8
1
390
0
  6
Continuous
 62
     7
100
AcDbLine
 10
296.46672
 20
221.000346
 30
0.0
 11
293.56672
 21
221.000346
 31
0.0
  0
LINE
  5
2B3
100
AcDbEntity
  8
1
390
0
  6
Continuous
 62
     7
100
AcDbLine
 10
276.596776
 20
221.200346
 30
0.0
 11
276.496776
 21
221.100346
 31
0.0
  0
LINE
  5
2B4
100
AcDbEntity
  8
1
390
0
  6
Continuous
 62
     7
100
AcDbLine
 10
276.496776
 20
214.900346
 30
0.0
 11
276.596776
 21
214.800346
 31
0.0
  0
ARC
  5
2B5
100
AcDbEntity
  8
1
390
0
  6
Continuous
 62
     7
100
AcDbCircle
 10
296.46672
 20
215.100346
 30
0.0
 40
0.1
210
0.0
220
0.0
230
1.0
100
AcDbArc
 50
270.0
 51
360.0
  0
ARC
  5
2B6
100
AcDbEntity
  8
1
390
0
  6
Continuous
 62
     7
100
AcDbCircle
 10
296.46672
 20
220.900346
 30
0.0
 40
0.1
210
0.0
220
0.0
230
1.0
100
AcDbArc
 50
0.0
 51
90.0
  0
LINE
  5
2B7
100
AcDbEntity
  8
1
390
0
  6
Continuous
 62
     7
100
AcDbLine
 10
283.56672
 20
214.800346
 30
0.0
 11
285.16672
 21
214.800346
 31
0.0
  0
LINE
  5
2B8
100
AcDbEntity
  8
1
390
0
  6
Continuous
 62
     7
100
AcDbLine
 10
285.16672
 20
221.200346
 30
0.0
 11
283.56672
 21
221.200346
 31
0.0
  0
LINE
  5
2B9
100
AcDbEntity
  8
1
390
0
  6
Continuous
 62
     7
100
AcDbLine
 10
285.16672
 20
215.325346
 30
0.0
 11
286.06672
 21
215.325346
 31
0.0
  0
LINE
  5
2BA
100
AcDbEntity
  8
1
390
0
  6
Continuous
 62
     7
100
AcDbLine
 10
286.06672
 20
220.675346
 30
0.0
 11
285.16672
 21
220.675346
 31
0.0
  0
LINE
  5
2BB
100
AcDbEntity
  8
1
390
0
  6
Continuous
 62
     7
100
AcDbLine
 10
261.996776
 20
220.655443
 30
0.0
 11
249.496776
 21
220.000346
 31
0.0
  0
LINE
  5
2BC
100
AcDbEntity
  8
1
390
0
  6
Continuous
 62
     7
100
AcDbLine
 10
249.496776
 20
216.000346
 30
0.0
 11
261.996776
 21
215.345248
 31
0.0
  0
LINE
  5
2BD
100
AcDbEntity
  8
1
390
0
  6
Continuous
 62
     7
100
AcDbLine
 10
282.996776
 20
215.500346
 30
0.0
 11
283.56672
 21
215.500346
 31
0.0
  0
LINE
  5
2BE
100
AcDbEntity
  8
1
390
0
  6
Continuous
 62
     7
100
AcDbLine
 10
283.56672
 20
220.500346
 30
0.0
 11
282.996776
 21
220.500346
 31
0.0
  0
LINE
  5
2BF
100
AcDbEntity
  8
1
390
0
  6
Continuous
 62
     7
100
AcDbLine
 10
296.56672
 20
215.525346
 30
0.0
 11
304.31672
 21
215.525346
 31
0.0
  0
LINE
  5
2C0
100
AcDbEntity
  8
1
390
0
  6
Continuous
 62
     7
100
AcDbLine
 10
304.31672
 20
220.475346
 30
0.0
 11
296.56672
 21
220.475346
 31
0.0
  0
ARC
  5
2C1
100
AcDbEntity
  8
1
390
0
  6
Continuous
 62
     7
100
AcDbCircle
 10
304.31672
 20
220.225346
 30
0.0
 40
0.25
210
0.0
220
0.0
230
1.0
100
AcDbArc
 50
0.0
 51
90.0
  0
ARC
  5
2C2
100
AcDbEntity
  8
1
390
0
  6
Continuous
 62
     7
100
AcDbCircle
 10
304.31672
 20
215.775346
 30
0.0
 40
0.25
210
0.0
220
0.0
230
1.0
100
AcDbArc
 50
270.0
 51
360.0
  0
LINE
  5
2C3
100
AcDbEntity
  8
1
390
0
  6
Continuous
 62
     7
100
AcDbLine
 10
249.496776
 20
219.250346
 30
0.0
 11
229.659091
 21
219.250346
 31
0.0
  0
LINE
  5
2C4
100
AcDbEntity
  8
1
390
0
  6
Continuous
 62
     7
100
AcDbLine
 10
228.877841
 20
216.750346
 30
0.0
 11
249.496776
 21
216.750346
 31
0.0
  0
LINE
  5
2C6
100
AcDbEntity
  8
5
390
0
  6
Continuous
 62
     9
100
AcDbLine
 10
223.242135
 20
214.835254
 30
0.0
 11
224.837431
 21
215.173014
 31
0.0
  0
LINE
  5
2C7
100
AcDbEntity
  8
5
390
0
  6
Continuous
 62
     9
100
AcDbLine
 10
228.242135
 20
214.835254
 30
0.0
 11
229.837431
 21
215.173014
 31
0.0
  0
POINT
  5
2C8
100
AcDbEntity
  8
5
390
0
 62
     9
100
AcDbPoint
 10
225.326009
 20
220.517483
 30
0.0
  0
POINT
  5
2C9
100
AcDbEntity
  8
5
390
0
 62
     9
100
AcDbPoint
 10
223.876141
 20
215.624178
 30
0.0
  0
LINE
  5
2CA
100
AcDbEntity
  8
1
390
0
  6
Continuous
 62
     9
100
AcDbLine
 10
225.326009
 20
220.517483
 30
0.0
 11
223.876141
 21
215.624178
 31
0.0
  0
POINT
  5
2CB
100
AcDbEntity
  8
5
390
0
 62
     9
100
AcDbPoint
 10
230.083389
 20
220.608099
 30
0.0
  0
POINT
  5
2CC
100
AcDbEntity
  8
5
390
0
 62
     9
100
AcDbPoint
 10
228.497596
 20
215.533561
 30
0.0
  0
LINE
  5
2CD
100
AcDbEntity
  8
1
390
0
  6
Continuous
 62
     9
100
AcDbLine
 10
230.083389
 20
220.608099
 30
0.0
 11
228.497596
 21
215.533561
 31
0.0
  0
LINE
  5
2CF
100
AcDbEntity
  8
1
390
0
  6
CENTER
 62
     1
100
AcDbLine
 10
180.140008
 20
171.001783
 30
0.0
 11
180.140008
 21
69.255623
 31
0.0
  0
LINE
  5
2D0
100
AcDbEntity
  8
1
390
0
  6
CENTER
 62
     1
100
AcDbLine
 10
305.437334
 20
71.999115
 30
0.0
 11
182.140008
 21
71.999115
 31
0.0
  0
LINE
  5
2D1
100
AcDbEntity
  8
1
390
0
  6
CENTER
 62
     1
100
AcDbLine
 10
90.785275
 20
69.255623
 30
0.0
 11
90.785275
 21
171.001783
 31
0.0
  0
LINE
  5
2D2
100
AcDbEntity
  8
1
390
0
  6
CENTER
 62
     1
100
AcDbLine
 10
176.140008
 20
218.000346
 30
0.0
 11
305.396598
 21
218.000346
 31
0.0
  0
LINE
  5
2D3
100
AcDbEntity
  8
1
390
0
  6
CENTER
 62
     1
100
AcDbLine
 10
180.140008
 20
214.000346
 30
0.0
 11
180.140008
 21
222.000346
 31
0.0
  0
POINT
  5
2D4
100
AcDbEntity
  8
5
390
0
 62
     9
100
AcDbPoint
 10
305.396598
 20
208.2218
 30
0.0
  0
POINT
  5
2D5
100
AcDbEntity
  8
5
390
0
 62
     9
100
AcDbPoint
 10
305.437334
 20
66.551552
 30
0.0
  0
POINT
  5
2D6
100
AcDbEntity
  8
5
390
0
 62
     9
100
AcDbPoint
 10
181.506539
 20
69.255623
 30
0.0
  0
POINT
  5
2D7
100
AcDbEntity
  8
5
390
0
 62
     9
100
AcDbPoint
 10
184.825873
 20
171.001783
 30
0.0
  0
POINT
  5
2D8
100
AcDbEntity
  8
5
390
0
 62
     9
100
AcDbPoint
 10
183.140008
 20
218.000346
 30
0.0
  0
INSERT
  5
2EA
100
AcDbEntity
  8
1
390
0
100
AcDbBlockReference
  2
AID1043
 10
0.0
 20
0.0
 30
0.0
  0
INSERT
  5
2FD
100
AcDbEntity
  8
1
390
0
100
AcDbBlockReference
  2
AID1056
 10
0.0
 20
0.0
 30
0.0
  0
INSERT
  5
30E
100
AcDbEntity
  8
1
390
0
100
AcDbBlockReference
  2
AID1071
 10
0.0
 20
0.0
 30
0.0
  0
INSERT
  5
320
100
AcDbEntity
  8
1
390
0
100
AcDbBlockReference
  2
AID1082
 10
0.0
 20
0.0
 30
0.0
  0
POINT
  5
321
100
AcDbEntity
  8
1
390
0
 62
     9
100
AcDbPoint
 10
183.140008
 20
70.299115
 30
0.0
  0
INSERT
  5
336
100
AcDbEntity
  8
1
390
0
100
AcDbBlockReference
  2
AID1097
 10
0.0
 20
0.0
 30
0.0
  0
INSERT
  5
34A
100
AcDbEntity
  8
1
390
0
100
AcDbBlockReference
  2
AID1116
 10
0.0
 20
0.0
 30
0.0
  0
POINT
  5
34B
100
AcDbEntity
  8
1
390
0
 62
     9
100
AcDbPoint
 10
179.540008
 20
109.999115
 30
0.0
  0
INSERT
  5
35D
100
AcDbEntity
  8
1
390
0
100
AcDbBlockReference
  2
AID1135
 10
0.0
 20
0.0
 30
0.0
  0
INSERT
  5
371
100
AcDbEntity
  8
1
390
0
100
AcDbBlockReference
  2
AID1148
 10
0.0
 20
0.0
 30
0.0
  0
INSERT
  5
386
100
AcDbEntity
  8
1
390
0
100
AcDbBlockReference
  2
AID1165
 10
0.0
 20
0.0
 30
0.0
  0
INSERT
  5
397
100
AcDbEntity
  8
1
390
0
100
AcDbBlockReference
  2
AID1184
 10
0.0
 20
0.0
 30
0.0
  0
POINT
  5
398
100
AcDbEntity
  8
1
390
0
 62
     9
100
AcDbPoint
 10
183.140008
 20
218.000346
 30
0.0
  0
INSERT
  5
3AA
100
AcDbEntity
  8
1
390
0
100
AcDbBlockReference
  2
AID1197
 10
0.0
 20
0.0
 30
0.0
  0
INSERT
  5
3AF
100
AcDbEntity
  8
1
390
0
100
AcDbBlockReference
  2
AID1210
 10
0.0
 20
0.0
 30
0.0
  0
INSERT
  5
3B4
100
AcDbEntity
  8
1
390
0
100
AcDbBlockReference
  2
AID1213
 10
0.0
 20
0.0
 30
0.0
  0
INSERT
  5
3B9
100
AcDbEntity
  8
1
390
0
100
AcDbBlockReference
  2
AID1216
 10
0.0
 20
0.0
 30
0.0
  0
ENDSEC
  0
SECTION
  2
OBJECTS
  0
DICTIONARY
  5
19
100
AcDbDictionary
280
     0
281
     1
  3
ACAD_GROUP
350
1A
  3
ACAD_MLINESTYLE
350
1B
  3
ACAD_LAYOUT
350
1E
  3
ACAD_PLOTSETTINGS
350
22
  3
ACAD_PLOTSTYLENAME
350
1F
  3
ACAD_WIPEOUT_VARS
350
23
  0
DICTIONARY
  5
1A
102
{ACAD_REACTORS
330
19
102
}
100
AcDbDictionary
280
     0
281
     1
  0
DICTIONARY
  5
1B
102
{ACAD_REACTORS
330
19
102
}
100
AcDbDictionary
280
     0
281
     1
  3
Standard
350
1C
  0
MLINESTYLE
  5
1C
102
{ACAD_REACTORS
330
1B
102
}
100
AcDbMlineStyle
  2
Standard
 70
     0
  3

 62
     0
 51
90.0
 52
90.0
 71
     2
 49
0.5
 62
   256
  6
ByLayer
 49
-0.5
 62
   256
  6
ByLayer
  0
ACDBDICTIONARYWDFLT
  5
1F
102
{ACAD_REACTORS
330
19
102
}
100
AcDbDictionary
281
     1
  3
Normal
350
1D
100
AcDbDictionaryWithDefault
340
1D
  0
ACDBPLACEHOLDER
  5
1D
102
{ACAD_REACTORS
330
1F
102
}
  0
LAYOUT
  5
20
102
{ACAD_REACTORS
330
1E
102
}
100
AcDbPlotSettings
  1

  2

  4

  6

 40
0.0
 41
0.0
 42
0.0
 43
0.0
 44
0.0
 45
0.0
 46
0.0
 47
0.0
 48
0.0
 49
0.0
140
0.0
141
0.0
142
1.0
143
1.0
 70
  1024
 72
     0
 73
     0
 74
     0
  7

 75
     0
147
1.0
148
0.0
149
0.0
100
AcDbLayout
  1
Model
 70
     0
 71
     0
 10
0.0
 20
0.0
 11
0.0
 21
0.0
 12
0.0
 22
0.0
 32
0.0
 14
0.0
 24
0.0
 34
0.0
 15
0.0
 25
0.0
 35
0.0
146
0.0
 13
0.0
 23
0.0
 33
0.0
 16
0.0
 26
0.0
 36
0.0
 17
0.0
 27
0.0
 37
0.0
 76
     0
330
A
331
0
345
0
346
0
  0
LAYOUT
  5
21
102
{ACAD_REACTORS
330
1E
102
}
100
AcDbPlotSettings
  1

  2

  4

  6

 40
0.0
 41
0.0
 42
0.0
 43
0.0
 44
0.0
 45
0.0
 46
0.0
 47
0.0
 48
0.0
 49
0.0
140
0.0
141
0.0
142
1.0
143
1.0
 70
     0
 72
     0
 73
     0
 74
     0
  7

 75
     0
147
1.0
148
0.0
149
0.0
100
AcDbLayout
  1
Layout1
 70
     0
 71
     0
 10
0.0
 20
0.0
 11
0.0
 21
0.0
 12
0.0
 22
0.0
 32
0.0
 14
0.0
 24
0.0
 34
0.0
 15
0.0
 25
0.0
 35
0.0
146
0.0
 13
0.0
 23
0.0
 33
0.0
 16
0.0
 26
0.0
 36
0.0
 17
0.0
 27
0.0
 37
0.0
 76
     0
330
B
331
0
345
0
346
0
  0
DICTIONARY
  5
1E
102
{ACAD_REACTORS
330
19
102
}
100
AcDbDictionary
280
     0
281
     1
  3
Layout1
350
21
  3
Model
350
20
  0
DICTIONARY
  5
22
102
{ACAD_REACTORS
330
19
102
}
100
AcDbDictionary
280
     0
281
     1
  0
WIPEOUTVARIABLES
  5
23
100
AcDbWipeoutVariables
 70
     1
  0
ENDSEC
  0
EOF
