  0
SECTION
  2
HEADER
  9
$ACADVER
  1
AC1015
  9
$ACADMAINTVER
 70
     6
  9
$DWGCODEPAGE
  3
DOS932
  9
$INSBASE
 10
0.0
 20
0.0
 30
0.0
  9
$EXTMIN
 10
0.0
 20
0.0
 30
0.0
  9
$EXTMAX
 10
410.0
 20
287.0
 30
10.0
  9
$LIMMIN
 10
0.0
 20
0.0
  9
$LIMMAX
 10
410.0
 20
287.0
  9
$ORTHOMODE
 70
     0
  9
$REGENMODE
 70
     1
  9
$FILLMODE
 70
     1
  9
$QTEXTMODE
 70
     0
  9
$MIRRTEXT
 70
     1
  9
$LTSCALE
 40
10.0
  9
$ATTMODE
 70
     1
  9
$TEXTSIZE
 40
0.2
  9
$TRACEWID
 40
0.05
  9
$TEXTSTYLE
  7
Standard
  9
$CLAYER
  8
0
  9
$CELTYPE
  6
Continuous
  9
$CECOLOR
 62
   256
  9
$CELTSCALE
 40
1.0
  9
$DISPSILH
 70
     0
  9
$DIMSCALE
 40
1.0
  9
$DIMASZ
 40
3.2
  9
$DIMEXO
 40
3.2
  9
$DIMDLI
 40
0.38
  9
$DIMRND
 40
0.0
  9
$DIMDLE
 40
0.0
  9
$DIMEXE
 40
2.4
  9
$DIMTP
 40
0.0
  9
$DIMTM
 40
0.0
  9
$DIMTXT
 40
8.0
  9
$DIMCEN
 40
0.09
  9
$DIMTSZ
 40
0.0
  9
$DIMTOL
 70
     0
  9
$DIMLIM
 70
     0
  9
$DIMTIH
 70
     0
  9
$DIMTOH
 70
     0
  9
$DIMSE1
 70
     0
  9
$DIMSE2
 70
     0
  9
$DIMTAD
 70
     1
  9
$DIMZIN
 70
     0
  9
$DIMBLK
  1

  9
$DIMASO
 70
     1
  9
$DIMSHO
 70
     1
  9
$DIMPOST
  1

  9
$DIMAPOST
  1

  9
$DIMALT
 70
     0
  9
$DIMALTD
 70
     2
  9
$DIMALTF
 40
25.4
  9
$DIMLFAC
 40
1.0
  9
$DIMTOFL
 70
     0
  9
$DIMTVP
 40
0.0
  9
$DIMTIX
 70
     0
  9
$DIMSOXD
 70
     0
  9
$DIMSAH
 70
     0
  9
$DIMBLK1
  1

  9
$DIMBLK2
  1

  9
$DIMSTYLE
  2
Standard
  9
$DIMCLRD
 70
     7
  9
$DIMCLRE
 70
     7
  9
$DIMCLRT
 70
     7
  9
$DIMTFAC
 40
0.6
  9
$DIMGAP
 40
4.0
  9
$DIMJUST
 70
     0
  9
$DIMSD1
 70
     0
  9
$DIMSD2
 70
     0
  9
$DIMTOLJ
 70
     1
  9
$DIMTZIN
 70
     0
  9
$DIMALTZ
 70
     0
  9
$DIMALTTZ
 70
     0
  9
$DIMUPT
 70
     0
  9
$DIMDEC
 70
     6
  9
$DIMTDEC
 70
     4
  9
$DIMALTU
 70
     2
  9
$DIMALTTD
 70
     2
  9
$DIMTXSTY
  7
Standard
  9
$DIMAUNIT
 70
     0
  9
$DIMADEC
 70
     0
  9
$DIMALTRND
 40
0.0
  9
$DIMAZIN
 70
     0
  9
$DIMDSEP
 70
     0
  9
$DIMATFIT
 70
     3
  9
$DIMFRAC
 70
     0
  9
$DIMLDRBLK
  1

  9
$DIMLUNIT
 70
     2
  9
$DIMLWD
 70
     0
  9
$DIMLWE
 70
     0
  9
$DIMTMOVE
 70
     0
  9
$LUNITS
 70
     2
  9
$LUPREC
 70
     4
  9
$SKETCHINC
 40
0.1
  9
$FILLETRAD
 40
0.0
  9
$AUNITS
 70
     0
  9
$AUPREC
 70
     0
  9
$MENU
  1
acad
  9
$ELEVATION
 40
0.0
  9
$PELEVATION
 40
0.0
  9
$THICKNESS
 40
0.0
  9
$LIMCHECK
 70
     0
  9
$CHAMFERA
 40
0.0
  9
$CHAMFERB
 40
0.0
  9
$CHAMFERC
 40
0.0
  9
$CHAMFERD
 40
0.0
  9
$SKPOLY
 70
     0
  9
$TDCREATE
 40
2458421.490520834
  9
$TDUCREATE
 40
0.000000000
  9
$TDUPDATE
 40
2458421.115462963
  9
$TDUUPDATE
 40
0.000000000
  9
$TDINDWG
 40
0.0000000000
  9
$TDUSRTIMER
 40
0.0000000000
  9
$USRTIMER
 70
     1
  9
$ANGBASE
 50
0.0
  9
$ANGDIR
 70
     0
  9
$PDMODE
 70
     0
  9
$PDSIZE
 40
0.0
  9
$PLINEWID
 40
0.0
  9
$SPLFRAME
 70
     0
  9
$SPLINETYPE
 70
     6
  9
$SPLINESEGS
 70
     8
  9
$HANDSEED
  5
78A
  9
$SURFTAB1
 70
     6
  9
$SURFTAB2
 70
     6
  9
$SURFTYPE
 70
     6
  9
$SURFU
 70
     6
  9
$SURFV
 70
     6
  9
$UCSBASE
  2

  9
$UCSNAME
  2

  9
$UCSORG
 10
0.0
 20
0.0
 30
0.0
  9
$UCSXDIR
 10
1.0
 20
0.0
 30
0.0
  9
$UCSYDIR
 10
0.0
 20
1.0
 30
0.0
  9
$UCSORTHOREF
  2

  9
$UCSORTHOVIEW
 70
     0
  9
$UCSORGTOP
 10
0.0
 20
0.0
 30
0.0
  9
$UCSORGBOTTOM
 10
0.0
 20
0.0
 30
0.0
  9
$UCSORGLEFT
 10
0.0
 20
0.0
 30
0.0
  9
$UCSORGRIGHT
 10
0.0
 20
0.0
 30
0.0
  9
$UCSORGFRONT
 10
0.0
 20
0.0
 30
0.0
  9
$UCSORGBACK
 10
0.0
 20
0.0
 30
0.0
  9
$PUCSBASE
  2

  9
$PUCSNAME
  2

  9
$PUCSORG
 10
0.0
 20
0.0
 30
0.0
  9
$PUCSXDIR
 10
1.0
 20
0.0
 30
0.0
  9
$PUCSYDIR
 10
0.0
 20
1.0
 30
0.0
  9
$PUCSORTHOREF
  2

  9
$PUCSORTHOVIEW
 70
     0
  9
$PUCSORGTOP
 10
0.0
 20
0.0
 30
0.0
  9
$PUCSORGBOTTOM
 10
0.0
 20
0.0
 30
0.0
  9
$PUCSORGLEFT
 10
0.0
 20
0.0
 30
0.0
  9
$PUCSORGRIGHT
 10
0.0
 20
0.0
 30
0.0
  9
$PUCSORGFRONT
 10
0.0
 20
0.0
 30
0.0
  9
$PUCSORGBACK
 10
0.0
 20
0.0
 30
0.0
  9
$USERI1
 70
     0
  9
$USERI2
 70
     0
  9
$USERI3
 70
     0
  9
$USERI4
 70
     0
  9
$USERI5
 70
     0
  9
$USERR1
 40
0.0
  9
$USERR2
 40
0.0
  9
$USERR3
 40
0.0
  9
$USERR4
 40
0.0
  9
$USERR5
 40
0.0
  9
$WORLDVIEW
 70
     1
  9
$SHADEDGE
 70
     3
  9
$SHADEDIF
 70
    70
  9
$TILEMODE
 70
     1
  9
$MAXACTVP
 70
    16
  9
$PINSBASE
 10
0.0
 20
0.0
 30
0.0
  9
$PLIMCHECK
 70
     0
  9
$PEXTMIN
 10
1.000000E+20
 20
1.000000E+20
 30
1.000000E+20
  9
$PEXTMAX
 10
-1.000000E+20
 20
-1.000000E+20
 30
-1.000000E+20
  9
$PLIMMIN
 10
0.0
 20
0.0
  9
$PLIMMAX
 10
12.0
 20
9.0
  9
$UNITMODE
 70
     0
  9
$VISRETAIN
 70
     0
  9
$PLINEGEN
 70
     1
  9
$PSLTSCALE
 70
     0
  9
$TREEDEPTH
 70
  3020
  9
$CMLSTYLE
  2
Standard
  9
$CMLJUST
 70
     0
  9
$CMLSCALE
 40
1.0
  9
$PROXYGRAPHICS
 70
     0
  9
$MEASUREMENT
 70
     0
  9
$CELWEIGHT
370
     0
  9
$ENDCAPS
280
     0
  9
$JOINSTYLE
280
     0
  9
$LWDISPLAY
290
     0
  9
$INSUNITS
 70
     0
  9
$HYPERLINKBASE
  1

  9
$STYLESHEET
  1

  9
$XEDIT
290
     1
  9
$CEPSNTYPE
380
     0
  9
$PSTYLEMODE
290
     1
  9
$FINGERPRINTGUID
  2

  9
$VERSIONGUID
  2

  9
$EXTNAMES
290
     1
  9
$PSVPSCALE
 40
0.0
  0
ENDSEC
  0
SECTION
  2
CLASSES
  0
CLASS
  1
LWPOLYLINE
  2
AcDbPolyline
  3
AutoCAD 2000
 90
        0
280
     0
281
     1
  0
CLASS
  1
IMAGE
  2
AcDbRasterImage
  3
ISM
 90
      127
280
     0
281
     1
  0
CLASS
  1
OLE2FRAME
  2
AcDbOle2Frame
  3
AutoCAD 2000
 90
        0
280
     0
281
     1
  0
CLASS
  1
HATCH
  2
AcDbHatch
  3
AutoCAD 2000
 90
        0
280
     0
281
     1
  0
CLASS
  1
DICTIONARYVAR
  2
AcDbDictionaryVar
  3
AutoCAD 2000
 90
        0
280
     0
281
     0
  0
CLASS
  1
RASTERVARIABLES
  2
AcDbRasterVariables
  3
ISM
 90
        0
280
     0
281
     0
  0
CLASS
  1
IMAGEDEF
  2
AcDbRasterImageDef
  3
ISM
 90
        0
280
     0
281
     0
  0
CLASS
  1
IMAGEDEF_REACTOR
  2
AcDbRasterImageDefReactor
  3
ISM
 90
        1
280
     0
281
     0
  0
CLASS
  1
IDBUFFER
  2
AcDbIdBuffer
  3
AutoCAD 2000
 90
        0
280
     0
281
     0
  0
CLASS
  1
SPATIAL_FILTER
  2
AcDbSpatialFilter
  3
AutoCAD 2000
 90
        0
280
     0
281
     0
  0
CLASS
  1
XRECORD
  2
AcDbXrecord
  3
AutoCAD 2000
 90
        0
280
     0
281
     0
  0
CLASS
  1
SORTENTSTABLE
  2
AcDbSortentsTable
  3
AutoCAD 2000
 90
        0
280
     0
281
     0
  0
CLASS
  1
LAYER_INDEX
  2
AcDbLayerIndex
  3
AutoCAD 2000
 90
        0
280
     0
281
     0
  0
CLASS
  1
SPATIAL_INDEX
  2
AcDbSpatialIndex
  3
AutoCAD 2000
 90
        0
280
     0
281
     0
  0
CLASS
  1
OBJECT_PTR
  2
CAseDLPNTableRecord
  3
"ASE-LPNTableRecord"
 90
        1
280
     0
281
     0
  0
CLASS
  1
LAYOUT
  2
AcDbLayout
  3
AutoCAD 2000
 90
        0
280
     0
281
     0
  0
CLASS
  1
PLOTSETTINGS
  2
AcDbPlotSettings
  3
AutoCAD 2000
 90
        0
280
     0
281
     0
  0
CLASS
  1
ACDBDICTIONARYWDFLT
  2
AcDbDictionaryWithDefault
  3
AutoCAD 2000
 90
        0
280
     0
281
     0
  0
CLASS
  1
ACDBPLACEHOLDER
  2
AcDbPlaceHolder
  3
AutoCAD 2000
 90
        0
280
     0
281
     0
  0
CLASS
  1
VBA_PROJECT
  2
AcDbVbaProject
  3
acadvba
 90
        0
280
     0
281
     0
  0
CLASS
  1
WIPEOUT
  2
AcDbWipeout
  3
WipeOut|AutoCAD Express Tool|expresstools@autodesk.com
 90
      127
280
     0
281
     1
  0
CLASS
  1
WIPEOUTVARIABLES
  2
AcDbWipeoutVariables
  3
WipeOut|AutoCAD Express Tool|expresstools@autodesk.com
 90
        0
280
     0
281
     0
  0
CLASS
  1
RTEXT
  2
RText
  3
RText|AutoCAD Express Tool|expresstools@autodesk.com
 90
        0
280
     0
281
     1
  0
CLASS
  1
ARCALIGNEDTEXT
  2
AcDbArcAlignedText
  3
ATEXT|AutoCAD Express Tool|expresstools@autodesk.com
 90
        0
280
     0
281
     1
  0
ENDSEC
  0
SECTION
  2
TABLES
  0
TABLE
  2
VPORT
  5
7
100
AcDbSymbolTable
 70
     1
  0
VPORT
  5
15
100
AcDbSymbolTableRecord
100
AcDbViewportTableRecord
  2
*ACTIVE
 70
     0
 10
0.0
 20
0.0
 11
1.0
 21
1.0
 12
6.591288
 22
4.579184
 13
0.0
 23
0.0
 14
1.0
 24
1.0
 15
0.0
 25
0.0
 16
0.0
 26
0.0
 36
1.0
 17
0.0
 27
0.0
 37
0.0
 40
9.158369
 41
0.688564
 42
50.0
 43
0.0
 44
0.0
 50
0.0
 51
0.0
 71
     0
 72
   100
 73
     1
 74
     1
 75
     0
 76
     0
 77
     0
 78
     0
281
     0
 65
     0
110
0.0
120
0.0
130
0.0
111
1.0
121
0.0
131
0.0
112
0.0
122
1.0
132
0.0
345
0
346
0
 79
     0
146
0.0
  0
ENDTAB
  0
TABLE
  2
LTYPE
  5
4
100
AcDbSymbolTable
 70
     5
  0
LTYPE
  5
11
100
AcDbSymbolTableRecord
100
AcDbLinetypeTableRecord
  2
ByBlock
 70
    64
  3

 72
    65
 73
     0
 40
0.0
  0
LTYPE
  5
12
100
AcDbSymbolTableRecord
100
AcDbLinetypeTableRecord
  2
ByLayer
 70
    64
  3

 72
    65
 73
     0
 40
0.0
  0
LTYPE
  5
13
100
AcDbSymbolTableRecord
100
AcDbLinetypeTableRecord
  2
Continuous
 70
    64
  3
Solid line
 72
    65
 73
     0
 40
0.0
  0
LTYPE
  5
D4
100
AcDbSymbolTableRecord
100
AcDbLinetypeTableRecord
  2
DOT
 70
    64
  3
..............................................
 72
    65
 73
     2
 40
0.5
 49
0.25
 74
     0
 49
-0.25
 74
     0
  0
LTYPE
  5
6F5
100
AcDbSymbolTableRecord
100
AcDbLinetypeTableRecord
  2
CENTER
 70
    64
  3
____ _ ____ _ ____ _ ____ _ ____ _ ____ _ ____
 72
    65
 73
     4
 40
2.0
 49
1.25
 74
     0
 49
-0.25
 74
     0
 49
0.25
 74
     0
 49
-0.25
 74
     0
  0
ENDTAB
  0
TABLE
  2
LAYER
  5
2
100
AcDbSymbolTable
 70
     3
  0
LAYER
  5
14
100
AcDbSymbolTableRecord
100
AcDbLayerTableRecord
  2
0
 70
     0
 62
     7
  6
Continuous
290
     1
370
    -3
390
1D
  0
LAYER
  5
27
100
AcDbSymbolTableRecord
100
AcDbLayerTableRecord
  2
256
 70
     0
 62
     7
  6
Continuous
290
     1
370
    -3
390
1D
  0
LAYER
  5
B8
100
AcDbSymbolTableRecord
100
AcDbLayerTableRecord
  2
1
 70
     0
 62
     7
  6
Continuous
290
     1
370
    -3
390
1D
  0
ENDTAB
  0
TABLE
  2
STYLE
  5
3
100
AcDbSymbolTable
 70
     1
  0
STYLE
  5
17
100
AcDbSymbolTableRecord
100
AcDbTextStyleTableRecord
  2
Standard
 70
     0
 40
0.0
 41
1.0
 50
0.0
 71
     0
 42
0.0
  3
ＭＳ Ｐゴシック
  4

1001
ACAD
1000
ＭＳ Ｐゴシック
1071
        0
  0
ENDTAB
  0
TABLE
  2
VIEW
  5
5
100
AcDbSymbolTable
 70
     0
  0
ENDTAB
  0
TABLE
  2
UCS
  5
6
100
AcDbSymbolTable
 70
     0
  0
ENDTAB
  0
TABLE
  2
APPID
  5
8
100
AcDbSymbolTable
 70
     2
  0
APPID
  5
16
100
AcDbSymbolTableRecord
100
AcDbRegAppTableRecord
  2
ACAD
 70
     0
  0
APPID
  5
26
100
AcDbSymbolTableRecord
100
AcDbRegAppTableRecord
  2
TOPsolid_Design
 70
     0
  0
ENDTAB
  0
TABLE
  2
DIMSTYLE
  5
9
100
AcDbSymbolTable
 70
     1
100
AcDbDimStyleTable
 71
     0
  0
DIMSTYLE
105
18
100
AcDbSymbolTableRecord
100
AcDbDimStyleTableRecord
  2
Standard
 70
     0
  3

  4

 40
1.0
 41
3.2
 42
3.2
 43
0.38
 44
2.4
 45
0.0
 46
0.0
 47
0.0
 48
0.0
 71
     0
 72
     0
 73
     0
 74
     0
 75
     0
 76
     0
 77
     1
 78
     0
 79
     0
140
8.0
141
0.09
142
0.0
143
25.4
144
1.0
145
0.0
146
0.6
147
4.0
148
0.0
170
     0
171
     2
172
     0
173
     0
174
     0
175
     0
176
     7
177
     7
178
     7
179
     0
271
     6
272
     4
273
     2
274
     2
275
     0
276
     0
277
     2
278
    46
279
     0
280
     0
281
     0
282
     0
283
     1
284
     0
285
     0
286
     0
288
     0
289
     3
340
17
341
0
342
0
343
0
344
0
371
    -2
372
    -2
  0
ENDTAB
  0
TABLE
  2
BLOCK_RECORD
  5
1
100
AcDbSymbolTable
 70
    11
  0
BLOCK_RECORD
  5
A
100
AcDbSymbolTableRecord
100
AcDbBlockTableRecord
  2
*MODEL_SPACE
340
20
  0
BLOCK_RECORD
  5
B
100
AcDbSymbolTableRecord
100
AcDbBlockTableRecord
  2
*PAPER_SPACE
340
21
  0
BLOCK_RECORD
  5
B3
100
AcDbSymbolTableRecord
100
AcDbBlockTableRecord
  2
AID278
340
0
102
{BLKREFS
331
B7
102
}
  0
BLOCK_RECORD
  5
701
100
AcDbSymbolTableRecord
100
AcDbBlockTableRecord
  2
AID2137
340
0
102
{BLKREFS
331
712
102
}
  0
BLOCK_RECORD
  5
713
100
AcDbSymbolTableRecord
100
AcDbBlockTableRecord
  2
AID2150
340
0
102
{BLKREFS
331
724
102
}
  0
BLOCK_RECORD
  5
725
100
AcDbSymbolTableRecord
100
AcDbBlockTableRecord
  2
AID2163
340
0
102
{BLKREFS
331
736
102
}
  0
BLOCK_RECORD
  5
737
100
AcDbSymbolTableRecord
100
AcDbBlockTableRecord
  2
AID2176
340
0
102
{BLKREFS
331
748
102
}
  0
BLOCK_RECORD
  5
749
100
AcDbSymbolTableRecord
100
AcDbBlockTableRecord
  2
AID2189
340
0
102
{BLKREFS
331
75A
102
}
  0
BLOCK_RECORD
  5
75B
100
AcDbSymbolTableRecord
100
AcDbBlockTableRecord
  2
AID2202
340
0
102
{BLKREFS
331
768
102
}
  0
BLOCK_RECORD
  5
769
100
AcDbSymbolTableRecord
100
AcDbBlockTableRecord
  2
AID2215
340
0
102
{BLKREFS
331
77A
102
}
  0
BLOCK_RECORD
  5
77B
100
AcDbSymbolTableRecord
100
AcDbBlockTableRecord
  2
AID2228
340
0
102
{BLKREFS
331
77F
102
}
  0
BLOCK_RECORD
  5
780
100
AcDbSymbolTableRecord
100
AcDbBlockTableRecord
  2
AID2231
340
0
102
{BLKREFS
331
784
102
}
  0
BLOCK_RECORD
  5
785
100
AcDbSymbolTableRecord
100
AcDbBlockTableRecord
  2
AID2234
340
0
102
{BLKREFS
331
789
102
}
  0
ENDTAB
  0
ENDSEC
  0
SECTION
  2
BLOCKS
  0
BLOCK
  5
D
100
AcDbEntity
  8
0
390
0
100
AcDbBlockBegin
  2
*MODEL_SPACE
 70
     0
 10
0.0
 20
0.0
 30
0.0
  3
*MODEL_SPACE
  1

  0
ENDBLK
  5
E
100
AcDbEntity
  8
0
390
0
100
AcDbBlockEnd
  0
BLOCK
  5
F
100
AcDbEntity
 67
     1
  8
0
390
0
100
AcDbBlockBegin
  2
*PAPER_SPACE
 70
     0
 10
0.0
 20
0.0
 30
0.0
  3
*PAPER_SPACE
  1

  0
ENDBLK
  5
10
100
AcDbEntity
 67
     1
  8
0
390
0
100
AcDbBlockEnd
  0
BLOCK
  5
B4
100
AcDbEntity
  8
0
390
0
100
AcDbBlockBegin
  2
AID278
 70
     0
 10
0.0
 20
0.0
 30
0.0
  3
D_GROUP
  1

  0
MTEXT
  5
B5
100
AcDbEntity
  8
256
390
0
 62
     7
100
AcDbMText
 10
406.171318
 20
6.951938
 30
0.0
 40
3.0
 41
7.472727
 71
     7
 72
     1
  1
A3
210
0.0
220
0.0
230
1.0
 73
     1
 44
1.0
  0
ENDBLK
  5
B6
100
AcDbEntity
  8
0
390
0
100
AcDbBlockEnd
  0
BLOCK
  5
702
100
AcDbEntity
  8
0
390
0
100
AcDbBlockBegin
  2
AID2137
 70
     0
 10
0.0
 20
0.0
 30
0.0
  3
D_GROUP
  1

  0
MTEXT
  5
703
100
AcDbEntity
  8
1
390
0
 62
     2
100
AcDbMText
 10
224.645914
 20
124.84973
 30
0.0
 40
6.0
 41
12.490909
 71
     7
 72
     1
  1
92
210
0.0
220
0.0
230
1.0
 73
     1
 44
1.0
  0
LINE
  5
704
100
AcDbEntity
  8
1
390
0
  6
Continuous
 62
    11
100
AcDbLine
 10
182.150459
 20
123.677003
 30
0.0
 11
274.150459
 21
123.677003
 31
0.0
  0
LINE
  5
705
100
AcDbEntity
  8
1
390
0
  6
Continuous
 62
    11
100
AcDbLine
 10
182.150459
 20
137.958809
 30
0.0
 11
182.150459
 21
121.877003
 31
0.0
  0
LINE
  5
706
100
AcDbEntity
  8
1
390
0
  6
Continuous
 62
    11
100
AcDbLine
 10
274.150459
 20
137.958809
 30
0.0
 11
274.150459
 21
121.877003
 31
0.0
  0
POLYLINE
  5
707
100
AcDbEntity
  8
1
390
0
  6
Continuous
 62
    11
100
AcDb2dPolyline
 66
     1
 10
0.0
 20
0.0
 30
0.0
 40
3.0
 41
3.0
  0
VERTEX
  5
708
100
AcDbEntity
  8
1
390
0
 62
    11
100
AcDbVertex
100
AcDb2dVertex
 10
186.650459
 20
122.777003
 30
0.0
  0
VERTEX
  5
709
100
AcDbEntity
  8
1
390
0
 62
    11
100
AcDbVertex
100
AcDb2dVertex
 10
182.150459
 20
123.677003
 30
0.0
  0
VERTEX
  5
70A
100
AcDbEntity
  8
1
390
0
 62
    11
100
AcDbVertex
100
AcDb2dVertex
 10
186.650459
 20
124.577003
 30
0.0
  0
SEQEND
  5
70B
100
AcDbEntity
  8
0
390
0
  0
POLYLINE
  5
70C
100
AcDbEntity
  8
1
390
0
  6
Continuous
 62
    11
100
AcDb2dPolyline
 66
     1
 10
0.0
 20
0.0
 30
0.0
 40
3.0
 41
3.0
  0
VERTEX
  5
70D
100
AcDbEntity
  8
1
390
0
 62
    11
100
AcDbVertex
100
AcDb2dVertex
 10
269.650459
 20
124.577003
 30
0.0
  0
VERTEX
  5
70E
100
AcDbEntity
  8
1
390
0
 62
    11
100
AcDbVertex
100
AcDb2dVertex
 10
274.150459
 20
123.677003
 30
0.0
  0
VERTEX
  5
70F
100
AcDbEntity
  8
1
390
0
 62
    11
100
AcDbVertex
100
AcDb2dVertex
 10
269.650459
 20
122.777003
 30
0.0
  0
SEQEND
  5
710
100
AcDbEntity
  8
0
390
0
  0
ENDBLK
  5
711
100
AcDbEntity
  8
0
390
0
100
AcDbBlockEnd
  0
BLOCK
  5
714
100
AcDbEntity
  8
0
390
0
100
AcDbBlockBegin
  2
AID2150
 70
     0
 10
0.0
 20
0.0
 30
0.0
  3
D_GROUP
  1

  0
MTEXT
  5
715
100
AcDbEntity
  8
1
390
0
 62
     2
100
AcDbMText
 10
222.736823
 20
115.390848
 30
0.0
 40
6.0
 41
18.709091
 71
     7
 72
     1
  1
109
210
0.0
220
0.0
230
1.0
 73
     1
 44
1.0
  0
LINE
  5
716
100
AcDbEntity
  8
1
390
0
  6
Continuous
 62
    11
100
AcDbLine
 10
282.650459
 20
114.218121
 30
0.0
 11
173.650459
 21
114.218121
 31
0.0
  0
LINE
  5
717
100
AcDbEntity
  8
1
390
0
  6
Continuous
 62
    11
100
AcDbLine
 10
282.650459
 20
138.858809
 30
0.0
 11
282.650459
 21
112.418121
 31
0.0
  0
LINE
  5
718
100
AcDbEntity
  8
1
390
0
  6
Continuous
 62
    11
100
AcDbLine
 10
173.650459
 20
138.858809
 30
0.0
 11
173.650459
 21
112.418121
 31
0.0
  0
POLYLINE
  5
719
100
AcDbEntity
  8
1
390
0
  6
Continuous
 62
    11
100
AcDb2dPolyline
 66
     1
 10
0.0
 20
0.0
 30
0.0
 40
3.0
 41
3.0
  0
VERTEX
  5
71A
100
AcDbEntity
  8
1
390
0
 62
    11
100
AcDbVertex
100
AcDb2dVertex
 10
278.150459
 20
115.118121
 30
0.0
  0
VERTEX
  5
71B
100
AcDbEntity
  8
1
390
0
 62
    11
100
AcDbVertex
100
AcDb2dVertex
 10
282.650459
 20
114.218121
 30
0.0
  0
VERTEX
  5
71C
100
AcDbEntity
  8
1
390
0
 62
    11
100
AcDbVertex
100
AcDb2dVertex
 10
278.150459
 20
113.318121
 30
0.0
  0
SEQEND
  5
71D
100
AcDbEntity
  8
0
390
0
  0
POLYLINE
  5
71E
100
AcDbEntity
  8
1
390
0
  6
Continuous
 62
    11
100
AcDb2dPolyline
 66
     1
 10
0.0
 20
0.0
 30
0.0
 40
3.0
 41
3.0
  0
VERTEX
  5
71F
100
AcDbEntity
  8
1
390
0
 62
    11
100
AcDbVertex
100
AcDb2dVertex
 10
178.150459
 20
113.318121
 30
0.0
  0
VERTEX
  5
720
100
AcDbEntity
  8
1
390
0
 62
    11
100
AcDbVertex
100
AcDb2dVertex
 10
173.650459
 20
114.218121
 30
0.0
  0
VERTEX
  5
721
100
AcDbEntity
  8
1
390
0
 62
    11
100
AcDbVertex
100
AcDb2dVertex
 10
178.150459
 20
115.118121
 30
0.0
  0
SEQEND
  5
722
100
AcDbEntity
  8
0
390
0
  0
ENDBLK
  5
723
100
AcDbEntity
  8
0
390
0
100
AcDbBlockEnd
  0
BLOCK
  5
726
100
AcDbEntity
  8
0
390
0
100
AcDbBlockBegin
  2
AID2163
 70
     0
 10
0.0
 20
0.0
 30
0.0
  3
D_GROUP
  1

  0
MTEXT
  5
727
100
AcDbEntity
  8
1
390
0
 62
     2
100
AcDbMText
 10
222.736823
 20
104.594699
 30
0.0
 40
6.0
 41
18.709091
 71
     7
 72
     1
  1
119
210
0.0
220
0.0
230
1.0
 73
     1
 44
1.0
  0
LINE
  5
728
100
AcDbEntity
  8
1
390
0
  6
Continuous
 62
    11
100
AcDbLine
 10
168.650459
 20
103.421971
 30
0.0
 11
287.650459
 21
103.421971
 31
0.0
  0
LINE
  5
729
100
AcDbEntity
  8
1
390
0
  6
Continuous
 62
    11
100
AcDbLine
 10
168.650459
 20
138.958809
 30
0.0
 11
168.650459
 21
101.621971
 31
0.0
  0
LINE
  5
72A
100
AcDbEntity
  8
1
390
0
  6
Continuous
 62
    11
100
AcDbLine
 10
287.650459
 20
138.958809
 30
0.0
 11
287.650459
 21
101.621971
 31
0.0
  0
POLYLINE
  5
72B
100
AcDbEntity
  8
1
390
0
  6
Continuous
 62
    11
100
AcDb2dPolyline
 66
     1
 10
0.0
 20
0.0
 30
0.0
 40
3.0
 41
3.0
  0
VERTEX
  5
72C
100
AcDbEntity
  8
1
390
0
 62
    11
100
AcDbVertex
100
AcDb2dVertex
 10
173.150459
 20
102.521971
 30
0.0
  0
VERTEX
  5
72D
100
AcDbEntity
  8
1
390
0
 62
    11
100
AcDbVertex
100
AcDb2dVertex
 10
168.650459
 20
103.421971
 30
0.0
  0
VERTEX
  5
72E
100
AcDbEntity
  8
1
390
0
 62
    11
100
AcDbVertex
100
AcDb2dVertex
 10
173.150459
 20
104.321971
 30
0.0
  0
SEQEND
  5
72F
100
AcDbEntity
  8
0
390
0
  0
POLYLINE
  5
730
100
AcDbEntity
  8
1
390
0
  6
Continuous
 62
    11
100
AcDb2dPolyline
 66
     1
 10
0.0
 20
0.0
 30
0.0
 40
3.0
 41
3.0
  0
VERTEX
  5
731
100
AcDbEntity
  8
1
390
0
 62
    11
100
AcDbVertex
100
AcDb2dVertex
 10
283.150459
 20
104.321971
 30
0.0
  0
VERTEX
  5
732
100
AcDbEntity
  8
1
390
0
 62
    11
100
AcDbVertex
100
AcDb2dVertex
 10
287.650459
 20
103.421971
 30
0.0
  0
VERTEX
  5
733
100
AcDbEntity
  8
1
390
0
 62
    11
100
AcDbVertex
100
AcDb2dVertex
 10
283.150459
 20
102.521971
 30
0.0
  0
SEQEND
  5
734
100
AcDbEntity
  8
0
390
0
  0
ENDBLK
  5
735
100
AcDbEntity
  8
0
390
0
100
AcDbBlockEnd
  0
BLOCK
  5
738
100
AcDbEntity
  8
0
390
0
100
AcDbBlockBegin
  2
AID2176
 70
     0
 10
0.0
 20
0.0
 30
0.0
  3
D_GROUP
  1

  0
MTEXT
  5
739
100
AcDbEntity
  8
1
390
0
 62
     2
100
AcDbMText
 10
298.677057
 20
152.767899
 30
0.0
 40
6.0
 41
12.545455
 71
     7
 72
     1
  1
25
210
0.0
220
0.0
230
1.0
 11
0.0
 21
1.0
 31
0.0
 73
     1
 44
1.0
  0
LINE
  5
73A
100
AcDbEntity
  8
1
390
0
  6
Continuous
 62
    11
100
AcDbLine
 10
299.849784
 20
168.758809
 30
0.0
 11
299.849784
 21
143.758809
 31
0.0
  0
LINE
  5
73B
100
AcDbEntity
  8
1
390
0
  6
Continuous
 62
    11
100
AcDbLine
 10
287.550459
 20
168.758809
 30
0.0
 11
301.649784
 21
168.758809
 31
0.0
  0
LINE
  5
73C
100
AcDbEntity
  8
1
390
0
  6
Continuous
 62
    11
100
AcDbLine
 10
287.550459
 20
143.758809
 30
0.0
 11
301.649784
 21
143.758809
 31
0.0
  0
POLYLINE
  5
73D
100
AcDbEntity
  8
1
390
0
  6
Continuous
 62
    11
100
AcDb2dPolyline
 66
     1
 10
0.0
 20
0.0
 30
0.0
 40
3.0
 41
3.0
  0
VERTEX
  5
73E
100
AcDbEntity
  8
1
390
0
 62
    11
100
AcDbVertex
100
AcDb2dVertex
 10
298.949784
 20
164.258809
 30
0.0
  0
VERTEX
  5
73F
100
AcDbEntity
  8
1
390
0
 62
    11
100
AcDbVertex
100
AcDb2dVertex
 10
299.849784
 20
168.758809
 30
0.0
  0
VERTEX
  5
740
100
AcDbEntity
  8
1
390
0
 62
    11
100
AcDbVertex
100
AcDb2dVertex
 10
300.749784
 20
164.258809
 30
0.0
  0
SEQEND
  5
741
100
AcDbEntity
  8
0
390
0
  0
POLYLINE
  5
742
100
AcDbEntity
  8
1
390
0
  6
Continuous
 62
    11
100
AcDb2dPolyline
 66
     1
 10
0.0
 20
0.0
 30
0.0
 40
3.0
 41
3.0
  0
VERTEX
  5
743
100
AcDbEntity
  8
1
390
0
 62
    11
100
AcDbVertex
100
AcDb2dVertex
 10
300.749784
 20
148.258809
 30
0.0
  0
VERTEX
  5
744
100
AcDbEntity
  8
1
390
0
 62
    11
100
AcDbVertex
100
AcDb2dVertex
 10
299.849784
 20
143.758809
 30
0.0
  0
VERTEX
  5
745
100
AcDbEntity
  8
1
390
0
 62
    11
100
AcDbVertex
100
AcDb2dVertex
 10
298.949784
 20
148.258809
 30
0.0
  0
SEQEND
  5
746
100
AcDbEntity
  8
0
390
0
  0
ENDBLK
  5
747
100
AcDbEntity
  8
0
390
0
100
AcDbBlockEnd
  0
BLOCK
  5
74A
100
AcDbEntity
  8
0
390
0
100
AcDbBlockBegin
  2
AID2189
 70
     0
 10
0.0
 20
0.0
 30
0.0
  3
D_GROUP
  1

  0
MTEXT
  5
74B
100
AcDbEntity
  8
1
390
0
 62
     2
100
AcDbMText
 10
308.823814
 20
152.767899
 30
0.0
 40
6.0
 41
12.545455
 71
     7
 72
     1
  1
35
210
0.0
220
0.0
230
1.0
 11
0.0
 21
1.0
 31
0.0
 73
     1
 44
1.0
  0
LINE
  5
74C
100
AcDbEntity
  8
1
390
0
  6
Continuous
 62
    11
100
AcDbLine
 10
309.996541
 20
173.758809
 30
0.0
 11
309.996541
 21
138.758809
 31
0.0
  0
LINE
  5
74D
100
AcDbEntity
  8
1
390
0
  6
Continuous
 62
    11
100
AcDbLine
 10
287.450459
 20
173.758809
 30
0.0
 11
311.796541
 21
173.758809
 31
0.0
  0
LINE
  5
74E
100
AcDbEntity
  8
1
390
0
  6
Continuous
 62
    11
100
AcDbLine
 10
287.450459
 20
138.758809
 30
0.0
 11
311.796541
 21
138.758809
 31
0.0
  0
POLYLINE
  5
74F
100
AcDbEntity
  8
1
390
0
  6
Continuous
 62
    11
100
AcDb2dPolyline
 66
     1
 10
0.0
 20
0.0
 30
0.0
 40
3.0
 41
3.0
  0
VERTEX
  5
750
100
AcDbEntity
  8
1
390
0
 62
    11
100
AcDbVertex
100
AcDb2dVertex
 10
309.096541
 20
169.258809
 30
0.0
  0
VERTEX
  5
751
100
AcDbEntity
  8
1
390
0
 62
    11
100
AcDbVertex
100
AcDb2dVertex
 10
309.996541
 20
173.758809
 30
0.0
  0
VERTEX
  5
752
100
AcDbEntity
  8
1
390
0
 62
    11
100
AcDbVertex
100
AcDb2dVertex
 10
310.896541
 20
169.258809
 30
0.0
  0
SEQEND
  5
753
100
AcDbEntity
  8
0
390
0
  0
POLYLINE
  5
754
100
AcDbEntity
  8
1
390
0
  6
Continuous
 62
    11
100
AcDb2dPolyline
 66
     1
 10
0.0
 20
0.0
 30
0.0
 40
3.0
 41
3.0
  0
VERTEX
  5
755
100
AcDbEntity
  8
1
390
0
 62
    11
100
AcDbVertex
100
AcDb2dVertex
 10
310.896541
 20
143.258809
 30
0.0
  0
VERTEX
  5
756
100
AcDbEntity
  8
1
390
0
 62
    11
100
AcDbVertex
100
AcDb2dVertex
 10
309.996541
 20
138.758809
 30
0.0
  0
VERTEX
  5
757
100
AcDbEntity
  8
1
390
0
 62
    11
100
AcDbVertex
100
AcDb2dVertex
 10
309.096541
 20
143.258809
 30
0.0
  0
SEQEND
  5
758
100
AcDbEntity
  8
0
390
0
  0
ENDBLK
  5
759
100
AcDbEntity
  8
0
390
0
100
AcDbBlockEnd
  0
BLOCK
  5
75C
100
AcDbEntity
  8
0
390
0
100
AcDbBlockBegin
  2
AID2202
 70
     0
 10
0.0
 20
0.0
 30
0.0
  3
D_GROUP
  1

  0
MTEXT
  5
75D
100
AcDbEntity
  8
1
390
0
 62
     2
100
AcDbMText
 10
295.007041
 20
182.037754
 30
0.0
 40
6.0
 41
12.818182
 71
     7
 72
     1
  1
6-
210
0.0
220
0.0
230
1.0
 73
     1
 44
1.0
  0
MTEXT
  5
75E
100
AcDbEntity
  8
1
390
0
 62
     2
100
AcDbMText
 10
302.99795
 20
182.037754
 30
0.0
 40
6.0
 41
9.490909
 71
     7
 72
     1
  1
Φ
210
0.0
220
0.0
230
1.0
 73
     1
 44
1.0
  0
MTEXT
  5
75F
100
AcDbEntity
  8
1
390
0
 62
     2
100
AcDbMText
 10
308.943405
 20
182.037754
 30
0.0
 40
6.0
 41
15.6
 71
     7
 72
     1
  1
4.2
210
0.0
220
0.0
230
1.0
 73
     1
 44
1.0
  0
POLYLINE
  5
760
100
AcDbEntity
  8
1
390
0
  6
Continuous
 62
    11
100
AcDb2dPolyline
 66
     1
 10
0.0
 20
0.0
 30
0.0
 40
3.0
 41
3.0
  0
VERTEX
  5
761
100
AcDbEntity
  8
1
390
0
 62
    11
100
AcDbVertex
100
AcDb2dVertex
 10
286.407395
 20
174.259303
 30
0.0
  0
VERTEX
  5
762
100
AcDbEntity
  8
1
390
0
 62
    11
100
AcDbVertex
100
AcDb2dVertex
 10
284.058326
 20
170.316984
 30
0.0
  0
VERTEX
  5
763
100
AcDbEntity
  8
1
390
0
 62
    11
100
AcDbVertex
100
AcDb2dVertex
 10
287.742974
 20
173.052559
 30
0.0
  0
SEQEND
  5
764
100
AcDbEntity
  8
0
390
0
  0
LINE
  5
765
100
AcDbEntity
  8
1
390
0
  6
Continuous
 62
    11
100
AcDbLine
 10
284.058326
 20
170.316984
 30
0.0
 11
293.588859
 21
180.865026
 31
0.0
  0
LINE
  5
766
100
AcDbEntity
  8
1
390
0
  6
Continuous
 62
    11
100
AcDbLine
 10
293.588859
 20
180.865026
 30
0.0
 11
317.588859
 21
180.865026
 31
0.0
  0
ENDBLK
  5
767
100
AcDbEntity
  8
0
390
0
100
AcDbBlockEnd
  0
BLOCK
  5
76A
100
AcDbEntity
  8
0
390
0
100
AcDbBlockBegin
  2
AID2215
 70
     0
 10
0.0
 20
0.0
 30
0.0
  3
D_GROUP
  1

  0
MTEXT
  5
76B
100
AcDbEntity
  8
1
390
0
 62
     2
100
AcDbMText
 10
77.301829
 20
124.84973
 30
0.0
 40
6.0
 41
22.363636
 71
     7
 72
     1
  1
25.5
210
0.0
220
0.0
230
1.0
 73
     1
 44
1.0
  0
LINE
  5
76C
100
AcDbEntity
  8
1
390
0
  6
Continuous
 62
    11
100
AcDbLine
 10
95.997283
 20
123.677003
 30
0.0
 11
70.497283
 21
123.677003
 31
0.0
  0
LINE
  5
76D
100
AcDbEntity
  8
1
390
0
  6
Continuous
 62
    11
100
AcDbLine
 10
95.997283
 20
137.958809
 30
0.0
 11
95.997283
 21
121.877003
 31
0.0
  0
LINE
  5
76E
100
AcDbEntity
  8
1
390
0
  6
Continuous
 62
    11
100
AcDbLine
 10
70.497283
 20
136.958809
 30
0.0
 11
70.497283
 21
121.877003
 31
0.0
  0
POLYLINE
  5
76F
100
AcDbEntity
  8
1
390
0
  6
Continuous
 62
    11
100
AcDb2dPolyline
 66
     1
 10
0.0
 20
0.0
 30
0.0
 40
3.0
 41
3.0
  0
VERTEX
  5
770
100
AcDbEntity
  8
1
390
0
 62
    11
100
AcDbVertex
100
AcDb2dVertex
 10
91.497283
 20
124.577003
 30
0.0
  0
VERTEX
  5
771
100
AcDbEntity
  8
1
390
0
 62
    11
100
AcDbVertex
100
AcDb2dVertex
 10
95.997283
 20
123.677003
 30
0.0
  0
VERTEX
  5
772
100
AcDbEntity
  8
1
390
0
 62
    11
100
AcDbVertex
100
AcDb2dVertex
 10
91.497283
 20
122.777003
 30
0.0
  0
SEQEND
  5
773
100
AcDbEntity
  8
0
390
0
  0
POLYLINE
  5
774
100
AcDbEntity
  8
1
390
0
  6
Continuous
 62
    11
100
AcDb2dPolyline
 66
     1
 10
0.0
 20
0.0
 30
0.0
 40
3.0
 41
3.0
  0
VERTEX
  5
775
100
AcDbEntity
  8
1
390
0
 62
    11
100
AcDbVertex
100
AcDb2dVertex
 10
74.997283
 20
122.777003
 30
0.0
  0
VERTEX
  5
776
100
AcDbEntity
  8
1
390
0
 62
    11
100
AcDbVertex
100
AcDb2dVertex
 10
70.497283
 20
123.677003
 30
0.0
  0
VERTEX
  5
777
100
AcDbEntity
  8
1
390
0
 62
    11
100
AcDbVertex
100
AcDb2dVertex
 10
74.997283
 20
124.577003
 30
0.0
  0
SEQEND
  5
778
100
AcDbEntity
  8
0
390
0
  0
ENDBLK
  5
779
100
AcDbEntity
  8
0
390
0
100
AcDbBlockEnd
  0
BLOCK
  5
77C
100
AcDbEntity
  8
0
390
0
100
AcDbBlockBegin
  2
AID2228
 70
     0
 10
0.0
 20
0.0
 30
0.0
  3
D_GROUP
  1

  0
MTEXT
  5
77D
100
AcDbEntity
  8
1
390
0
 62
     7
100
AcDbMText
 10
368.966034
 20
29.023318
 30
0.0
 40
4.0
 41
40.945455
 71
     7
 72
     1
  1
UJP04H-L
210
0.0
220
0.0
230
1.0
 73
     1
 44
1.0
  0
ENDBLK
  5
77E
100
AcDbEntity
  8
0
390
0
100
AcDbBlockEnd
  0
BLOCK
  5
781
100
AcDbEntity
  8
0
390
0
100
AcDbBlockBegin
  2
AID2231
 70
     0
 10
0.0
 20
0.0
 30
0.0
  3
D_GROUP
  1

  0
MTEXT
  5
782
100
AcDbEntity
  8
1
390
0
 62
     7
100
AcDbMText
 10
356.035827
 20
39.764098
 30
0.0
 40
4.0
 41
95.890909
 71
     7
 72
     1
  1
圧力センサ耐熱中継Box
210
0.0
220
0.0
230
1.0
 73
     1
 44
1.0
  0
ENDBLK
  5
783
100
AcDbEntity
  8
0
390
0
100
AcDbBlockEnd
  0
BLOCK
  5
786
100
AcDbEntity
  8
0
390
0
100
AcDbBlockBegin
  2
AID2234
 70
     0
 10
0.0
 20
0.0
 30
0.0
  3
D_GROUP
  1

  0
MTEXT
  5
787
100
AcDbEntity
  8
1
390
0
 62
     7
100
AcDbMText
 10
323.355565
 20
31.696443
 30
0.0
 40
5.0
 41
14.045455
 71
     7
 72
     1
  1
1：1
210
0.0
220
0.0
230
1.0
 73
     1
 44
1.0
  0
ENDBLK
  5
788
100
AcDbEntity
  8
0
390
0
100
AcDbBlockEnd
  0
ENDSEC
  0
SECTION
  2
ENTITIES
  0
LINE
  5
28
100
AcDbEntity
  8
256
390
0
  6
Continuous
 62
     8
100
AcDbLine
 10
222.0
 20
34.5
 30
0.0
 11
271.0
 21
34.5
 31
0.0
  0
LINE
  5
29
100
AcDbEntity
  8
256
390
0
  6
Continuous
 62
     8
100
AcDbLine
 10
390.25
 20
277.0
 30
0.0
 11
390.25
 21
287.0
 31
0.0
  0
LINE
  5
2A
100
AcDbEntity
  8
256
390
0
  6
Continuous
 62
     8
100
AcDbLine
 10
229.511017
 20
262.368011
 30
0.0
 11
234.511017
 21
262.368011
 31
0.0
  0
LINE
  5
2B
100
AcDbEntity
  8
256
390
0
  6
Continuous
 62
     8
100
AcDbLine
 10
222.0
 20
38.0
 30
0.0
 11
271.0
 21
38.0
 31
0.0
  0
LINE
  5
2C
100
AcDbEntity
  8
256
390
0
  6
Continuous
 62
     8
100
AcDbLine
 10
237.0
 20
287.0
 30
0.0
 11
237.0
 21
257.0
 31
0.0
  0
LINE
  5
2D
100
AcDbEntity
  8
256
390
0
  6
Continuous
 62
     8
100
AcDbLine
 10
303.8
 20
48.0
 30
0.0
 11
303.8
 21
10.0
 31
0.0
  0
LINE
  5
2E
100
AcDbEntity
  8
256
390
0
  6
Continuous
 62
     8
100
AcDbLine
 10
385.25
 20
277.0
 30
0.0
 11
385.25
 21
287.0
 31
0.0
  0
LINE
  5
2F
100
AcDbEntity
  8
256
390
0
  6
Continuous
 62
     8
100
AcDbLine
 10
287.4
 20
31.0
 30
0.0
 11
287.4
 21
10.0
 31
0.0
  0
LINE
  5
30
100
AcDbEntity
  8
256
390
0
  6
Continuous
 62
     8
100
AcDbLine
 10
253.750031
 20
44.0
 30
0.0
 11
253.750031
 21
10.0
 31
0.0
  0
LINE
  5
31
100
AcDbEntity
  8
256
390
0
  6
Continuous
 62
     8
100
AcDbLine
 10
410.0
 20
10.0
 30
0.0
 11
410.0
 21
287.0
 31
0.0
  0
LINE
  5
32
100
AcDbEntity
  8
256
390
0
  6
Continuous
 62
     8
100
AcDbLine
 10
335.25
 20
15.666667
 30
0.0
 11
335.25
 21
48.0
 31
0.0
  0
LINE
  5
33
100
AcDbEntity
  8
256
390
0
  6
Continuous
 62
     8
100
AcDbLine
 10
410.0
 20
287.0
 30
0.0
 11
10.0
 21
287.0
 31
0.0
  0
LINE
  5
34
100
AcDbEntity
  8
256
390
0
  6
Continuous
 62
     8
100
AcDbLine
 10
362.0
 20
287.0
 30
0.0
 11
362.0
 21
257.0
 31
0.0
  0
LINE
  5
35
100
AcDbEntity
  8
256
390
0
  6
Continuous
 62
     8
100
AcDbLine
 10
410.0
 20
267.0
 30
0.0
 11
227.0
 21
267.0
 31
0.0
  0
LINE
  5
36
100
AcDbEntity
  8
256
390
0
  6
Continuous
 62
     8
100
AcDbLine
 10
410.0
 20
277.0
 30
0.0
 11
227.0
 21
277.0
 31
0.0
  0
LINE
  5
37
100
AcDbEntity
  8
256
390
0
  6
Continuous
 62
     8
100
AcDbLine
 10
271.0
 20
41.0
 30
0.0
 11
335.25
 21
41.0
 31
0.0
  0
LINE
  5
38
100
AcDbEntity
  8
256
390
0
  6
Continuous
 62
     8
100
AcDbLine
 10
222.0
 20
44.0
 30
0.0
 11
271.0
 21
44.0
 31
0.0
  0
LINE
  5
39
100
AcDbEntity
  8
256
390
0
  6
Continuous
 62
     8
100
AcDbLine
 10
232.011017
 20
261.664886
 30
0.0
 11
229.511017
 21
257.368011
 31
0.0
  0
LINE
  5
3A
100
AcDbEntity
  8
256
390
0
  6
Continuous
 62
     8
100
AcDbLine
 10
248.000031
 20
38.0
 30
0.0
 11
222.0
 21
44.0
 31
0.0
  0
LINE
  5
3B
100
AcDbEntity
  8
256
390
0
  6
Continuous
 62
     8
100
AcDbLine
 10
357.0
 20
262.0
 30
0.0
 11
227.0
 21
262.0
 31
0.0
  0
LINE
  5
3C
100
AcDbEntity
  8
256
390
0
  6
Continuous
 62
     8
100
AcDbLine
 10
222.0
 20
31.0
 30
0.0
 11
320.25
 21
31.0
 31
0.0
  0
LINE
  5
3D
100
AcDbEntity
  8
256
390
0
  6
Continuous
 62
     8
100
AcDbLine
 10
234.511017
 20
267.368011
 30
0.0
 11
232.011017
 21
271.664886
 31
0.0
  0
LINE
  5
3E
100
AcDbEntity
  8
256
390
0
  6
Continuous
 62
     8
100
AcDbLine
 10
385.25
 20
282.0
 30
0.0
 11
362.0
 21
282.0
 31
0.0
  0
LINE
  5
3F
100
AcDbEntity
  8
256
390
0
  6
Continuous
 62
     8
100
AcDbLine
 10
10.0
 20
10.0
 30
0.0
 11
410.0
 21
10.0
 31
0.0
  0
LINE
  5
40
100
AcDbEntity
  8
256
390
0
  6
Continuous
 62
     8
100
AcDbLine
 10
222.0
 20
48.0
 30
0.0
 11
410.0
 21
48.0
 31
0.0
  0
LINE
  5
41
100
AcDbEntity
  8
256
390
0
  6
Continuous
 62
     8
100
AcDbLine
 10
227.000031
 20
10.0
 30
0.0
 11
410.0
 21
10.0
 31
0.0
  0
LINE
  5
42
100
AcDbEntity
  8
256
390
0
  6
Continuous
 62
     8
100
AcDbLine
 10
342.0
 20
287.0
 30
0.0
 11
342.0
 21
257.0
 31
0.0
  0
LINE
  5
43
100
AcDbEntity
  8
256
390
0
  6
Continuous
 62
     8
100
AcDbLine
 10
222.0
 20
13.5
 30
0.0
 11
271.000031
 21
13.5
 31
0.0
  0
LINE
  5
44
100
AcDbEntity
  8
256
390
0
  6
Continuous
 62
     8
100
AcDbLine
 10
222.0
 20
20.5
 30
0.0
 11
271.0
 21
20.5
 31
0.0
  0
LINE
  5
45
100
AcDbEntity
  8
256
390
0
  6
Continuous
 62
     8
100
AcDbLine
 10
222.0
 20
27.5
 30
0.0
 11
271.0
 21
27.5
 31
0.0
  0
LINE
  5
46
100
AcDbEntity
  8
256
390
0
  6
Continuous
 62
     8
100
AcDbLine
 10
248.000031
 20
44.0
 30
0.0
 11
248.000031
 21
10.0
 31
0.0
  0
LINE
  5
47
100
AcDbEntity
  8
256
390
0
  6
Continuous
 62
     8
100
AcDbLine
 10
222.0
 20
48.0
 30
0.0
 11
222.0
 21
10.0
 31
0.0
  0
LINE
  5
48
100
AcDbEntity
  8
256
390
0
  6
Continuous
 62
     8
100
AcDbLine
 10
232.011017
 20
276.664886
 30
0.0
 11
229.511017
 21
272.368011
 31
0.0
  0
LINE
  5
49
100
AcDbEntity
  8
256
390
0
  6
Continuous
 62
     8
100
AcDbLine
 10
357.0
 20
282.0
 30
0.0
 11
227.0
 21
282.0
 31
0.0
  0
LINE
  5
4A
100
AcDbEntity
  8
256
390
0
  6
Continuous
 62
     8
100
AcDbLine
 10
229.511017
 20
267.368011
 30
0.0
 11
234.511017
 21
267.368011
 31
0.0
  0
LINE
  5
4B
100
AcDbEntity
  8
256
390
0
  6
Continuous
 62
     8
100
AcDbLine
 10
222.0
 20
24.0
 30
0.0
 11
271.0
 21
24.0
 31
0.0
  0
LINE
  5
4C
100
AcDbEntity
  8
256
390
0
  6
Continuous
 62
     8
100
AcDbLine
 10
232.011017
 20
281.664886
 30
0.0
 11
229.511017
 21
277.368011
 31
0.0
  0
LINE
  5
4D
100
AcDbEntity
  8
256
390
0
  6
Continuous
 62
     8
100
AcDbLine
 10
265.250031
 20
44.0
 30
0.0
 11
265.250031
 21
10.0
 31
0.0
  0
LINE
  5
4E
100
AcDbEntity
  8
256
390
0
  6
Continuous
 62
     8
100
AcDbLine
 10
229.511017
 20
277.368011
 30
0.0
 11
234.511017
 21
277.368011
 31
0.0
  0
LINE
  5
4F
100
AcDbEntity
  8
256
390
0
  6
Continuous
 62
     8
100
AcDbLine
 10
320.25
 20
10.0
 30
0.0
 11
320.25
 21
48.0
 31
0.0
  0
LINE
  5
50
100
AcDbEntity
  8
256
390
0
  6
Continuous
 62
     8
100
AcDbLine
 10
232.011017
 20
271.664886
 30
0.0
 11
229.511017
 21
267.368011
 31
0.0
  0
LINE
  5
51
100
AcDbEntity
  8
256
390
0
  6
Continuous
 62
     8
100
AcDbLine
 10
234.511017
 20
277.368011
 30
0.0
 11
232.011017
 21
281.664886
 31
0.0
  0
LINE
  5
52
100
AcDbEntity
  8
256
390
0
  6
Continuous
 62
     8
100
AcDbLine
 10
222.0
 20
17.0
 30
0.0
 11
271.0
 21
17.0
 31
0.0
  0
LINE
  5
53
100
AcDbEntity
  8
256
390
0
  6
Continuous
 62
     8
100
AcDbLine
 10
271.0
 20
48.0
 30
0.0
 11
271.0
 21
10.0
 31
0.0
  0
LINE
  5
54
100
AcDbEntity
  8
256
390
0
  6
Continuous
 62
     8
100
AcDbLine
 10
357.0
 20
287.0
 30
0.0
 11
357.0
 21
257.0
 31
0.0
  0
LINE
  5
55
100
AcDbEntity
  8
256
390
0
  6
Continuous
 62
     8
100
AcDbLine
 10
335.25
 20
35.0
 30
0.0
 11
410.0
 21
35.0
 31
0.0
  0
LINE
  5
56
100
AcDbEntity
  8
256
390
0
  6
Continuous
 62
     8
100
AcDbLine
 10
227.0
 20
287.0
 30
0.0
 11
227.0
 21
257.0
 31
0.0
  0
LINE
  5
57
100
AcDbEntity
  8
256
390
0
  6
Continuous
 62
     8
100
AcDbLine
 10
327.0
 20
287.0
 30
0.0
 11
327.0
 21
257.0
 31
0.0
  0
LINE
  5
58
100
AcDbEntity
  8
256
390
0
  6
Continuous
 62
     8
100
AcDbLine
 10
229.511017
 20
272.368011
 30
0.0
 11
234.511017
 21
272.368011
 31
0.0
  0
LINE
  5
59
100
AcDbEntity
  8
256
390
0
  6
Continuous
 62
     8
100
AcDbLine
 10
259.500031
 20
44.0
 30
0.0
 11
259.500031
 21
10.0
 31
0.0
  0
LINE
  5
5A
100
AcDbEntity
  8
256
390
0
  6
Continuous
 62
     8
100
AcDbLine
 10
320.25
 20
15.666667
 30
0.0
 11
410.0
 21
15.666667
 31
0.0
  0
LINE
  5
5B
100
AcDbEntity
  8
256
390
0
  6
Continuous
 62
     8
100
AcDbLine
 10
229.511017
 20
257.368011
 30
0.0
 11
234.511017
 21
257.368011
 31
0.0
  0
LINE
  5
5C
100
AcDbEntity
  8
256
390
0
  6
Continuous
 62
     8
100
AcDbLine
 10
232.011017
 20
266.664886
 30
0.0
 11
229.511017
 21
262.368011
 31
0.0
  0
LINE
  5
5D
100
AcDbEntity
  8
256
390
0
  6
Continuous
 62
     8
100
AcDbLine
 10
410.0
 20
257.0
 30
0.0
 11
227.0
 21
257.0
 31
0.0
  0
LINE
  5
5E
100
AcDbEntity
  8
256
390
0
  6
Continuous
 62
     8
100
AcDbLine
 10
234.511017
 20
257.368011
 30
0.0
 11
232.011017
 21
261.664886
 31
0.0
  0
LINE
  5
5F
100
AcDbEntity
  8
256
390
0
  6
Continuous
 62
     8
100
AcDbLine
 10
271.0
 20
26.5
 30
0.0
 11
410.0
 21
26.5
 31
0.0
  0
LINE
  5
60
100
AcDbEntity
  8
256
390
0
  6
Continuous
 62
     8
100
AcDbLine
 10
10.0
 20
10.0
 30
0.0
 11
10.0
 21
287.0
 31
0.0
  0
LINE
  5
61
100
AcDbEntity
  8
256
390
0
  6
Continuous
 62
     8
100
AcDbLine
 10
234.511017
 20
262.368011
 30
0.0
 11
232.011017
 21
266.664886
 31
0.0
  0
LINE
  5
62
100
AcDbEntity
  8
256
390
0
  6
Continuous
 62
     8
100
AcDbLine
 10
350.25
 20
15.666667
 30
0.0
 11
350.25
 21
48.0
 31
0.0
  0
LINE
  5
63
100
AcDbEntity
  8
256
390
0
  6
Continuous
 62
     8
100
AcDbLine
 10
307.164695
 20
32.573373
 30
0.0
 11
314.235801
 21
39.644442
 31
0.0
  0
LINE
  5
64
100
AcDbEntity
  8
256
390
0
  6
Continuous
 62
     8
100
AcDbLine
 10
357.0
 20
272.0
 30
0.0
 11
227.0
 21
272.0
 31
0.0
  0
LINE
  5
65
100
AcDbEntity
  8
256
390
0
  6
Continuous
 62
     8
100
AcDbLine
 10
234.511017
 20
272.368011
 30
0.0
 11
232.011017
 21
276.664886
 31
0.0
  0
MTEXT
  5
66
100
AcDbEntity
  8
256
390
0
 62
     8
100
AcDbMText
 10
262.375031
 20
28.244792
 30
0.0
 40
1.75
 41
4.55
 71
     8
 72
     1
  1
0.5  
210
0.0
220
0.0
230
1.0
 73
     1
 44
1.0
  0
MTEXT
  5
67
100
AcDbEntity
  8
256
390
0
 62
     8
100
AcDbMText
 10
250.875031
 20
21.244792
 30
0.0
 40
1.75
 41
4.55
 71
     8
 72
     1
  1
0.2  
210
0.0
220
0.0
230
1.0
 73
     1
 44
1.0
  0
MTEXT
  5
68
100
AcDbEntity
  8
256
390
0
 62
     8
100
AcDbMText
 10
250.875031
 20
28.244792
 30
0.0
 40
1.75
 41
3.993182
 71
     8
 72
     1
  1
0.1  
210
0.0
220
0.0
230
1.0
 73
     1
 44
1.0
  0
MTEXT
  5
69
100
AcDbEntity
  8
256
390
0
 62
     8
100
AcDbMText
 10
250.875031
 20
17.744792
 30
0.0
 40
1.75
 41
4.55
 71
     8
 72
     1
  1
0.3  
210
0.0
220
0.0
230
1.0
 73
     1
 44
1.0
  0
MTEXT
  5
6A
100
AcDbEntity
  8
256
390
0
 62
     8
100
AcDbMText
 10
287.02719
 20
42.856306
 30
0.0
 40
3.386667
 41
24.56873
 71
     8
 72
     1
  1
材    質  
210
0.0
220
0.0
230
0.9999999999999999
 73
     1
 44
1.0
  0
MTEXT
  5
6B
100
AcDbEntity
  8
256
390
0
 62
     8
100
AcDbMText
 10
256.625031
 20
35.244792
 30
0.0
 40
1.75
 41
3.993182
 71
     8
 72
     1
  1
0.1  
210
0.0
220
0.0
230
1.0
 73
     1
 44
1.0
  0
MTEXT
  5
6C
100
AcDbEntity
  8
256
390
0
 62
     8
100
AcDbMText
 10
268.125015
 20
14.244792
 30
0.0
 40
1.75
 41
1.590909
 71
     8
 72
     1
  1
6  
210
0.0
220
0.0
230
1.0
 73
     1
 44
1.0
  0
MTEXT
  5
6D
100
AcDbEntity
  8
256
390
0
 62
     8
100
AcDbMText
 10
268.125015
 20
21.244792
 30
0.0
 40
1.75
 41
4.486364
 71
     8
 72
     1
  1
2.5  
210
0.0
220
0.0
230
1.0
 73
     1
 44
1.0
  0
MTEXT
  5
6E
100
AcDbEntity
  8
256
390
0
 62
     8
100
AcDbMText
 10
312.52208
 20
42.980576
 30
0.0
 40
3.386667
 41
17.518305
 71
     8
 72
     1
  1
個 数  
210
0.0
220
0.0
230
0.9999999999999999
 73
     1
 44
1.0
  0
MTEXT
  5
6F
100
AcDbEntity
  8
256
390
0
 62
     8
100
AcDbMText
 10
360.130196
 20
257.742347
 30
0.0
 40
2.822222
 41
5.926666
 71
     8
 72
     1
  1
理  
210
0.0
220
0.0
230
1.0
 73
     1
 44
1.0
  0
MTEXT
  5
70
100
AcDbEntity
  8
256
390
0
 62
     8
100
AcDbMText
 10
257.063488
 20
41.133356
 30
0.0
 40
1.7952
 41
7.6704
 71
     8
 72
     1
  1
中級  
210
0.0
220
0.0
230
1.0
 73
     1
 44
1.0
  0
MTEXT
  5
71
100
AcDbEntity
  8
256
390
0
 62
     8
100
AcDbMText
 10
268.763424
 20
39.076539
 30
0.0
 40
2.0
 41
7.581818
 71
     8
 72
     1
  1
v %%p  
210
0.0
220
0.0
230
1.0
 73
     1
 44
1.0
  0
MTEXT
  5
72
100
AcDbEntity
  8
256
390
0
 62
     8
100
AcDbMText
 10
246.361108
 20
10.744792
 30
0.0
 40
1.75
 41
35.111364
 71
     9
 72
     1
  1
2000を超え4000以下  
210
0.0
220
0.0
230
1.0
 73
     1
 44
1.0
  0
MTEXT
  5
73
100
AcDbEntity
  8
256
390
0
 62
     8
100
AcDbMText
 10
315.229673
 20
32.880846
 30
0.0
 40
3.386667
 41
10.375516
 71
     8
 72
     1
  1
1台  
210
0.0
220
0.0
230
0.9999999999999999
 73
     1
 44
1.0
  0
MTEXT
  5
74
100
AcDbEntity
  8
256
390
0
 62
     8
100
AcDbMText
 10
246.383663
 20
21.244792
 30
0.0
 40
1.75
 41
32.056818
 71
     9
 72
     1
  1
 120を超え 400以下  
210
0.0
220
0.0
230
1.0
 73
     1
 44
1.0
  0
MTEXT
  5
75
100
AcDbEntity
  8
256
390
0
 62
     8
100
AcDbMText
 10
388.380196
 20
278.047566
 30
0.0
 40
3.386667
 41
6.958061
 71
     8
 72
     1
  1
取  
210
0.0
220
0.0
230
0.9999999999999999
 73
     1
 44
1.0
  0
MTEXT
  5
76
100
AcDbEntity
  8
256
390
0
 62
     8
100
AcDbMText
 10
388.380196
 20
282.575181
 30
0.0
 40
3.386667
 41
6.68097
 71
     8
 72
     1
  1
面  
210
0.0
220
0.0
230
0.9999999999999999
 73
     1
 44
1.0
  0
MTEXT
  5
77
100
AcDbEntity
  8
256
390
0
 62
     8
100
AcDbMText
 10
230.223858
 20
38.623908
 30
0.0
 40
1.5
 41
24.272727
 71
     8
 72
     1
  1
寸法の区分(mm)  
210
0.0
220
0.0
230
1.0
 73
     1
 44
1.0
  0
MTEXT
  5
78
100
AcDbEntity
  8
256
390
0
 62
     8
100
AcDbMText
 10
343.211504
 20
19.692223
 30
0.0
 40
3.386667
 41
16.902547
 71
     8
 72
     1
  1
図 番  
210
0.0
220
0.0
230
0.9999999999999999
 73
     1
 44
1.0
  0
MTEXT
  5
79
100
AcDbEntity
  8
256
390
0
 62
     8
100
AcDbMText
 10
262.375031
 20
31.744792
 30
0.0
 40
1.75
 41
4.55
 71
     8
 72
     1
  1
0.3  
210
0.0
220
0.0
230
1.0
 73
     1
 44
1.0
  0
MTEXT
  5
7A
100
AcDbEntity
  8
256
390
0
 62
     8
100
AcDbMText
 10
360.130196
 20
268.089407
 30
0.0
 40
3.386667
 41
7.112001
 71
     8
 72
     1
  1
理  
210
0.0
220
0.0
230
0.9999999999999999
 73
     1
 44
1.0
  0
MTEXT
  5
7B
100
AcDbEntity
  8
256
390
0
 62
     8
100
AcDbMText
 10
246.369552
 20
14.244792
 30
0.0
 40
1.75
 41
34.888636
 71
     9
 72
     1
  1
1000を超え2000以下  
210
0.0
220
0.0
230
1.0
 73
     1
 44
1.0
  0
MTEXT
  5
7C
100
AcDbEntity
  8
256
390
0
 62
     8
100
AcDbMText
 10
268.125015
 20
24.744792
 30
0.0
 40
1.75
 41
4.263636
 71
     8
 72
     1
  1
1.5  
210
0.0
220
0.0
230
1.0
 73
     1
 44
1.0
  0
MTEXT
  5
7D
100
AcDbEntity
  8
256
390
0
 62
     8
100
AcDbMText
 10
262.375031
 20
35.244792
 30
0.0
 40
1.75
 41
4.55
 71
     8
 72
     1
  1
0.2  
210
0.0
220
0.0
230
1.0
 73
     1
 44
1.0
  0
MTEXT
  5
7E
100
AcDbEntity
  8
256
390
0
 62
     8
100
AcDbMText
 10
351.983257
 20
283.013492
 30
0.0
 40
3.386667
 41
21.551517
 71
     8
 72
     1
  1
年月日     
210
0.0
220
0.0
230
0.9999999999999999
 73
     1
 44
1.0
  0
MTEXT
  5
7F
100
AcDbEntity
  8
256
390
0
 62
     8
100
AcDbMText
 10
250.875031
 20
31.744792
 30
0.0
 40
1.75
 41
6.586364
 71
     8
 72
     1
  1
0.05  
210
0.0
220
0.0
230
1.0
 73
     1
 44
1.0
  0
MTEXT
  5
80
100
AcDbEntity
  8
256
390
0
 62
     8
100
AcDbMText
 10
250.875031
 20
35.244792
 30
0.0
 40
1.75
 41
6.586364
 71
     8
 72
     1
  1
0.05  
210
0.0
220
0.0
230
1.0
 73
     1
 44
1.0
  0
MTEXT
  5
81
100
AcDbEntity
  8
256
390
0
 62
     8
100
AcDbMText
 10
262.375031
 20
10.744792
 30
0.0
 40
1.75
 41
1.765909
 71
     8
 72
     1
  1
4  
210
0.0
220
0.0
230
1.0
 73
     1
 44
1.0
  0
MTEXT
  5
82
100
AcDbEntity
  8
256
390
0
 62
     8
100
AcDbMText
 10
343.259623
 20
40.051182
 30
0.0
 40
3.386667
 41
17.210426
 71
     8
 72
     1
  1
名 称  
210
0.0
220
0.0
230
0.9999999999999999
 73
     1
 44
1.0
  0
MTEXT
  5
83
100
AcDbEntity
  8
256
390
0
 62
     8
100
AcDbMText
 10
280.042689
 20
27.073014
 30
0.0
 40
3.386667
 41
17.241214
 71
     8
 72
     1
  1
設 計  
210
0.0
220
0.0
230
0.9999999999999999
 73
     1
 44
1.0
  0
MTEXT
  5
84
100
AcDbEntity
  8
256
390
0
 62
     8
100
AcDbMText
 10
268.125015
 20
17.744792
 30
0.0
 40
1.75
 41
1.765909
 71
     8
 72
     1
  1
4  
210
0.0
220
0.0
230
1.0
 73
     1
 44
1.0
  0
MTEXT
  5
85
100
AcDbEntity
  8
256
390
0
 62
     8
100
AcDbMText
 10
256.625031
 20
28.244792
 30
0.0
 40
1.75
 41
4.55
 71
     8
 72
     1
  1
0.2  
210
0.0
220
0.0
230
1.0
 73
     1
 44
1.0
  0
MTEXT
  5
86
100
AcDbEntity
  8
256
390
0
 62
     8
100
AcDbMText
 10
246.368174
 20
17.744792
 30
0.0
 40
1.75
 41
33.138636
 71
     9
 72
     1
  1
 400を超え1000以下  
210
0.0
220
0.0
230
1.0
 73
     1
 44
1.0
  0
MTEXT
  5
87
100
AcDbEntity
  8
256
390
0
 62
     8
100
AcDbMText
 10
250.875031
 20
14.244792
 30
0.0
 40
1.75
 41
4.55
 71
     8
 72
     1
  1
0.5  
210
0.0
220
0.0
230
1.0
 73
     1
 44
1.0
  0
MTEXT
  5
88
100
AcDbEntity
  8
256
390
0
 62
     8
100
AcDbMText
 10
257.26344
 20
39.076539
 30
0.0
 40
2.0
 41
8.563636
 71
     8
 72
     1
  1
m %%p  
210
0.0
220
0.0
230
1.0
 73
     1
 44
1.0
  0
MTEXT
  5
89
100
AcDbEntity
  8
256
390
0
 62
     8
100
AcDbMText
 10
246.444454
 20
35.244792
 30
0.0
 40
1.75
 41
29.543182
 71
     9
 72
     1
  1
 0.5を超え   3以下  
210
0.0
220
0.0
230
1.0
 73
     1
 44
1.0
  0
MTEXT
  5
8A
100
AcDbEntity
  8
256
390
0
 62
     8
100
AcDbMText
 10
246.445896
 20
31.744792
 30
0.0
 40
1.75
 41
26.615909
 71
     9
 72
     1
  1
   3を超え   6以下  
210
0.0
220
0.0
230
1.0
 73
     1
 44
1.0
  0
MTEXT
  5
8B
100
AcDbEntity
  8
256
390
0
 62
     8
100
AcDbMText
 10
343.228244
 20
29.512776
 30
0.0
 40
2.54
 41
22.998545
 71
     8
 72
     1
  1
部品番号  
210
0.0
220
0.0
230
1.0
 73
     1
 44
1.0
  0
MTEXT
  5
8C
100
AcDbEntity
  8
256
390
0
 62
     8
100
AcDbMText
 10
251.19527
 20
41.133356
 30
0.0
 40
1.7952
 41
8.04576
 71
     8
 72
     1
  1
精級  
210
0.0
220
0.0
230
1.0
 73
     1
 44
1.0
  0
MTEXT
  5
8D
100
AcDbEntity
  8
256
390
0
 62
     8
100
AcDbMText
 10
246.399214
 20
24.744792
 30
0.0
 40
1.75
 41
30.243182
 71
     9
 72
     1
  1
  30を超え 120以下  
210
0.0
220
0.0
230
1.0
 73
     1
 44
1.0
  0
MTEXT
  5
8E
100
AcDbEntity
  8
256
390
0
 62
     8
100
AcDbMText
 10
262.375031
 20
24.744792
 30
0.0
 40
1.75
 41
4.565909
 71
     8
 72
     1
  1
0.8  
210
0.0
220
0.0
230
1.0
 73
     1
 44
1.0
  0
MTEXT
  5
8F
100
AcDbEntity
  8
256
390
0
 62
     8
100
AcDbMText
 10
242.4153
 20
40.925781
 30
0.0
 40
1.5
 41
13.636364
 71
     8
 72
     1
  1
公差等級  
210
0.0
220
0.0
230
1.0
 73
     1
 44
1.0
  0
MTEXT
  5
90
100
AcDbEntity
  8
256
390
0
 62
     8
100
AcDbMText
 10
246.430153
 20
28.244792
 30
0.0
 40
1.75
 41
27.395455
 71
     9
 72
     1
  1
   6を超え  30以下  
210
0.0
220
0.0
230
1.0
 73
     1
 44
1.0
  0
MTEXT
  5
91
100
AcDbEntity
  8
256
390
0
 62
     8
100
AcDbMText
 10
285.330511
 20
282.942152
 30
0.0
 40
3.386667
 41
59.482188
 71
     8
 72
     1
  1
訂    正    内    容  
210
0.0
220
0.0
230
0.9999999999999999
 73
     1
 44
1.0
  0
MTEXT
  5
92
100
AcDbEntity
  8
256
390
0
 62
     8
100
AcDbMText
 10
256.625031
 20
24.744792
 30
0.0
 40
1.75
 41
4.55
 71
     8
 72
     1
  1
0.3  
210
0.0
220
0.0
230
1.0
 73
     1
 44
1.0
  0
MTEXT
  5
93
100
AcDbEntity
  8
256
390
0
 62
     8
100
AcDbMText
 10
262.375031
 20
17.744792
 30
0.0
 40
1.75
 41
1.622727
 71
     8
 72
     1
  1
2  
210
0.0
220
0.0
230
1.0
 73
     1
 44
1.0
  0
MTEXT
  5
94
100
AcDbEntity
  8
256
390
0
 62
     8
100
AcDbMText
 10
262.375031
 20
14.244792
 30
0.0
 40
1.75
 41
1.622727
 71
     8
 72
     1
  1
3  
210
0.0
220
0.0
230
1.0
 73
     1
 44
1.0
  0
MTEXT
  5
95
100
AcDbEntity
  8
256
390
0
 62
     8
100
AcDbMText
 10
328.687321
 20
19.668163
 30
0.0
 40
3.386667
 41
22.536729
 71
     8
 72
     1
  1
三角法  
210
0.0
220
0.0
230
0.9999999999999999
 73
     1
 44
1.0
  0
MTEXT
  5
96
100
AcDbEntity
  8
256
390
0
 62
     8
100
AcDbMText
 10
365.92539
 20
11.0735
 30
0.0
 40
3.386667
 41
99.506434
 71
     8
 72
     1
  1
双 葉 電 子 工 業 株 式 会 社  
210
0.0
220
0.0
230
0.9999999999999999
 73
     1
 44
1.0
  0
MTEXT
  5
97
100
AcDbEntity
  8
256
390
0
 62
     8
100
AcDbMText
 10
256.625031
 20
17.744792
 30
0.0
 40
1.75
 41
4.565909
 71
     8
 72
     1
  1
0.8  
210
0.0
220
0.0
230
1.0
 73
     1
 44
1.0
  0
MTEXT
  5
98
100
AcDbEntity
  8
256
390
0
 62
     8
100
AcDbMText
 10
312.769883
 20
27.273035
 30
0.0
 40
3.386667
 41
17.518305
 71
     8
 72
     1
  1
承 認  
210
0.0
220
0.0
230
0.9999999999999999
 73
     1
 44
1.0
  0
MTEXT
  5
99
100
AcDbEntity
  8
256
390
0
 62
     8
100
AcDbMText
 10
268.125015
 20
28.244792
 30
0.0
 40
1.75
 41
0.843182
 71
     8
 72
     1
  1
1  
210
0.0
220
0.0
230
1.0
 73
     1
 44
1.0
  0
MTEXT
  5
9A
100
AcDbEntity
  8
256
390
0
 62
     8
100
AcDbMText
 10
247.07562
 20
45.235875
 30
0.0
 40
1.7
 41
74.846364
 71
     8
 72
     1
  1
削り加工寸法の普通許容差 JIS B 0405-1991  
210
0.0
220
0.0
230
1.0
 73
     1
 44
1.0
  0
MTEXT
  5
9B
100
AcDbEntity
  8
256
390
0
 62
     8
100
AcDbMText
 10
250.875031
 20
24.744792
 30
0.0
 40
1.75
 41
6.586364
 71
     8
 72
     1
  1
0.15  
210
0.0
220
0.0
230
1.0
 73
     1
 44
1.0
  0
MTEXT
  5
9C
100
AcDbEntity
  8
256
390
0
 62
     8
100
AcDbMText
 10
250.875031
 20
9.839584
 30
0.0
 40
2.54
 41
2.632364
 71
     8
 72
     1
  1
-  
210
0.0
220
0.0
230
1.0
 73
     1
 44
1.0
  0
MTEXT
  5
9D
100
AcDbEntity
  8
256
390
0
 62
     8
100
AcDbMText
 10
296.045235
 20
27.214792
 30
0.0
 40
3.386667
 41
17.025699
 71
     8
 72
     1
  1
検 図  
210
0.0
220
0.0
230
0.9999999999999999
 73
     1
 44
1.0
  0
MTEXT
  5
9E
100
AcDbEntity
  8
256
390
0
 62
     8
100
AcDbMText
 10
268.125015
 20
34.339584
 30
0.0
 40
2.54
 41
2.632364
 71
     8
 72
     1
  1
-  
210
0.0
220
0.0
230
1.0
 73
     1
 44
1.0
  0
MTEXT
  5
9F
100
AcDbEntity
  8
256
390
0
 62
     8
100
AcDbMText
 10
256.625031
 20
31.744792
 30
0.0
 40
1.75
 41
3.993182
 71
     8
 72
     1
  1
0.1  
210
0.0
220
0.0
230
1.0
 73
     1
 44
1.0
  0
MTEXT
  5
A0
100
AcDbEntity
  8
256
390
0
 62
     8
100
AcDbMText
 10
263.01344
 20
39.076539
 30
0.0
 40
2.0
 41
7.527273
 71
     8
 72
     1
  1
c %%p  
210
0.0
220
0.0
230
1.0
 73
     1
 44
1.0
  0
MTEXT
  5
A1
100
AcDbEntity
  8
256
390
0
 62
     8
100
AcDbMText
 10
360.130196
 20
278.047566
 30
0.0
 40
3.386667
 41
6.68097
 71
     8
 72
     1
  1
上  
210
0.0
220
0.0
230
0.9999999999999999
 73
     1
 44
1.0
  0
MTEXT
  5
A2
100
AcDbEntity
  8
256
390
0
 62
     8
100
AcDbMText
 10
232.748022
 20
282.92144
 30
0.0
 40
3.386667
 41
14.870547
 71
     8
 72
     1
  1
記号  
210
0.0
220
0.0
230
0.9999999999999999
 73
     1
 44
1.0
  0
MTEXT
  5
A3
100
AcDbEntity
  8
256
390
0
 62
     8
100
AcDbMText
 10
256.625031
 20
21.244792
 30
0.0
 40
1.75
 41
4.55
 71
     8
 72
     1
  1
0.5  
210
0.0
220
0.0
230
1.0
 73
     1
 44
1.0
  0
MTEXT
  5
A4
100
AcDbEntity
  8
256
390
0
 62
     8
100
AcDbMText
 10
256.625031
 20
10.744792
 30
0.0
 40
1.75
 41
1.622727
 71
     8
 72
     1
  1
2  
210
0.0
220
0.0
230
1.0
 73
     1
 44
1.0
  0
MTEXT
  5
A5
100
AcDbEntity
  8
256
390
0
 62
     8
100
AcDbMText
 10
262.375031
 20
21.244792
 30
0.0
 40
1.75
 41
4.263636
 71
     8
 72
     1
  1
1.2  
210
0.0
220
0.0
230
1.0
 73
     1
 44
1.0
  0
MTEXT
  5
A6
100
AcDbEntity
  8
256
390
0
 62
     8
100
AcDbMText
 10
360.130196
 20
282.575181
 30
0.0
 40
3.386667
 41
7.050425
 71
     8
 72
     1
  1
仕  
210
0.0
220
0.0
230
0.9999999999999999
 73
     1
 44
1.0
  0
MTEXT
  5
A7
100
AcDbEntity
  8
256
390
0
 62
     8
100
AcDbMText
 10
268.125015
 20
10.744792
 30
0.0
 40
1.75
 41
1.654545
 71
     8
 72
     1
  1
8  
210
0.0
220
0.0
230
1.0
 73
     1
 44
1.0
  0
MTEXT
  5
A8
100
AcDbEntity
  8
256
390
0
 62
     8
100
AcDbMText
 10
360.130196
 20
260.858133
 30
0.0
 40
2.822222
 41
5.875353
 71
     8
 72
     1
  1
処  
210
0.0
220
0.0
230
1.0
 73
     1
 44
1.0
  0
MTEXT
  5
A9
100
AcDbEntity
  8
256
390
0
 62
     8
100
AcDbMText
 10
336.870941
 20
283.013492
 30
0.0
 40
3.386667
 41
22.81382
 71
     8
 72
     1
  1
担当者     
210
0.0
220
0.0
230
0.9999999999999999
 73
     1
 44
1.0
  0
MTEXT
  5
AA
100
AcDbEntity
  8
256
390
0
 62
     8
100
AcDbMText
 10
251.577735
 20
39.076539
 30
0.0
 40
2.0
 41
6.836364
 71
     8
 72
     1
  1
f %%p  
210
0.0
220
0.0
230
1.0
 73
     1
 44
1.0
  0
MTEXT
  5
AB
100
AcDbEntity
  8
256
390
0
 62
     8
100
AcDbMText
 10
360.130196
 20
263.973919
 30
0.0
 40
2.822222
 41
5.952323
 71
     8
 72
     1
  1
熱  
210
0.0
220
0.0
230
1.0
 73
     1
 44
1.0
  0
MTEXT
  5
AC
100
AcDbEntity
  8
256
390
0
 62
     8
100
AcDbMText
 10
268.125015
 20
31.744792
 30
0.0
 40
1.75
 41
4.55
 71
     8
 72
     1
  1
0.5  
210
0.0
220
0.0
230
1.0
 73
     1
 44
1.0
  0
MTEXT
  5
AD
100
AcDbEntity
  8
256
390
0
 62
     8
100
AcDbMText
 10
328.494219
 20
43.012096
 30
0.0
 40
3.386667
 41
17.30279
 71
     8
 72
     1
  1
尺 度  
210
0.0
220
0.0
230
0.9999999999999999
 73
     1
 44
1.0
  0
MTEXT
  5
AE
100
AcDbEntity
  8
256
390
0
 62
     8
100
AcDbMText
 10
262.660189
 20
41.133356
 30
0.0
 40
1.7952
 41
7.9968
 71
     8
 72
     1
  1
粗級  
210
0.0
220
0.0
230
1.0
 73
     1
 44
1.0
  0
MTEXT
  5
AF
100
AcDbEntity
  8
256
390
0
 62
     8
100
AcDbMText
 10
225.086682
 20
40.357732
 30
0.0
 40
1.5
 41
6.640909
 71
     8
 72
     1
  1
基準  
210
0.0
220
0.0
230
1.0
 73
     1
 44
1.0
  0
MTEXT
  5
B0
100
AcDbEntity
  8
256
390
0
 62
     8
100
AcDbMText
 10
268.384088
 20
41.201556
 30
0.0
 40
1.584
 41
10.8
 71
     8
 72
     1
  1
極粗級  
210
0.0
220
0.0
230
1.0
 73
     1
 44
1.0
  0
MTEXT
  5
B1
100
AcDbEntity
  8
256
390
0
 62
     8
100
AcDbMText
 10
256.625031
 20
14.244792
 30
0.0
 40
1.75
 41
4.263636
 71
     8
 72
     1
  1
1.2  
210
0.0
220
0.0
230
1.0
 73
     1
 44
1.0
  0
MTEXT
  5
B2
100
AcDbEntity
  8
256
390
0
 62
     8
100
AcDbMText
 10
360.130196
 20
272.53334
 30
0.0
 40
3.386667
 41
7.050425
 71
     8
 72
     1
  1
処  
210
0.0
220
0.0
230
0.9999999999999999
 73
     1
 44
1.0
  0
INSERT
  5
B7
100
AcDbEntity
  8
256
390
0
100
AcDbBlockReference
  2
AID278
 10
0.0
 20
0.0
 30
0.0
  0
LINE
  5
B9
100
AcDbEntity
  8
1
390
0
  6
Continuous
 62
     7
100
AcDbLine
 10
185.650459
 20
171.258809
 30
0.0
 11
270.650459
 21
171.258809
 31
0.0
  0
LINE
  5
BA
100
AcDbEntity
  8
1
390
0
  6
Continuous
 62
     7
100
AcDbLine
 10
270.650459
 20
171.258809
 30
0.0
 11
270.650459
 21
141.258809
 31
0.0
  0
LINE
  5
BB
100
AcDbEntity
  8
1
390
0
  6
Continuous
 62
     7
100
AcDbLine
 10
270.650459
 20
141.258809
 30
0.0
 11
185.650459
 21
141.258809
 31
0.0
  0
LINE
  5
BC
100
AcDbEntity
  8
1
390
0
  6
Continuous
 62
     7
100
AcDbLine
 10
185.650459
 20
141.258809
 30
0.0
 11
185.650459
 21
171.258809
 31
0.0
  0
LINE
  5
BD
100
AcDbEntity
  8
1
390
0
  6
Continuous
 62
     7
100
AcDbLine
 10
274.150459
 20
172.758809
 30
0.0
 11
274.150459
 21
139.758809
 31
0.0
  0
LINE
  5
BE
100
AcDbEntity
  8
1
390
0
  6
Continuous
 62
     7
100
AcDbLine
 10
183.150459
 20
173.758809
 30
0.0
 11
273.150459
 21
173.758809
 31
0.0
  0
LINE
  5
BF
100
AcDbEntity
  8
1
390
0
  6
Continuous
 62
     7
100
AcDbLine
 10
273.150459
 20
138.758809
 30
0.0
 11
183.150459
 21
138.758809
 31
0.0
  0
LINE
  5
C0
100
AcDbEntity
  8
1
390
0
  6
Continuous
 62
     7
100
AcDbLine
 10
182.150459
 20
139.758809
 30
0.0
 11
182.150459
 21
172.758809
 31
0.0
  0
ARC
  5
C1
100
AcDbEntity
  8
1
390
0
  6
Continuous
 62
     7
100
AcDbCircle
 10
183.150459
 20
139.758809
 30
0.0
 40
1.0
210
0.0
220
0.0
230
1.0
100
AcDbArc
 50
180.0
 51
270.0
  0
ARC
  5
C2
100
AcDbEntity
  8
1
390
0
  6
Continuous
 62
     7
100
AcDbCircle
 10
273.150459
 20
172.758809
 30
0.0
 40
1.0
210
0.0
220
0.0
230
1.0
100
AcDbArc
 50
0.0
 51
90.0
  0
ARC
  5
C3
100
AcDbEntity
  8
1
390
0
  6
Continuous
 62
     7
100
AcDbCircle
 10
273.150459
 20
139.758809
 30
0.0
 40
1.0
210
0.0
220
0.0
230
1.0
100
AcDbArc
 50
270.0
 51
360.0
  0
ARC
  5
C4
100
AcDbEntity
  8
1
390
0
  6
Continuous
 62
     7
100
AcDbCircle
 10
183.150459
 20
172.758809
 30
0.0
 40
1.0
210
0.0
220
0.0
230
1.0
100
AcDbArc
 50
90.0
 51
180.0
  0
LINE
  5
C5
100
AcDbEntity
  8
1
390
0
  6
Continuous
 62
     7
100
AcDbLine
 10
187.150459
 20
137.158809
 30
0.0
 11
188.150459
 21
137.158809
 31
0.0
  0
LINE
  5
C6
100
AcDbEntity
  8
1
390
0
  6
Continuous
 62
     7
100
AcDbLine
 10
187.150459
 20
137.158809
 30
0.0
 11
187.150459
 21
138.758809
 31
0.0
  0
LINE
  5
C7
100
AcDbEntity
  8
1
390
0
  6
Continuous
 62
     7
100
AcDbLine
 10
188.150459
 20
137.158809
 30
0.0
 11
268.150459
 21
137.158809
 31
0.0
  0
LINE
  5
C8
100
AcDbEntity
  8
1
390
0
  6
Continuous
 62
     7
100
AcDbLine
 10
269.150459
 20
137.158809
 30
0.0
 11
269.150459
 21
138.758809
 31
0.0
  0
LINE
  5
C9
100
AcDbEntity
  8
1
390
0
  6
Continuous
 62
     7
100
AcDbLine
 10
268.150459
 20
137.158809
 30
0.0
 11
269.150459
 21
137.158809
 31
0.0
  0
LINE
  5
CA
100
AcDbEntity
  8
1
390
0
  6
Continuous
 62
     7
100
AcDbLine
 10
178.150459
 20
148.711992
 30
0.0
 11
178.150459
 21
163.805625
 31
0.0
  0
LINE
  5
CB
100
AcDbEntity
  8
1
390
0
  6
Continuous
 62
     7
100
AcDbLine
 10
177.150459
 20
149.708809
 30
0.0
 11
177.150459
 21
162.808809
 31
0.0
  0
LINE
  5
CC
100
AcDbEntity
  8
1
390
0
  6
Continuous
 62
     7
100
AcDbLine
 10
242.150459
 20
136.358809
 30
0.0
 11
234.150459
 21
136.358809
 31
0.0
  0
LINE
  5
CD
100
AcDbEntity
  8
1
390
0
  6
Continuous
 62
     7
100
AcDbLine
 10
221.950459
 20
136.158809
 30
0.0
 11
214.350459
 21
136.158809
 31
0.0
  0
LINE
  5
CE
100
AcDbEntity
  8
1
390
0
  6
Continuous
 62
     7
100
AcDbLine
 10
214.150459
 20
136.358809
 30
0.0
 11
222.150459
 21
136.358809
 31
0.0
  0
LINE
  5
CF
100
AcDbEntity
  8
1
390
0
  6
Continuous
 62
     7
100
AcDbLine
 10
200.150459
 20
136.358809
 30
0.0
 11
208.150459
 21
136.358809
 31
0.0
  0
LINE
  5
D0
100
AcDbEntity
  8
1
390
0
  6
Continuous
 62
     7
100
AcDbLine
 10
207.950459
 20
136.158809
 30
0.0
 11
200.350459
 21
136.158809
 31
0.0
  0
LINE
  5
D1
100
AcDbEntity
  8
1
390
0
  6
Continuous
 62
     7
100
AcDbLine
 10
234.350459
 20
136.158809
 30
0.0
 11
241.950459
 21
136.158809
 31
0.0
  0
LINE
  5
D2
100
AcDbEntity
  8
1
390
0
  6
Continuous
 62
     7
100
AcDbLine
 10
248.350459
 20
136.158809
 30
0.0
 11
255.950459
 21
136.158809
 31
0.0
  0
LINE
  5
D3
100
AcDbEntity
  8
1
390
0
  6
Continuous
 62
     7
100
AcDbLine
 10
256.150459
 20
136.358809
 30
0.0
 11
248.150459
 21
136.358809
 31
0.0
  0
LINE
  5
D5
100
AcDbEntity
  8
1
390
0
  6
DOT
 62
     9
100
AcDbLine
 10
177.150459
 20
157.508809
 30
0.0
 11
182.150459
 21
157.508809
 31
0.0
  0
LINE
  5
D6
100
AcDbEntity
  8
1
390
0
  6
DOT
 62
     9
100
AcDbLine
 10
177.150459
 20
155.008809
 30
0.0
 11
182.150459
 21
155.008809
 31
0.0
  0
LINE
  5
D7
100
AcDbEntity
  8
1
390
0
  6
DOT
 62
     9
100
AcDbLine
 10
237.850459
 20
142.158809
 30
0.0
 11
238.450459
 21
142.158809
 31
0.0
  0
LINE
  5
D8
100
AcDbEntity
  8
1
390
0
  6
DOT
 62
     9
100
AcDbLine
 10
217.850459
 20
142.158809
 30
0.0
 11
218.450459
 21
142.158809
 31
0.0
  0
LINE
  5
D9
100
AcDbEntity
  8
1
390
0
  6
DOT
 62
     9
100
AcDbLine
 10
203.850459
 20
142.158809
 30
0.0
 11
204.450459
 21
142.158809
 31
0.0
  0
LINE
  5
DA
100
AcDbEntity
  8
1
390
0
  6
DOT
 62
     9
100
AcDbLine
 10
251.850459
 20
142.158809
 30
0.0
 11
252.450459
 21
142.158809
 31
0.0
  0
LINE
  5
DB
100
AcDbEntity
  8
1
390
0
  6
DOT
 62
     9
100
AcDbLine
 10
217.850459
 20
142.158809
 30
0.0
 11
217.850459
 21
136.158809
 31
0.0
  0
LINE
  5
DC
100
AcDbEntity
  8
1
390
0
  6
DOT
 62
     9
100
AcDbLine
 10
251.850459
 20
142.158809
 30
0.0
 11
251.850459
 21
136.158809
 31
0.0
  0
LINE
  5
DD
100
AcDbEntity
  8
1
390
0
  6
DOT
 62
     9
100
AcDbLine
 10
203.850459
 20
142.158809
 30
0.0
 11
203.850459
 21
136.158809
 31
0.0
  0
LINE
  5
DE
100
AcDbEntity
  8
1
390
0
  6
DOT
 62
     9
100
AcDbLine
 10
237.850459
 20
142.158809
 30
0.0
 11
237.850459
 21
136.158809
 31
0.0
  0
LINE
  5
DF
100
AcDbEntity
  8
1
390
0
  6
DOT
 62
     9
100
AcDbLine
 10
204.450459
 20
142.158809
 30
0.0
 11
204.450459
 21
136.158809
 31
0.0
  0
LINE
  5
E0
100
AcDbEntity
  8
1
390
0
  6
DOT
 62
     9
100
AcDbLine
 10
238.450459
 20
142.158809
 30
0.0
 11
238.450459
 21
136.158809
 31
0.0
  0
LINE
  5
E1
100
AcDbEntity
  8
1
390
0
  6
DOT
 62
     9
100
AcDbLine
 10
252.450459
 20
142.158809
 30
0.0
 11
252.450459
 21
136.158809
 31
0.0
  0
LINE
  5
E2
100
AcDbEntity
  8
1
390
0
  6
DOT
 62
     9
100
AcDbLine
 10
218.450459
 20
142.158809
 30
0.0
 11
218.450459
 21
136.158809
 31
0.0
  0
LINE
  5
E3
100
AcDbEntity
  8
1
390
0
  6
DOT
 62
     9
100
AcDbLine
 10
235.650459
 20
142.158809
 30
0.0
 11
237.850459
 21
142.158809
 31
0.0
  0
LINE
  5
E4
100
AcDbEntity
  8
1
390
0
  6
DOT
 62
     9
100
AcDbLine
 10
238.450459
 20
142.158809
 30
0.0
 11
240.650459
 21
142.158809
 31
0.0
  0
LINE
  5
E5
100
AcDbEntity
  8
1
390
0
  6
DOT
 62
     9
100
AcDbLine
 10
249.650459
 20
142.158809
 30
0.0
 11
251.850459
 21
142.158809
 31
0.0
  0
LINE
  5
E6
100
AcDbEntity
  8
1
390
0
  6
DOT
 62
     9
100
AcDbLine
 10
252.450459
 20
142.158809
 30
0.0
 11
254.650459
 21
142.158809
 31
0.0
  0
LINE
  5
E7
100
AcDbEntity
  8
1
390
0
  6
DOT
 62
     9
100
AcDbLine
 10
206.650459
 20
142.158809
 30
0.0
 11
204.450459
 21
142.158809
 31
0.0
  0
LINE
  5
E8
100
AcDbEntity
  8
1
390
0
  6
DOT
 62
     9
100
AcDbLine
 10
203.850459
 20
142.158809
 30
0.0
 11
201.650459
 21
142.158809
 31
0.0
  0
LINE
  5
E9
100
AcDbEntity
  8
1
390
0
  6
DOT
 62
     9
100
AcDbLine
 10
220.650459
 20
142.158809
 30
0.0
 11
218.450459
 21
142.158809
 31
0.0
  0
LINE
  5
EA
100
AcDbEntity
  8
1
390
0
  6
DOT
 62
     9
100
AcDbLine
 10
217.850459
 20
142.158809
 30
0.0
 11
215.650459
 21
142.158809
 31
0.0
  0
LINE
  5
EB
100
AcDbEntity
  8
1
390
0
  6
DOT
 62
     9
100
AcDbLine
 10
250.650459
 20
137.358809
 30
0.0
 11
253.650459
 21
137.358809
 31
0.0
  0
LINE
  5
EC
100
AcDbEntity
  8
1
390
0
  6
DOT
 62
     9
100
AcDbLine
 10
216.650459
 20
137.358809
 30
0.0
 11
219.650459
 21
137.358809
 31
0.0
  0
LINE
  5
ED
100
AcDbEntity
  8
1
390
0
  6
DOT
 62
     9
100
AcDbLine
 10
202.650459
 20
137.358809
 30
0.0
 11
205.650459
 21
137.358809
 31
0.0
  0
LINE
  5
EE
100
AcDbEntity
  8
1
390
0
  6
DOT
 62
     9
100
AcDbLine
 10
236.650459
 20
137.358809
 30
0.0
 11
239.650459
 21
137.358809
 31
0.0
  0
LINE
  5
EF
100
AcDbEntity
  8
1
390
0
  6
DOT
 62
     9
100
AcDbLine
 10
178.350459
 20
159.258809
 30
0.0
 11
178.350459
 21
156.258809
 31
0.0
  0
LINE
  5
F0
100
AcDbEntity
  8
1
390
0
  6
DOT
 62
     9
100
AcDbLine
 10
178.350459
 20
156.258809
 30
0.0
 11
178.350459
 21
153.258809
 31
0.0
  0
LINE
  5
F1
100
AcDbEntity
  8
1
390
0
  6
Continuous
 62
     7
100
AcDbLine
 10
263.850459
 20
135.394195
 30
0.0
 11
263.850459
 21
135.404139
 31
0.0
  0
POLYLINE
  5
F2
100
AcDbEntity
  8
1
390
0
  6
Continuous
 62
     7
100
AcDb2dPolyline
 66
     1
 10
0.0
 20
0.0
 30
0.0
 40
3.0
 41
3.0
  0
VERTEX
  5
F3
100
AcDbEntity
  8
1
390
0
 62
     7
100
AcDbVertex
100
AcDb2dVertex
 10
265.283793
 20
135.228781
 30
0.0
  0
VERTEX
  5
F4
100
AcDbEntity
  8
1
390
0
 62
     7
100
AcDbVertex
100
AcDb2dVertex
 10
265.180723
 20
135.200077
 30
0.0
 42
-0.039744
  0
VERTEX
  5
F5
100
AcDbEntity
  8
1
390
0
 62
     7
100
AcDbVertex
100
AcDb2dVertex
 10
264.733793
 20
135.228781
 30
0.0
  0
SEQEND
  5
F6
100
AcDbEntity
  8
0
390
0
  0
ARC
  5
F7
100
AcDbEntity
  8
1
390
0
  6
Continuous
 62
     7
100
AcDbCircle
 10
265.650459
 20
142.158809
 30
0.0
 40
6.99039
210
0.0
220
0.0
230
1.0
100
AcDbArc
 50
255.078444
 51
262.464966
  0
LINE
  5
F8
100
AcDbEntity
  8
1
390
0
  6
DOT
 62
     9
100
AcDbLine
 10
265.261588
 20
135.211278
 30
0.0
 11
265.283793
 21
135.228781
 31
0.0
  0
LINE
  5
F9
100
AcDbEntity
  8
1
390
0
  6
Continuous
 62
     7
100
AcDbLine
 10
267.450459
 20
135.404139
 30
0.0
 11
267.450459
 21
135.394195
 31
0.0
  0
ARC
  5
FA
100
AcDbEntity
  8
1
390
0
  6
Continuous
 62
     7
100
AcDbCircle
 10
265.650459
 20
142.158809
 30
0.0
 40
6.99039
210
0.0
220
0.0
230
1.0
100
AcDbArc
 50
277.535034
 51
284.921556
  0
POLYLINE
  5
FB
100
AcDbEntity
  8
1
390
0
  6
Continuous
 62
     7
100
AcDb2dPolyline
 66
     1
 10
0.0
 20
0.0
 30
0.0
 40
3.0
 41
3.0
  0
VERTEX
  5
FC
100
AcDbEntity
  8
1
390
0
 62
     7
100
AcDbVertex
100
AcDb2dVertex
 10
266.567126
 20
135.228781
 30
0.0
 42
-0.036781
  0
VERTEX
  5
FD
100
AcDbEntity
  8
1
390
0
 62
     7
100
AcDbVertex
100
AcDb2dVertex
 10
266.133546
 20
135.19949
 30
0.0
  0
VERTEX
  5
FE
100
AcDbEntity
  8
1
390
0
 62
     7
100
AcDbVertex
100
AcDb2dVertex
 10
266.032457
 20
135.213768
 30
0.0
  0
VERTEX
  5
FF
100
AcDbEntity
  8
1
390
0
 62
     7
100
AcDbVertex
100
AcDb2dVertex
 10
266.017126
 20
135.228781
 30
0.0
  0
SEQEND
  5
100
100
AcDbEntity
  8
0
390
0
  0
LINE
  5
101
100
AcDbEntity
  8
1
390
0
  6
Continuous
 62
     7
100
AcDbLine
 10
266.017126
 20
135.404139
 30
0.0
 11
266.017126
 21
135.228781
 31
0.0
  0
ARC
  5
102
100
AcDbEntity
  8
1
390
0
  6
Continuous
 62
     7
100
AcDbCircle
 10
265.650459
 20
142.158809
 30
0.0
 40
6.764614
210
0.0
220
0.0
230
1.0
100
AcDbArc
 50
266.892838
 51
273.107162
  0
LINE
  5
103
100
AcDbEntity
  8
1
390
0
  6
Continuous
 62
     7
100
AcDbLine
 10
265.283793
 20
135.228781
 30
0.0
 11
265.283793
 21
135.404139
 31
0.0
  0
LINE
  5
104
100
AcDbEntity
  8
1
390
0
  6
Continuous
 62
     7
100
AcDbLine
 10
188.850459
 20
135.394195
 30
0.0
 11
188.850459
 21
135.404139
 31
0.0
  0
POLYLINE
  5
105
100
AcDbEntity
  8
1
390
0
  6
Continuous
 62
     7
100
AcDb2dPolyline
 66
     1
 10
0.0
 20
0.0
 30
0.0
 40
3.0
 41
3.0
  0
VERTEX
  5
106
100
AcDbEntity
  8
1
390
0
 62
     7
100
AcDbVertex
100
AcDb2dVertex
 10
190.283793
 20
135.228781
 30
0.0
  0
VERTEX
  5
107
100
AcDbEntity
  8
1
390
0
 62
     7
100
AcDbVertex
100
AcDb2dVertex
 10
190.180723
 20
135.200077
 30
0.0
 42
-0.039744
  0
VERTEX
  5
108
100
AcDbEntity
  8
1
390
0
 62
     7
100
AcDbVertex
100
AcDb2dVertex
 10
189.733793
 20
135.228781
 30
0.0
  0
SEQEND
  5
109
100
AcDbEntity
  8
0
390
0
  0
ARC
  5
10A
100
AcDbEntity
  8
1
390
0
  6
Continuous
 62
     7
100
AcDbCircle
 10
190.650459
 20
142.158809
 30
0.0
 40
6.99039
210
0.0
220
0.0
230
1.0
100
AcDbArc
 50
255.078444
 51
262.464966
  0
LINE
  5
10B
100
AcDbEntity
  8
1
390
0
  6
Continuous
 62
     7
100
AcDbLine
 10
192.450459
 20
135.404139
 30
0.0
 11
192.450459
 21
135.394195
 31
0.0
  0
ARC
  5
10C
100
AcDbEntity
  8
1
390
0
  6
Continuous
 62
     7
100
AcDbCircle
 10
190.650459
 20
142.158809
 30
0.0
 40
6.99039
210
0.0
220
0.0
230
1.0
100
AcDbArc
 50
277.535034
 51
284.921556
  0
POLYLINE
  5
10D
100
AcDbEntity
  8
1
390
0
  6
Continuous
 62
     7
100
AcDb2dPolyline
 66
     1
 10
0.0
 20
0.0
 30
0.0
 40
3.0
 41
3.0
  0
VERTEX
  5
10E
100
AcDbEntity
  8
1
390
0
 62
     7
100
AcDbVertex
100
AcDb2dVertex
 10
191.567126
 20
135.228781
 30
0.0
 42
-0.036781
  0
VERTEX
  5
10F
100
AcDbEntity
  8
1
390
0
 62
     7
100
AcDbVertex
100
AcDb2dVertex
 10
191.133546
 20
135.19949
 30
0.0
  0
VERTEX
  5
110
100
AcDbEntity
  8
1
390
0
 62
     7
100
AcDbVertex
100
AcDb2dVertex
 10
191.032457
 20
135.213768
 30
0.0
  0
VERTEX
  5
111
100
AcDbEntity
  8
1
390
0
 62
     7
100
AcDbVertex
100
AcDb2dVertex
 10
191.017126
 20
135.228781
 30
0.0
  0
SEQEND
  5
112
100
AcDbEntity
  8
0
390
0
  0
LINE
  5
113
100
AcDbEntity
  8
1
390
0
  6
Continuous
 62
     7
100
AcDbLine
 10
191.017126
 20
135.404139
 30
0.0
 11
191.017126
 21
135.228781
 31
0.0
  0
ARC
  5
114
100
AcDbEntity
  8
1
390
0
  6
Continuous
 62
     7
100
AcDbCircle
 10
190.650459
 20
142.158809
 30
0.0
 40
6.764614
210
0.0
220
0.0
230
1.0
100
AcDbArc
 50
266.892838
 51
273.107162
  0
LINE
  5
115
100
AcDbEntity
  8
1
390
0
  6
Continuous
 62
     7
100
AcDbLine
 10
190.283793
 20
135.228781
 30
0.0
 11
190.283793
 21
135.404139
 31
0.0
  0
LINE
  5
116
100
AcDbEntity
  8
1
390
0
  6
DOT
 62
     9
100
AcDbLine
 10
191.017126
 20
136.158809
 30
0.0
 11
191.017126
 21
135.404139
 31
0.0
  0
LINE
  5
117
100
AcDbEntity
  8
1
390
0
  6
DOT
 62
     9
100
AcDbLine
 10
266.017126
 20
136.158809
 30
0.0
 11
266.017126
 21
135.404139
 31
0.0
  0
LINE
  5
118
100
AcDbEntity
  8
1
390
0
  6
DOT
 62
     9
100
AcDbLine
 10
265.283793
 20
136.158809
 30
0.0
 11
265.283793
 21
135.404139
 31
0.0
  0
LINE
  5
119
100
AcDbEntity
  8
1
390
0
  6
DOT
 62
     9
100
AcDbLine
 10
265.283793
 20
136.158809
 30
0.0
 11
266.017126
 21
136.158809
 31
0.0
  0
LINE
  5
11A
100
AcDbEntity
  8
1
390
0
  6
DOT
 62
     9
100
AcDbLine
 10
190.283793
 20
136.158809
 30
0.0
 11
190.283793
 21
135.404139
 31
0.0
  0
LINE
  5
11B
100
AcDbEntity
  8
1
390
0
  6
DOT
 62
     9
100
AcDbLine
 10
190.283793
 20
136.158809
 30
0.0
 11
191.017126
 21
136.158809
 31
0.0
  0
LINE
  5
11C
100
AcDbEntity
  8
1
390
0
  6
DOT
 62
     9
100
AcDbLine
 10
264.733793
 20
136.158809
 30
0.0
 11
265.283793
 21
136.158809
 31
0.0
  0
LINE
  5
11D
100
AcDbEntity
  8
1
390
0
  6
DOT
 62
     9
100
AcDbLine
 10
189.733793
 20
136.158809
 30
0.0
 11
190.283793
 21
136.158809
 31
0.0
  0
LINE
  5
11E
100
AcDbEntity
  8
1
390
0
  6
DOT
 62
     9
100
AcDbLine
 10
266.017126
 20
136.158809
 30
0.0
 11
266.567126
 21
136.158809
 31
0.0
  0
LINE
  5
11F
100
AcDbEntity
  8
1
390
0
  6
DOT
 62
     9
100
AcDbLine
 10
191.017126
 20
136.158809
 30
0.0
 11
191.567126
 21
136.158809
 31
0.0
  0
LINE
  5
120
100
AcDbEntity
  8
1
390
0
  6
DOT
 62
     9
100
AcDbLine
 10
188.850459
 20
136.158809
 30
0.0
 11
189.733793
 21
136.158809
 31
0.0
  0
LINE
  5
121
100
AcDbEntity
  8
1
390
0
  6
DOT
 62
     9
100
AcDbLine
 10
266.567126
 20
136.158809
 30
0.0
 11
267.450459
 21
136.158809
 31
0.0
  0
LINE
  5
122
100
AcDbEntity
  8
1
390
0
  6
DOT
 62
     9
100
AcDbLine
 10
191.567126
 20
136.158809
 30
0.0
 11
192.450459
 21
136.158809
 31
0.0
  0
LINE
  5
123
100
AcDbEntity
  8
1
390
0
  6
DOT
 62
     9
100
AcDbLine
 10
267.450459
 20
136.158809
 30
0.0
 11
267.450459
 21
135.404139
 31
0.0
  0
LINE
  5
124
100
AcDbEntity
  8
1
390
0
  6
DOT
 62
     9
100
AcDbLine
 10
263.850459
 20
136.158809
 30
0.0
 11
263.850459
 21
135.404139
 31
0.0
  0
LINE
  5
125
100
AcDbEntity
  8
1
390
0
  6
DOT
 62
     9
100
AcDbLine
 10
263.850459
 20
136.158809
 30
0.0
 11
264.733793
 21
136.158809
 31
0.0
  0
LINE
  5
126
100
AcDbEntity
  8
1
390
0
  6
DOT
 62
     9
100
AcDbLine
 10
188.850459
 20
136.158809
 30
0.0
 11
188.850459
 21
135.404139
 31
0.0
  0
LINE
  5
127
100
AcDbEntity
  8
1
390
0
  6
DOT
 62
     9
100
AcDbLine
 10
192.450459
 20
136.158809
 30
0.0
 11
192.450459
 21
135.404139
 31
0.0
  0
LINE
  5
128
100
AcDbEntity
  8
1
390
0
  6
Continuous
 62
     7
100
AcDbLine
 10
209.350459
 20
135.394195
 30
0.0
 11
209.350459
 21
135.404139
 31
0.0
  0
POLYLINE
  5
129
100
AcDbEntity
  8
1
390
0
  6
Continuous
 62
     7
100
AcDb2dPolyline
 66
     1
 10
0.0
 20
0.0
 30
0.0
 40
3.0
 41
3.0
  0
VERTEX
  5
12A
100
AcDbEntity
  8
1
390
0
 62
     7
100
AcDbVertex
100
AcDb2dVertex
 10
210.783793
 20
135.228781
 30
0.0
  0
VERTEX
  5
12B
100
AcDbEntity
  8
1
390
0
 62
     7
100
AcDbVertex
100
AcDb2dVertex
 10
210.680723
 20
135.200077
 30
0.0
 42
-0.039744
  0
VERTEX
  5
12C
100
AcDbEntity
  8
1
390
0
 62
     7
100
AcDbVertex
100
AcDb2dVertex
 10
210.233793
 20
135.228781
 30
0.0
  0
SEQEND
  5
12D
100
AcDbEntity
  8
0
390
0
  0
ARC
  5
12E
100
AcDbEntity
  8
1
390
0
  6
Continuous
 62
     7
100
AcDbCircle
 10
211.150459
 20
142.158809
 30
0.0
 40
6.99039
210
0.0
220
0.0
230
1.0
100
AcDbArc
 50
255.078444
 51
262.464966
  0
LINE
  5
12F
100
AcDbEntity
  8
1
390
0
  6
Continuous
 62
     7
100
AcDbLine
 10
212.950459
 20
135.404139
 30
0.0
 11
212.950459
 21
135.394195
 31
0.0
  0
ARC
  5
130
100
AcDbEntity
  8
1
390
0
  6
Continuous
 62
     7
100
AcDbCircle
 10
211.150459
 20
142.158809
 30
0.0
 40
6.99039
210
0.0
220
0.0
230
1.0
100
AcDbArc
 50
277.535034
 51
284.921556
  0
POLYLINE
  5
131
100
AcDbEntity
  8
1
390
0
  6
Continuous
 62
     7
100
AcDb2dPolyline
 66
     1
 10
0.0
 20
0.0
 30
0.0
 40
3.0
 41
3.0
  0
VERTEX
  5
132
100
AcDbEntity
  8
1
390
0
 62
     7
100
AcDbVertex
100
AcDb2dVertex
 10
212.067126
 20
135.228781
 30
0.0
 42
-0.036781
  0
VERTEX
  5
133
100
AcDbEntity
  8
1
390
0
 62
     7
100
AcDbVertex
100
AcDb2dVertex
 10
211.633546
 20
135.19949
 30
0.0
  0
VERTEX
  5
134
100
AcDbEntity
  8
1
390
0
 62
     7
100
AcDbVertex
100
AcDb2dVertex
 10
211.532457
 20
135.213768
 30
0.0
  0
VERTEX
  5
135
100
AcDbEntity
  8
1
390
0
 62
     7
100
AcDbVertex
100
AcDb2dVertex
 10
211.517126
 20
135.228781
 30
0.0
  0
SEQEND
  5
136
100
AcDbEntity
  8
0
390
0
  0
LINE
  5
137
100
AcDbEntity
  8
1
390
0
  6
Continuous
 62
     7
100
AcDbLine
 10
211.517126
 20
135.404139
 30
0.0
 11
211.517126
 21
135.228781
 31
0.0
  0
ARC
  5
138
100
AcDbEntity
  8
1
390
0
  6
Continuous
 62
     7
100
AcDbCircle
 10
211.150459
 20
142.158809
 30
0.0
 40
6.764614
210
0.0
220
0.0
230
1.0
100
AcDbArc
 50
266.892838
 51
273.107162
  0
LINE
  5
139
100
AcDbEntity
  8
1
390
0
  6
Continuous
 62
     7
100
AcDbLine
 10
210.783793
 20
135.228781
 30
0.0
 11
210.783793
 21
135.404139
 31
0.0
  0
LINE
  5
13A
100
AcDbEntity
  8
1
390
0
  6
Continuous
 62
     7
100
AcDbLine
 10
243.350459
 20
135.394195
 30
0.0
 11
243.350459
 21
135.404139
 31
0.0
  0
POLYLINE
  5
13B
100
AcDbEntity
  8
1
390
0
  6
Continuous
 62
     7
100
AcDb2dPolyline
 66
     1
 10
0.0
 20
0.0
 30
0.0
 40
3.0
 41
3.0
  0
VERTEX
  5
13C
100
AcDbEntity
  8
1
390
0
 62
     7
100
AcDbVertex
100
AcDb2dVertex
 10
244.783793
 20
135.228781
 30
0.0
  0
VERTEX
  5
13D
100
AcDbEntity
  8
1
390
0
 62
     7
100
AcDbVertex
100
AcDb2dVertex
 10
244.680723
 20
135.200077
 30
0.0
 42
-0.039744
  0
VERTEX
  5
13E
100
AcDbEntity
  8
1
390
0
 62
     7
100
AcDbVertex
100
AcDb2dVertex
 10
244.233793
 20
135.228781
 30
0.0
  0
SEQEND
  5
13F
100
AcDbEntity
  8
0
390
0
  0
ARC
  5
140
100
AcDbEntity
  8
1
390
0
  6
Continuous
 62
     7
100
AcDbCircle
 10
245.150459
 20
142.158809
 30
0.0
 40
6.99039
210
0.0
220
0.0
230
0.9999999999999999
100
AcDbArc
 50
255.078444
 51
262.464966
  0
LINE
  5
141
100
AcDbEntity
  8
1
390
0
  6
DOT
 62
     9
100
AcDbLine
 10
244.761588
 20
135.211278
 30
0.0
 11
244.783793
 21
135.228781
 31
0.0
  0
LINE
  5
142
100
AcDbEntity
  8
1
390
0
  6
Continuous
 62
     7
100
AcDbLine
 10
246.950459
 20
135.404139
 30
0.0
 11
246.950459
 21
135.394195
 31
0.0
  0
ARC
  5
143
100
AcDbEntity
  8
1
390
0
  6
Continuous
 62
     7
100
AcDbCircle
 10
245.150459
 20
142.158809
 30
0.0
 40
6.99039
210
0.0
220
0.0
230
1.0
100
AcDbArc
 50
277.535034
 51
284.921556
  0
POLYLINE
  5
144
100
AcDbEntity
  8
1
390
0
  6
Continuous
 62
     7
100
AcDb2dPolyline
 66
     1
 10
0.0
 20
0.0
 30
0.0
 40
3.0
 41
3.0
  0
VERTEX
  5
145
100
AcDbEntity
  8
1
390
0
 62
     7
100
AcDbVertex
100
AcDb2dVertex
 10
246.067126
 20
135.228781
 30
0.0
 42
-0.036781
  0
VERTEX
  5
146
100
AcDbEntity
  8
1
390
0
 62
     7
100
AcDbVertex
100
AcDb2dVertex
 10
245.633546
 20
135.19949
 30
0.0
  0
VERTEX
  5
147
100
AcDbEntity
  8
1
390
0
 62
     7
100
AcDbVertex
100
AcDb2dVertex
 10
245.532457
 20
135.213768
 30
0.0
  0
VERTEX
  5
148
100
AcDbEntity
  8
1
390
0
 62
     7
100
AcDbVertex
100
AcDb2dVertex
 10
245.517126
 20
135.228781
 30
0.0
  0
SEQEND
  5
149
100
AcDbEntity
  8
0
390
0
  0
LINE
  5
14A
100
AcDbEntity
  8
1
390
0
  6
Continuous
 62
     7
100
AcDbLine
 10
245.517126
 20
135.404139
 30
0.0
 11
245.517126
 21
135.228781
 31
0.0
  0
ARC
  5
14B
100
AcDbEntity
  8
1
390
0
  6
Continuous
 62
     7
100
AcDbCircle
 10
245.150459
 20
142.158809
 30
0.0
 40
6.764614
210
0.0
220
0.0
230
1.0
100
AcDbArc
 50
266.892838
 51
273.107162
  0
LINE
  5
14C
100
AcDbEntity
  8
1
390
0
  6
Continuous
 62
     7
100
AcDbLine
 10
244.783793
 20
135.228781
 30
0.0
 11
244.783793
 21
135.404139
 31
0.0
  0
LINE
  5
14D
100
AcDbEntity
  8
1
390
0
  6
DOT
 62
     9
100
AcDbLine
 10
244.783793
 20
136.158809
 30
0.0
 11
244.783793
 21
135.404139
 31
0.0
  0
LINE
  5
14E
100
AcDbEntity
  8
1
390
0
  6
DOT
 62
     9
100
AcDbLine
 10
245.517126
 20
136.158809
 30
0.0
 11
245.517126
 21
135.404139
 31
0.0
  0
LINE
  5
14F
100
AcDbEntity
  8
1
390
0
  6
DOT
 62
     9
100
AcDbLine
 10
211.517126
 20
136.158809
 30
0.0
 11
211.517126
 21
135.404139
 31
0.0
  0
LINE
  5
150
100
AcDbEntity
  8
1
390
0
  6
DOT
 62
     9
100
AcDbLine
 10
210.783793
 20
136.158809
 30
0.0
 11
210.783793
 21
135.404139
 31
0.0
  0
LINE
  5
151
100
AcDbEntity
  8
1
390
0
  6
DOT
 62
     9
100
AcDbLine
 10
244.783793
 20
136.158809
 30
0.0
 11
245.517126
 21
136.158809
 31
0.0
  0
LINE
  5
152
100
AcDbEntity
  8
1
390
0
  6
DOT
 62
     9
100
AcDbLine
 10
210.783793
 20
136.158809
 30
0.0
 11
211.517126
 21
136.158809
 31
0.0
  0
LINE
  5
153
100
AcDbEntity
  8
1
390
0
  6
Continuous
 62
     7
100
AcDbLine
 10
275.150459
 20
141.558809
 30
0.0
 11
275.150459
 21
143.958809
 31
0.0
  0
LINE
  5
154
100
AcDbEntity
  8
1
390
0
  6
Continuous
 62
     7
100
AcDbLine
 10
274.350459
 20
140.758809
 30
0.0
 11
274.350459
 21
144.758809
 31
0.0
  0
LINE
  5
155
100
AcDbEntity
  8
1
390
0
  6
Continuous
 62
     7
100
AcDbLine
 10
181.150459
 20
141.558809
 30
0.0
 11
181.150459
 21
143.958809
 31
0.0
  0
LINE
  5
156
100
AcDbEntity
  8
1
390
0
  6
Continuous
 62
     7
100
AcDbLine
 10
181.950459
 20
140.758809
 30
0.0
 11
181.950459
 21
144.758809
 31
0.0
  0
LINE
  5
157
100
AcDbEntity
  8
1
390
0
  6
Continuous
 62
     7
100
AcDbLine
 10
181.950459
 20
171.758809
 30
0.0
 11
181.950459
 21
167.758809
 31
0.0
  0
LINE
  5
158
100
AcDbEntity
  8
1
390
0
  6
Continuous
 62
     7
100
AcDbLine
 10
275.150459
 20
170.958809
 30
0.0
 11
275.150459
 21
168.558809
 31
0.0
  0
LINE
  5
159
100
AcDbEntity
  8
1
390
0
  6
Continuous
 62
     7
100
AcDbLine
 10
274.350459
 20
171.758809
 30
0.0
 11
274.350459
 21
167.758809
 31
0.0
  0
LINE
  5
15A
100
AcDbEntity
  8
1
390
0
  6
Continuous
 62
     7
100
AcDbLine
 10
181.150459
 20
170.958809
 30
0.0
 11
181.150459
 21
168.558809
 31
0.0
  0
LINE
  5
15B
100
AcDbEntity
  8
1
390
0
  6
DOT
 62
     9
100
AcDbLine
 10
211.517126
 20
136.158809
 30
0.0
 11
212.067126
 21
136.158809
 31
0.0
  0
LINE
  5
15C
100
AcDbEntity
  8
1
390
0
  6
DOT
 62
     9
100
AcDbLine
 10
245.517126
 20
136.158809
 30
0.0
 11
246.067126
 21
136.158809
 31
0.0
  0
LINE
  5
15D
100
AcDbEntity
  8
1
390
0
  6
DOT
 62
     9
100
AcDbLine
 10
210.233793
 20
136.158809
 30
0.0
 11
210.783793
 21
136.158809
 31
0.0
  0
LINE
  5
15E
100
AcDbEntity
  8
1
390
0
  6
DOT
 62
     9
100
AcDbLine
 10
244.233793
 20
136.158809
 30
0.0
 11
244.783793
 21
136.158809
 31
0.0
  0
LINE
  5
15F
100
AcDbEntity
  8
1
390
0
  6
DOT
 62
     9
100
AcDbLine
 10
246.950459
 20
136.158809
 30
0.0
 11
246.950459
 21
135.404139
 31
0.0
  0
LINE
  5
160
100
AcDbEntity
  8
1
390
0
  6
DOT
 62
     9
100
AcDbLine
 10
246.067126
 20
136.158809
 30
0.0
 11
246.950459
 21
136.158809
 31
0.0
  0
LINE
  5
161
100
AcDbEntity
  8
1
390
0
  6
DOT
 62
     9
100
AcDbLine
 10
212.950459
 20
136.158809
 30
0.0
 11
212.950459
 21
135.404139
 31
0.0
  0
LINE
  5
162
100
AcDbEntity
  8
1
390
0
  6
DOT
 62
     9
100
AcDbLine
 10
212.067126
 20
136.158809
 30
0.0
 11
212.950459
 21
136.158809
 31
0.0
  0
LINE
  5
163
100
AcDbEntity
  8
1
390
0
  6
DOT
 62
     9
100
AcDbLine
 10
243.350459
 20
136.158809
 30
0.0
 11
243.350459
 21
135.404139
 31
0.0
  0
LINE
  5
164
100
AcDbEntity
  8
1
390
0
  6
DOT
 62
     9
100
AcDbLine
 10
243.350459
 20
136.158809
 30
0.0
 11
244.233793
 21
136.158809
 31
0.0
  0
LINE
  5
165
100
AcDbEntity
  8
1
390
0
  6
DOT
 62
     9
100
AcDbLine
 10
209.350459
 20
136.158809
 30
0.0
 11
209.350459
 21
135.404139
 31
0.0
  0
LINE
  5
166
100
AcDbEntity
  8
1
390
0
  6
DOT
 62
     9
100
AcDbLine
 10
209.350459
 20
136.158809
 30
0.0
 11
210.233793
 21
136.158809
 31
0.0
  0
LINE
  5
167
100
AcDbEntity
  8
1
390
0
  6
DOT
 62
     9
100
AcDbLine
 10
274.650459
 20
169.458809
 30
0.0
 11
274.650459
 21
170.058809
 31
0.0
  0
LINE
  5
168
100
AcDbEntity
  8
1
390
0
  6
DOT
 62
     9
100
AcDbLine
 10
275.150459
 20
170.058809
 30
0.0
 11
274.650459
 21
170.058809
 31
0.0
  0
LINE
  5
169
100
AcDbEntity
  8
1
390
0
  6
DOT
 62
     9
100
AcDbLine
 10
275.150459
 20
169.458809
 30
0.0
 11
274.650459
 21
169.458809
 31
0.0
  0
LINE
  5
16A
100
AcDbEntity
  8
1
390
0
  6
DOT
 62
     9
100
AcDbLine
 10
181.150459
 20
143.058809
 30
0.0
 11
181.650459
 21
143.058809
 31
0.0
  0
LINE
  5
16B
100
AcDbEntity
  8
1
390
0
  6
DOT
 62
     9
100
AcDbLine
 10
181.150459
 20
142.458809
 30
0.0
 11
181.650459
 21
142.458809
 31
0.0
  0
LINE
  5
16C
100
AcDbEntity
  8
1
390
0
  6
DOT
 62
     9
100
AcDbLine
 10
181.650459
 20
143.058809
 30
0.0
 11
181.650459
 21
142.458809
 31
0.0
  0
LINE
  5
16D
100
AcDbEntity
  8
1
390
0
  6
DOT
 62
     9
100
AcDbLine
 10
181.150459
 20
170.058809
 30
0.0
 11
181.650459
 21
170.058809
 31
0.0
  0
LINE
  5
16E
100
AcDbEntity
  8
1
390
0
  6
DOT
 62
     9
100
AcDbLine
 10
181.650459
 20
169.458809
 30
0.0
 11
181.650459
 21
170.058809
 31
0.0
  0
LINE
  5
16F
100
AcDbEntity
  8
1
390
0
  6
DOT
 62
     9
100
AcDbLine
 10
181.150459
 20
169.458809
 30
0.0
 11
181.650459
 21
169.458809
 31
0.0
  0
LINE
  5
170
100
AcDbEntity
  8
1
390
0
  6
DOT
 62
     9
100
AcDbLine
 10
275.150459
 20
143.058809
 30
0.0
 11
274.650459
 21
143.058809
 31
0.0
  0
LINE
  5
171
100
AcDbEntity
  8
1
390
0
  6
DOT
 62
     9
100
AcDbLine
 10
274.650459
 20
143.058809
 30
0.0
 11
274.650459
 21
142.458809
 31
0.0
  0
LINE
  5
172
100
AcDbEntity
  8
1
390
0
  6
DOT
 62
     9
100
AcDbLine
 10
275.150459
 20
142.458809
 30
0.0
 11
274.650459
 21
142.458809
 31
0.0
  0
LINE
  5
173
100
AcDbEntity
  8
1
390
0
  6
DOT
 62
     9
100
AcDbLine
 10
274.650459
 20
142.258809
 30
0.0
 11
274.650459
 21
142.458809
 31
0.0
  0
LINE
  5
174
100
AcDbEntity
  8
1
390
0
  6
DOT
 62
     9
100
AcDbLine
 10
181.650459
 20
143.058809
 30
0.0
 11
181.650459
 21
143.258809
 31
0.0
  0
LINE
  5
175
100
AcDbEntity
  8
1
390
0
  6
DOT
 62
     9
100
AcDbLine
 10
181.650459
 20
170.258809
 30
0.0
 11
181.650459
 21
170.058809
 31
0.0
  0
LINE
  5
176
100
AcDbEntity
  8
1
390
0
  6
DOT
 62
     9
100
AcDbLine
 10
181.650459
 20
142.258809
 30
0.0
 11
181.650459
 21
142.458809
 31
0.0
  0
LINE
  5
177
100
AcDbEntity
  8
1
390
0
  6
DOT
 62
     9
100
AcDbLine
 10
274.650459
 20
169.458809
 30
0.0
 11
274.650459
 21
169.258809
 31
0.0
  0
LINE
  5
178
100
AcDbEntity
  8
1
390
0
  6
DOT
 62
     9
100
AcDbLine
 10
181.650459
 20
169.458809
 30
0.0
 11
181.650459
 21
169.258809
 31
0.0
  0
LINE
  5
179
100
AcDbEntity
  8
1
390
0
  6
DOT
 62
     9
100
AcDbLine
 10
274.650459
 20
143.058809
 30
0.0
 11
274.650459
 21
143.258809
 31
0.0
  0
LINE
  5
17A
100
AcDbEntity
  8
1
390
0
  6
DOT
 62
     9
100
AcDbLine
 10
274.650459
 20
170.258809
 30
0.0
 11
274.650459
 21
170.058809
 31
0.0
  0
LINE
  5
17B
100
AcDbEntity
  8
1
390
0
  6
DOT
 62
     9
100
AcDbLine
 10
181.650459
 20
142.258809
 30
0.0
 11
181.650459
 21
141.758809
 31
0.0
  0
LINE
  5
17C
100
AcDbEntity
  8
1
390
0
  6
DOT
 62
     9
100
AcDbLine
 10
274.650459
 20
142.258809
 30
0.0
 11
274.650459
 21
141.758809
 31
0.0
  0
LINE
  5
17D
100
AcDbEntity
  8
1
390
0
  6
DOT
 62
     9
100
AcDbLine
 10
275.150459
 20
141.758809
 30
0.0
 11
274.650459
 21
141.758809
 31
0.0
  0
LINE
  5
17E
100
AcDbEntity
  8
1
390
0
  6
DOT
 62
     9
100
AcDbLine
 10
274.650459
 20
170.258809
 30
0.0
 11
274.650459
 21
170.758809
 31
0.0
  0
LINE
  5
17F
100
AcDbEntity
  8
1
390
0
  6
DOT
 62
     9
100
AcDbLine
 10
181.150459
 20
141.758809
 30
0.0
 11
181.650459
 21
141.758809
 31
0.0
  0
LINE
  5
180
100
AcDbEntity
  8
1
390
0
  6
DOT
 62
     9
100
AcDbLine
 10
274.650459
 20
168.758809
 30
0.0
 11
274.650459
 21
169.258809
 31
0.0
  0
LINE
  5
181
100
AcDbEntity
  8
1
390
0
  6
DOT
 62
     9
100
AcDbLine
 10
181.650459
 20
143.758809
 30
0.0
 11
181.650459
 21
143.258809
 31
0.0
  0
LINE
  5
182
100
AcDbEntity
  8
1
390
0
  6
DOT
 62
     9
100
AcDbLine
 10
275.150459
 20
170.758809
 30
0.0
 11
274.650459
 21
170.758809
 31
0.0
  0
LINE
  5
183
100
AcDbEntity
  8
1
390
0
  6
DOT
 62
     9
100
AcDbLine
 10
181.650459
 20
170.258809
 30
0.0
 11
181.650459
 21
170.758809
 31
0.0
  0
LINE
  5
184
100
AcDbEntity
  8
1
390
0
  6
DOT
 62
     9
100
AcDbLine
 10
181.150459
 20
143.758809
 30
0.0
 11
181.650459
 21
143.758809
 31
0.0
  0
LINE
  5
185
100
AcDbEntity
  8
1
390
0
  6
DOT
 62
     9
100
AcDbLine
 10
181.150459
 20
170.758809
 30
0.0
 11
181.650459
 21
170.758809
 31
0.0
  0
LINE
  5
186
100
AcDbEntity
  8
1
390
0
  6
DOT
 62
     9
100
AcDbLine
 10
181.150459
 20
168.758809
 30
0.0
 11
181.650459
 21
168.758809
 31
0.0
  0
LINE
  5
187
100
AcDbEntity
  8
1
390
0
  6
DOT
 62
     9
100
AcDbLine
 10
181.650459
 20
168.758809
 30
0.0
 11
181.650459
 21
169.258809
 31
0.0
  0
LINE
  5
188
100
AcDbEntity
  8
1
390
0
  6
DOT
 62
     9
100
AcDbLine
 10
275.150459
 20
143.758809
 30
0.0
 11
274.650459
 21
143.758809
 31
0.0
  0
LINE
  5
189
100
AcDbEntity
  8
1
390
0
  6
DOT
 62
     9
100
AcDbLine
 10
274.650459
 20
143.758809
 30
0.0
 11
274.650459
 21
143.258809
 31
0.0
  0
LINE
  5
18A
100
AcDbEntity
  8
1
390
0
  6
DOT
 62
     9
100
AcDbLine
 10
275.150459
 20
168.758809
 30
0.0
 11
274.650459
 21
168.758809
 31
0.0
  0
CIRCLE
  5
18B
100
AcDbEntity
  8
1
390
0
  6
Continuous
 62
     7
100
AcDbCircle
 10
173.650459
 20
143.758809
 30
0.0
 40
2.1
210
0.0
220
0.0
230
1.0
  0
CIRCLE
  5
18C
100
AcDbEntity
  8
1
390
0
  6
Continuous
 62
     7
100
AcDbCircle
 10
173.650459
 20
168.758809
 30
0.0
 40
2.1
210
0.0
220
0.0
230
1.0
  0
LINE
  5
18D
100
AcDbEntity
  8
1
390
0
  6
Continuous
 62
     7
100
AcDbLine
 10
170.650459
 20
173.758809
 30
0.0
 11
183.150459
 21
173.758809
 31
0.0
  0
LINE
  5
18E
100
AcDbEntity
  8
1
390
0
  6
Continuous
 62
     7
100
AcDbLine
 10
273.150459
 20
173.758809
 30
0.0
 11
285.650459
 21
173.758809
 31
0.0
  0
ARC
  5
18F
100
AcDbEntity
  8
1
390
0
  6
Continuous
 62
     7
100
AcDbCircle
 10
285.650459
 20
171.758809
 30
0.0
 40
2.0
210
0.0
220
0.0
230
1.0
100
AcDbArc
 50
0.0
 51
90.0
  0
LINE
  5
190
100
AcDbEntity
  8
1
390
0
  6
Continuous
 62
     7
100
AcDbLine
 10
287.650459
 20
171.758809
 30
0.0
 11
287.650459
 21
140.758809
 31
0.0
  0
ARC
  5
191
100
AcDbEntity
  8
1
390
0
  6
Continuous
 62
     7
100
AcDbCircle
 10
285.650459
 20
140.758809
 30
0.0
 40
2.0
210
0.0
220
0.0
230
1.0
100
AcDbArc
 50
270.0
 51
360.0
  0
LINE
  5
192
100
AcDbEntity
  8
1
390
0
  6
Continuous
 62
     7
100
AcDbLine
 10
285.650459
 20
138.758809
 30
0.0
 11
273.150459
 21
138.758809
 31
0.0
  0
LINE
  5
193
100
AcDbEntity
  8
1
390
0
  6
Continuous
 62
     7
100
AcDbLine
 10
183.150459
 20
138.758809
 30
0.0
 11
170.650459
 21
138.758809
 31
0.0
  0
ARC
  5
194
100
AcDbEntity
  8
1
390
0
  6
Continuous
 62
     7
100
AcDbCircle
 10
170.650459
 20
140.758809
 30
0.0
 40
2.0
210
0.0
220
0.0
230
1.0
100
AcDbArc
 50
180.0
 51
270.0
  0
LINE
  5
195
100
AcDbEntity
  8
1
390
0
  6
Continuous
 62
     7
100
AcDbLine
 10
168.650459
 20
140.758809
 30
0.0
 11
168.650459
 21
171.758809
 31
0.0
  0
ARC
  5
196
100
AcDbEntity
  8
1
390
0
  6
Continuous
 62
     7
100
AcDbCircle
 10
170.650459
 20
171.758809
 30
0.0
 40
2.0
210
0.0
220
0.0
230
1.0
100
AcDbArc
 50
90.0
 51
180.0
  0
CIRCLE
  5
197
100
AcDbEntity
  8
1
390
0
  6
Continuous
 62
     7
100
AcDbCircle
 10
173.650459
 20
156.258809
 30
0.0
 40
2.1
210
0.0
220
0.0
230
1.0
  0
CIRCLE
  5
198
100
AcDbEntity
  8
1
390
0
  6
Continuous
 62
     7
100
AcDbCircle
 10
282.650459
 20
156.258809
 30
0.0
 40
2.1
210
0.0
220
0.0
230
1.0
  0
CIRCLE
  5
199
100
AcDbEntity
  8
1
390
0
  6
Continuous
 62
     7
100
AcDbCircle
 10
282.650459
 20
143.758809
 30
0.0
 40
2.1
210
0.0
220
0.0
230
1.0
  0
CIRCLE
  5
19A
100
AcDbEntity
  8
1
390
0
  6
Continuous
 62
     7
100
AcDbCircle
 10
282.650459
 20
168.758809
 30
0.0
 40
2.1
210
0.0
220
0.0
230
1.0
  0
LINE
  5
19B
100
AcDbEntity
  8
1
390
0
  6
DOT
 62
     9
100
AcDbLine
 10
273.750459
 20
138.958809
 30
0.0
 11
182.550459
 21
138.958809
 31
0.0
  0
LINE
  5
19C
100
AcDbEntity
  8
1
390
0
  6
DOT
 62
     9
100
AcDbLine
 10
182.550459
 20
173.558809
 30
0.0
 11
273.750459
 21
173.558809
 31
0.0
  0
LINE
  5
19D
100
AcDbEntity
  8
1
390
0
  6
DOT
 62
     9
100
AcDbLine
 10
273.950459
 20
173.358809
 30
0.0
 11
273.950459
 21
139.158809
 31
0.0
  0
LINE
  5
19E
100
AcDbEntity
  8
1
390
0
  6
DOT
 62
     9
100
AcDbLine
 10
182.350459
 20
139.158809
 30
0.0
 11
182.350459
 21
173.358809
 31
0.0
  0
LINE
  5
19F
100
AcDbEntity
  8
1
390
0
  6
Continuous
 62
     7
100
AcDbLine
 10
180.954049
 20
147.008809
 30
0.0
 11
182.150459
 21
147.008809
 31
0.0
  0
LINE
  5
1A0
100
AcDbEntity
  8
1
390
0
  6
Continuous
 62
     7
100
AcDbLine
 10
182.150459
 20
165.508809
 30
0.0
 11
180.954049
 21
165.508809
 31
0.0
  0
LINE
  5
1A1
100
AcDbEntity
  8
1
390
0
  6
Continuous
 62
     7
100
AcDbLine
 10
180.854049
 20
165.482014
 30
0.0
 11
178.250459
 21
163.97883
 31
0.0
  0
LINE
  5
1A2
100
AcDbEntity
  8
1
390
0
  6
Continuous
 62
     7
100
AcDbLine
 10
178.250459
 20
148.538787
 30
0.0
 11
180.854049
 21
147.035603
 31
0.0
  0
ARC
  5
1A3
100
AcDbEntity
  8
1
390
0
  6
Continuous
 62
     7
100
AcDbCircle
 10
178.350459
 20
163.805625
 30
0.0
 40
0.2
210
0.0
220
0.0
230
1.0
100
AcDbArc
 50
120.0
 51
180.0
  0
ARC
  5
1A4
100
AcDbEntity
  8
1
390
0
  6
Continuous
 62
     7
100
AcDbCircle
 10
178.350459
 20
148.711992
 30
0.0
 40
0.2
210
0.0
220
0.0
230
1.0
100
AcDbArc
 50
180.0
 51
240.0
  0
ARC
  5
1A5
100
AcDbEntity
  8
1
390
0
  6
Continuous
 62
     7
100
AcDbCircle
 10
177.350459
 20
162.808809
 30
0.0
 40
0.2
210
0.0
220
0.0
230
1.0
100
AcDbArc
 50
90.0
 51
180.0
  0
ARC
  5
1A6
100
AcDbEntity
  8
1
390
0
  6
Continuous
 62
     7
100
AcDbCircle
 10
177.350459
 20
149.708809
 30
0.0
 40
0.2
210
0.0
220
0.0
230
1.0
100
AcDbArc
 50
180.0
 51
270.0
  0
LINE
  5
1A7
100
AcDbEntity
  8
1
390
0
  6
Continuous
 62
     7
100
AcDbLine
 10
177.350459
 20
149.508809
 30
0.0
 11
178.150459
 21
149.508809
 31
0.0
  0
LINE
  5
1A8
100
AcDbEntity
  8
1
390
0
  6
Continuous
 62
     7
100
AcDbLine
 10
178.150459
 20
163.008809
 30
0.0
 11
177.350459
 21
163.008809
 31
0.0
  0
LINE
  5
1A9
100
AcDbEntity
  8
1
390
0
  6
Continuous
 62
     7
100
AcDbLine
 10
234.150459
 20
137.158809
 30
0.0
 11
234.150459
 21
136.358809
 31
0.0
  0
LINE
  5
1AA
100
AcDbEntity
  8
1
390
0
  6
Continuous
 62
     7
100
AcDbLine
 10
242.150459
 20
136.358809
 30
0.0
 11
242.150459
 21
137.158809
 31
0.0
  0
LINE
  5
1AB
100
AcDbEntity
  8
1
390
0
  6
Continuous
 62
     7
100
AcDbLine
 10
214.150459
 20
136.358809
 30
0.0
 11
214.350459
 21
136.158809
 31
0.0
  0
LINE
  5
1AC
100
AcDbEntity
  8
1
390
0
  6
Continuous
 62
     7
100
AcDbLine
 10
221.950459
 20
136.158809
 30
0.0
 11
222.150459
 21
136.358809
 31
0.0
  0
LINE
  5
1AD
100
AcDbEntity
  8
1
390
0
  6
Continuous
 62
     7
100
AcDbLine
 10
214.150459
 20
137.158809
 30
0.0
 11
214.150459
 21
136.358809
 31
0.0
  0
LINE
  5
1AE
100
AcDbEntity
  8
1
390
0
  6
Continuous
 62
     7
100
AcDbLine
 10
222.150459
 20
136.358809
 30
0.0
 11
222.150459
 21
137.158809
 31
0.0
  0
LINE
  5
1AF
100
AcDbEntity
  8
1
390
0
  6
Continuous
 62
     7
100
AcDbLine
 10
200.150459
 20
137.158809
 30
0.0
 11
200.150459
 21
136.358809
 31
0.0
  0
LINE
  5
1B0
100
AcDbEntity
  8
1
390
0
  6
Continuous
 62
     7
100
AcDbLine
 10
208.150459
 20
136.358809
 30
0.0
 11
208.150459
 21
137.158809
 31
0.0
  0
LINE
  5
1B1
100
AcDbEntity
  8
1
390
0
  6
Continuous
 62
     7
100
AcDbLine
 10
200.150459
 20
136.358809
 30
0.0
 11
200.350459
 21
136.158809
 31
0.0
  0
LINE
  5
1B2
100
AcDbEntity
  8
1
390
0
  6
Continuous
 62
     7
100
AcDbLine
 10
207.950459
 20
136.158809
 30
0.0
 11
208.150459
 21
136.358809
 31
0.0
  0
LINE
  5
1B3
100
AcDbEntity
  8
1
390
0
  6
Continuous
 62
     7
100
AcDbLine
 10
234.150459
 20
136.358809
 30
0.0
 11
234.350459
 21
136.158809
 31
0.0
  0
LINE
  5
1B4
100
AcDbEntity
  8
1
390
0
  6
Continuous
 62
     7
100
AcDbLine
 10
241.950459
 20
136.158809
 30
0.0
 11
242.150459
 21
136.358809
 31
0.0
  0
LINE
  5
1B5
100
AcDbEntity
  8
1
390
0
  6
Continuous
 62
     7
100
AcDbLine
 10
248.150459
 20
136.358809
 30
0.0
 11
248.350459
 21
136.158809
 31
0.0
  0
LINE
  5
1B6
100
AcDbEntity
  8
1
390
0
  6
Continuous
 62
     7
100
AcDbLine
 10
255.950459
 20
136.158809
 30
0.0
 11
256.150459
 21
136.358809
 31
0.0
  0
LINE
  5
1B7
100
AcDbEntity
  8
1
390
0
  6
Continuous
 62
     7
100
AcDbLine
 10
248.150459
 20
137.158809
 30
0.0
 11
248.150459
 21
136.358809
 31
0.0
  0
LINE
  5
1B8
100
AcDbEntity
  8
1
390
0
  6
Continuous
 62
     7
100
AcDbLine
 10
256.150459
 20
136.358809
 30
0.0
 11
256.150459
 21
137.158809
 31
0.0
  0
LINE
  5
1B9
100
AcDbEntity
  8
1
390
0
  6
DOT
 62
     9
100
AcDbLine
 10
182.150459
 20
161.258809
 30
0.0
 11
177.150459
 21
161.258809
 31
0.0
  0
LINE
  5
1BA
100
AcDbEntity
  8
1
390
0
  6
DOT
 62
     9
100
AcDbLine
 10
177.150459
 20
151.258809
 30
0.0
 11
182.150459
 21
151.258809
 31
0.0
  0
LINE
  5
1BB
100
AcDbEntity
  8
1
390
0
  6
DOT
 62
     9
100
AcDbLine
 10
240.650459
 20
136.158809
 30
0.0
 11
240.650459
 21
142.158809
 31
0.0
  0
LINE
  5
1BC
100
AcDbEntity
  8
1
390
0
  6
DOT
 62
     9
100
AcDbLine
 10
235.650459
 20
142.158809
 30
0.0
 11
235.650459
 21
136.158809
 31
0.0
  0
LINE
  5
1BD
100
AcDbEntity
  8
1
390
0
  6
DOT
 62
     9
100
AcDbLine
 10
254.650459
 20
136.158809
 30
0.0
 11
254.650459
 21
142.158809
 31
0.0
  0
LINE
  5
1BE
100
AcDbEntity
  8
1
390
0
  6
DOT
 62
     9
100
AcDbLine
 10
249.650459
 20
142.158809
 30
0.0
 11
249.650459
 21
136.158809
 31
0.0
  0
LINE
  5
1BF
100
AcDbEntity
  8
1
390
0
  6
DOT
 62
     9
100
AcDbLine
 10
206.650459
 20
136.158809
 30
0.0
 11
206.650459
 21
142.158809
 31
0.0
  0
LINE
  5
1C0
100
AcDbEntity
  8
1
390
0
  6
DOT
 62
     9
100
AcDbLine
 10
201.650459
 20
142.158809
 30
0.0
 11
201.650459
 21
136.158809
 31
0.0
  0
LINE
  5
1C1
100
AcDbEntity
  8
1
390
0
  6
DOT
 62
     9
100
AcDbLine
 10
220.650459
 20
136.158809
 30
0.0
 11
220.650459
 21
142.158809
 31
0.0
  0
LINE
  5
1C2
100
AcDbEntity
  8
1
390
0
  6
DOT
 62
     9
100
AcDbLine
 10
215.650459
 20
142.158809
 30
0.0
 11
215.650459
 21
136.158809
 31
0.0
  0
LINE
  5
1C3
100
AcDbEntity
  8
1
390
0
  6
DOT
 62
     9
100
AcDbLine
 10
253.650459
 20
137.358809
 30
0.0
 11
253.650459
 21
138.758809
 31
0.0
  0
LINE
  5
1C4
100
AcDbEntity
  8
1
390
0
  6
DOT
 62
     9
100
AcDbLine
 10
253.650459
 20
138.758809
 30
0.0
 11
253.650459
 21
141.258809
 31
0.0
  0
LINE
  5
1C5
100
AcDbEntity
  8
1
390
0
  6
DOT
 62
     9
100
AcDbLine
 10
253.650459
 20
141.258809
 30
0.0
 11
253.650459
 21
142.158809
 31
0.0
  0
LINE
  5
1C6
100
AcDbEntity
  8
1
390
0
  6
DOT
 62
     9
100
AcDbLine
 10
250.650459
 20
142.158809
 30
0.0
 11
250.650459
 21
141.258809
 31
0.0
  0
LINE
  5
1C7
100
AcDbEntity
  8
1
390
0
  6
DOT
 62
     9
100
AcDbLine
 10
250.650459
 20
141.258809
 30
0.0
 11
250.650459
 21
138.758809
 31
0.0
  0
LINE
  5
1C8
100
AcDbEntity
  8
1
390
0
  6
DOT
 62
     9
100
AcDbLine
 10
250.650459
 20
138.758809
 30
0.0
 11
250.650459
 21
137.358809
 31
0.0
  0
LINE
  5
1C9
100
AcDbEntity
  8
1
390
0
  6
DOT
 62
     9
100
AcDbLine
 10
216.650459
 20
137.358809
 30
0.0
 11
216.850459
 21
137.158809
 31
0.0
  0
LINE
  5
1CA
100
AcDbEntity
  8
1
390
0
  6
DOT
 62
     9
100
AcDbLine
 10
219.450459
 20
137.158809
 30
0.0
 11
219.650459
 21
137.358809
 31
0.0
  0
LINE
  5
1CB
100
AcDbEntity
  8
1
390
0
  6
DOT
 62
     9
100
AcDbLine
 10
205.650459
 20
137.358809
 30
0.0
 11
205.650459
 21
138.758809
 31
0.0
  0
LINE
  5
1CC
100
AcDbEntity
  8
1
390
0
  6
DOT
 62
     9
100
AcDbLine
 10
205.650459
 20
138.758809
 30
0.0
 11
205.650459
 21
141.258809
 31
0.0
  0
LINE
  5
1CD
100
AcDbEntity
  8
1
390
0
  6
DOT
 62
     9
100
AcDbLine
 10
205.650459
 20
141.258809
 30
0.0
 11
205.650459
 21
142.158809
 31
0.0
  0
LINE
  5
1CE
100
AcDbEntity
  8
1
390
0
  6
DOT
 62
     9
100
AcDbLine
 10
202.650459
 20
142.158809
 30
0.0
 11
202.650459
 21
141.258809
 31
0.0
  0
LINE
  5
1CF
100
AcDbEntity
  8
1
390
0
  6
DOT
 62
     9
100
AcDbLine
 10
202.650459
 20
141.258809
 30
0.0
 11
202.650459
 21
138.758809
 31
0.0
  0
LINE
  5
1D0
100
AcDbEntity
  8
1
390
0
  6
DOT
 62
     9
100
AcDbLine
 10
202.650459
 20
138.758809
 30
0.0
 11
202.650459
 21
137.358809
 31
0.0
  0
LINE
  5
1D1
100
AcDbEntity
  8
1
390
0
  6
DOT
 62
     9
100
AcDbLine
 10
236.650459
 20
137.358809
 30
0.0
 11
236.850459
 21
137.158809
 31
0.0
  0
LINE
  5
1D2
100
AcDbEntity
  8
1
390
0
  6
DOT
 62
     9
100
AcDbLine
 10
239.450459
 20
137.158809
 30
0.0
 11
239.650459
 21
137.358809
 31
0.0
  0
LINE
  5
1D3
100
AcDbEntity
  8
1
390
0
  6
DOT
 62
     9
100
AcDbLine
 10
202.650459
 20
137.358809
 30
0.0
 11
202.850459
 21
137.158809
 31
0.0
  0
LINE
  5
1D4
100
AcDbEntity
  8
1
390
0
  6
DOT
 62
     9
100
AcDbLine
 10
205.450459
 20
137.158809
 30
0.0
 11
205.650459
 21
137.358809
 31
0.0
  0
LINE
  5
1D5
100
AcDbEntity
  8
1
390
0
  6
DOT
 62
     9
100
AcDbLine
 10
250.650459
 20
137.358809
 30
0.0
 11
250.850459
 21
137.158809
 31
0.0
  0
LINE
  5
1D6
100
AcDbEntity
  8
1
390
0
  6
DOT
 62
     9
100
AcDbLine
 10
253.450459
 20
137.158809
 30
0.0
 11
253.650459
 21
137.358809
 31
0.0
  0
LINE
  5
1D7
100
AcDbEntity
  8
1
390
0
  6
DOT
 62
     9
100
AcDbLine
 10
239.650459
 20
137.358809
 30
0.0
 11
239.650459
 21
138.758809
 31
0.0
  0
LINE
  5
1D8
100
AcDbEntity
  8
1
390
0
  6
DOT
 62
     9
100
AcDbLine
 10
239.650459
 20
138.758809
 30
0.0
 11
239.650459
 21
141.258809
 31
0.0
  0
LINE
  5
1D9
100
AcDbEntity
  8
1
390
0
  6
DOT
 62
     9
100
AcDbLine
 10
239.650459
 20
141.258809
 30
0.0
 11
239.650459
 21
142.158809
 31
0.0
  0
LINE
  5
1DA
100
AcDbEntity
  8
1
390
0
  6
DOT
 62
     9
100
AcDbLine
 10
236.650459
 20
142.158809
 30
0.0
 11
236.650459
 21
141.258809
 31
0.0
  0
LINE
  5
1DB
100
AcDbEntity
  8
1
390
0
  6
DOT
 62
     9
100
AcDbLine
 10
236.650459
 20
141.258809
 30
0.0
 11
236.650459
 21
138.758809
 31
0.0
  0
LINE
  5
1DC
100
AcDbEntity
  8
1
390
0
  6
DOT
 62
     9
100
AcDbLine
 10
236.650459
 20
138.758809
 30
0.0
 11
236.650459
 21
137.358809
 31
0.0
  0
LINE
  5
1DD
100
AcDbEntity
  8
1
390
0
  6
DOT
 62
     9
100
AcDbLine
 10
219.650459
 20
137.358809
 30
0.0
 11
219.650459
 21
138.758809
 31
0.0
  0
LINE
  5
1DE
100
AcDbEntity
  8
1
390
0
  6
DOT
 62
     9
100
AcDbLine
 10
219.650459
 20
138.758809
 30
0.0
 11
219.650459
 21
141.258809
 31
0.0
  0
LINE
  5
1DF
100
AcDbEntity
  8
1
390
0
  6
DOT
 62
     9
100
AcDbLine
 10
219.650459
 20
141.258809
 30
0.0
 11
219.650459
 21
142.158809
 31
0.0
  0
LINE
  5
1E0
100
AcDbEntity
  8
1
390
0
  6
DOT
 62
     9
100
AcDbLine
 10
216.650459
 20
142.158809
 30
0.0
 11
216.650459
 21
141.258809
 31
0.0
  0
LINE
  5
1E1
100
AcDbEntity
  8
1
390
0
  6
DOT
 62
     9
100
AcDbLine
 10
216.650459
 20
141.258809
 30
0.0
 11
216.650459
 21
138.758809
 31
0.0
  0
LINE
  5
1E2
100
AcDbEntity
  8
1
390
0
  6
DOT
 62
     9
100
AcDbLine
 10
216.650459
 20
138.758809
 30
0.0
 11
216.650459
 21
137.358809
 31
0.0
  0
LINE
  5
1E3
100
AcDbEntity
  8
1
390
0
  6
DOT
 62
     9
100
AcDbLine
 10
178.350459
 20
153.258809
 30
0.0
 11
182.150459
 21
153.258809
 31
0.0
  0
LINE
  5
1E4
100
AcDbEntity
  8
1
390
0
  6
DOT
 62
     9
100
AcDbLine
 10
182.150459
 20
159.258809
 30
0.0
 11
178.350459
 21
159.258809
 31
0.0
  0
LINE
  5
1E5
100
AcDbEntity
  8
1
390
0
  6
DOT
 62
     9
100
AcDbLine
 10
178.350459
 20
159.258809
 30
0.0
 11
178.150459
 21
159.058809
 31
0.0
  0
LINE
  5
1E6
100
AcDbEntity
  8
1
390
0
  6
DOT
 62
     9
100
AcDbLine
 10
178.150459
 20
153.458809
 30
0.0
 11
178.350459
 21
153.258809
 31
0.0
  0
LINE
  5
1E7
100
AcDbEntity
  8
1
390
0
  6
Continuous
 62
     7
100
AcDbLine
 10
262.900459
 20
137.158809
 30
0.0
 11
262.974584
 21
136.31156
 31
0.0
  0
LINE
  5
1E8
100
AcDbEntity
  8
1
390
0
  6
Continuous
 62
     7
100
AcDbLine
 10
268.326335
 20
136.31156
 30
0.0
 11
268.400459
 21
137.158809
 31
0.0
  0
LINE
  5
1E9
100
AcDbEntity
  8
1
390
0
  6
Continuous
 62
     7
100
AcDbLine
 10
187.900459
 20
137.158809
 30
0.0
 11
187.974584
 21
136.31156
 31
0.0
  0
LINE
  5
1EA
100
AcDbEntity
  8
1
390
0
  6
Continuous
 62
     7
100
AcDbLine
 10
193.326335
 20
136.31156
 30
0.0
 11
193.400459
 21
137.158809
 31
0.0
  0
ARC
  5
1EB
100
AcDbEntity
  8
1
390
0
  6
Continuous
 62
     7
100
AcDbCircle
 10
263.970779
 20
136.398715
 30
0.0
 40
1.0
210
0.0
220
0.0
230
1.0
100
AcDbArc
 50
185.0
 51
253.742972
  0
ARC
  5
1EC
100
AcDbEntity
  8
1
390
0
  6
Continuous
 62
     7
100
AcDbCircle
 10
267.33014
 20
136.398715
 30
0.0
 40
1.0
210
0.0
220
0.0
230
1.0
100
AcDbArc
 50
286.257028
 51
355.0
  0
ARC
  5
1ED
100
AcDbEntity
  8
1
390
0
  6
Continuous
 62
     7
100
AcDbCircle
 10
188.970779
 20
136.398715
 30
0.0
 40
1.0
210
0.0
220
0.0
230
1.0
100
AcDbArc
 50
185.0
 51
253.742972
  0
ARC
  5
1EE
100
AcDbEntity
  8
1
390
0
  6
Continuous
 62
     7
100
AcDbCircle
 10
192.33014
 20
136.398715
 30
0.0
 40
1.0
210
0.0
220
0.0
230
1.0
100
AcDbArc
 50
286.257028
 51
355.0
  0
LINE
  5
1EF
100
AcDbEntity
  8
1
390
0
  6
DOT
 62
     9
100
AcDbLine
 10
178.150459
 20
156.454097
 30
0.0
 11
182.150459
 21
156.454097
 31
0.0
  0
LINE
  5
1F0
100
AcDbEntity
  8
1
390
0
  6
DOT
 62
     9
100
AcDbLine
 10
182.150459
 20
157.454097
 30
0.0
 11
178.150459
 21
157.454097
 31
0.0
  0
LINE
  5
1F1
100
AcDbEntity
  8
1
390
0
  6
DOT
 62
     9
100
AcDbLine
 10
178.150459
 20
155.06352
 30
0.0
 11
182.150459
 21
155.06352
 31
0.0
  0
LINE
  5
1F2
100
AcDbEntity
  8
1
390
0
  6
DOT
 62
     9
100
AcDbLine
 10
182.150459
 20
156.06352
 30
0.0
 11
178.150459
 21
156.06352
 31
0.0
  0
LINE
  5
1F3
100
AcDbEntity
  8
1
390
0
  6
DOT
 62
     9
100
AcDbLine
 10
203.757639
 20
137.158809
 30
0.0
 11
203.757639
 21
142.158809
 31
0.0
  0
LINE
  5
1F4
100
AcDbEntity
  8
1
390
0
  6
DOT
 62
     9
100
AcDbLine
 10
203.157639
 20
142.158809
 30
0.0
 11
203.157639
 21
137.158809
 31
0.0
  0
LINE
  5
1F5
100
AcDbEntity
  8
1
390
0
  6
DOT
 62
     9
100
AcDbLine
 10
217.757639
 20
137.158809
 30
0.0
 11
217.757639
 21
142.158809
 31
0.0
  0
LINE
  5
1F6
100
AcDbEntity
  8
1
390
0
  6
DOT
 62
     9
100
AcDbLine
 10
217.157639
 20
142.158809
 30
0.0
 11
217.157639
 21
137.158809
 31
0.0
  0
LINE
  5
1F7
100
AcDbEntity
  8
1
390
0
  6
DOT
 62
     9
100
AcDbLine
 10
237.757639
 20
137.158809
 30
0.0
 11
237.757639
 21
142.158809
 31
0.0
  0
LINE
  5
1F8
100
AcDbEntity
  8
1
390
0
  6
DOT
 62
     9
100
AcDbLine
 10
237.157639
 20
142.158809
 30
0.0
 11
237.157639
 21
137.158809
 31
0.0
  0
LINE
  5
1F9
100
AcDbEntity
  8
1
390
0
  6
DOT
 62
     9
100
AcDbLine
 10
251.757639
 20
137.158809
 30
0.0
 11
251.757639
 21
142.158809
 31
0.0
  0
LINE
  5
1FA
100
AcDbEntity
  8
1
390
0
  6
DOT
 62
     9
100
AcDbLine
 10
251.157639
 20
142.158809
 30
0.0
 11
251.157639
 21
137.158809
 31
0.0
  0
LINE
  5
1FB
100
AcDbEntity
  8
1
390
0
  6
DOT
 62
     9
100
AcDbLine
 10
205.14328
 20
137.158809
 30
0.0
 11
205.14328
 21
142.158809
 31
0.0
  0
LINE
  5
1FC
100
AcDbEntity
  8
1
390
0
  6
DOT
 62
     9
100
AcDbLine
 10
204.54328
 20
142.158809
 30
0.0
 11
204.54328
 21
137.158809
 31
0.0
  0
LINE
  5
1FD
100
AcDbEntity
  8
1
390
0
  6
DOT
 62
     9
100
AcDbLine
 10
239.14328
 20
137.158809
 30
0.0
 11
239.14328
 21
142.158809
 31
0.0
  0
LINE
  5
1FE
100
AcDbEntity
  8
1
390
0
  6
DOT
 62
     9
100
AcDbLine
 10
238.54328
 20
142.158809
 30
0.0
 11
238.54328
 21
137.158809
 31
0.0
  0
LINE
  5
1FF
100
AcDbEntity
  8
1
390
0
  6
DOT
 62
     9
100
AcDbLine
 10
253.14328
 20
137.158809
 30
0.0
 11
253.14328
 21
142.158809
 31
0.0
  0
LINE
  5
200
100
AcDbEntity
  8
1
390
0
  6
DOT
 62
     9
100
AcDbLine
 10
252.54328
 20
142.158809
 30
0.0
 11
252.54328
 21
137.158809
 31
0.0
  0
LINE
  5
201
100
AcDbEntity
  8
1
390
0
  6
DOT
 62
     9
100
AcDbLine
 10
219.14328
 20
137.158809
 30
0.0
 11
219.14328
 21
142.158809
 31
0.0
  0
LINE
  5
202
100
AcDbEntity
  8
1
390
0
  6
DOT
 62
     9
100
AcDbLine
 10
218.54328
 20
142.158809
 30
0.0
 11
218.54328
 21
137.158809
 31
0.0
  0
LINE
  5
203
100
AcDbEntity
  8
1
390
0
  6
DOT
 62
     9
100
AcDbLine
 10
178.150459
 20
157.579097
 30
0.0
 11
182.150459
 21
157.579097
 31
0.0
  0
LINE
  5
204
100
AcDbEntity
  8
1
390
0
  6
DOT
 62
     9
100
AcDbLine
 10
182.150459
 20
158.579097
 30
0.0
 11
178.150459
 21
158.579097
 31
0.0
  0
LINE
  5
205
100
AcDbEntity
  8
1
390
0
  6
DOT
 62
     9
100
AcDbLine
 10
178.150459
 20
153.93852
 30
0.0
 11
182.150459
 21
153.93852
 31
0.0
  0
LINE
  5
206
100
AcDbEntity
  8
1
390
0
  6
DOT
 62
     9
100
AcDbLine
 10
182.150459
 20
154.93852
 30
0.0
 11
178.150459
 21
154.93852
 31
0.0
  0
LINE
  5
207
100
AcDbEntity
  8
1
390
0
  6
DOT
 62
     9
100
AcDbLine
 10
178.150459
 20
155.758809
 30
0.0
 11
182.150459
 21
155.758809
 31
0.0
  0
LINE
  5
208
100
AcDbEntity
  8
1
390
0
  6
DOT
 62
     9
100
AcDbLine
 10
182.150459
 20
156.758809
 30
0.0
 11
178.150459
 21
156.758809
 31
0.0
  0
LINE
  5
209
100
AcDbEntity
  8
1
390
0
  6
DOT
 62
     9
100
AcDbLine
 10
178.150459
 20
154.758809
 30
0.0
 11
182.150459
 21
154.758809
 31
0.0
  0
LINE
  5
20A
100
AcDbEntity
  8
1
390
0
  6
DOT
 62
     9
100
AcDbLine
 10
178.150459
 20
158.008809
 30
0.0
 11
182.150459
 21
158.008809
 31
0.0
  0
LINE
  5
20B
100
AcDbEntity
  8
1
390
0
  6
DOT
 62
     9
100
AcDbLine
 10
182.150459
 20
159.008809
 30
0.0
 11
178.150459
 21
159.008809
 31
0.0
  0
LINE
  5
20C
100
AcDbEntity
  8
1
390
0
  6
DOT
 62
     9
100
AcDbLine
 10
182.150459
 20
157.758809
 30
0.0
 11
178.150459
 21
157.758809
 31
0.0
  0
LINE
  5
20D
100
AcDbEntity
  8
1
390
0
  6
DOT
 62
     9
100
AcDbLine
 10
178.150459
 20
153.508809
 30
0.0
 11
182.150459
 21
153.508809
 31
0.0
  0
LINE
  5
20E
100
AcDbEntity
  8
1
390
0
  6
DOT
 62
     9
100
AcDbLine
 10
182.150459
 20
154.508809
 30
0.0
 11
178.150459
 21
154.508809
 31
0.0
  0
LINE
  5
20F
100
AcDbEntity
  8
1
390
0
  6
Continuous
 62
     7
100
AcDbLine
 10
208.400459
 20
137.158809
 30
0.0
 11
208.474584
 21
136.31156
 31
0.0
  0
LINE
  5
210
100
AcDbEntity
  8
1
390
0
  6
Continuous
 62
     7
100
AcDbLine
 10
213.826335
 20
136.31156
 30
0.0
 11
213.900459
 21
137.158809
 31
0.0
  0
LINE
  5
211
100
AcDbEntity
  8
1
390
0
  6
Continuous
 62
     7
100
AcDbLine
 10
242.400459
 20
137.158809
 30
0.0
 11
242.474584
 21
136.31156
 31
0.0
  0
LINE
  5
212
100
AcDbEntity
  8
1
390
0
  6
Continuous
 62
     7
100
AcDbLine
 10
247.826335
 20
136.31156
 30
0.0
 11
247.900459
 21
137.158809
 31
0.0
  0
ARC
  5
213
100
AcDbEntity
  8
1
390
0
  6
Continuous
 62
     7
100
AcDbCircle
 10
209.470779
 20
136.398715
 30
0.0
 40
1.0
210
0.0
220
0.0
230
1.0
100
AcDbArc
 50
185.0
 51
253.742972
  0
ARC
  5
214
100
AcDbEntity
  8
1
390
0
  6
Continuous
 62
     7
100
AcDbCircle
 10
212.83014
 20
136.398715
 30
0.0
 40
1.0
210
0.0
220
0.0
230
1.0
100
AcDbArc
 50
286.257028
 51
355.0
  0
ARC
  5
215
100
AcDbEntity
  8
1
390
0
  6
Continuous
 62
     7
100
AcDbCircle
 10
243.470779
 20
136.398715
 30
0.0
 40
1.0
210
0.0
220
0.0
230
1.0
100
AcDbArc
 50
185.0
 51
253.742972
  0
ARC
  5
216
100
AcDbEntity
  8
1
390
0
  6
Continuous
 62
     7
100
AcDbCircle
 10
246.83014
 20
136.398715
 30
0.0
 40
1.0
210
0.0
220
0.0
230
1.0
100
AcDbArc
 50
286.257028
 51
355.0
  0
LINE
  5
217
100
AcDbEntity
  8
1
390
0
  6
Continuous
 62
     7
100
AcDbLine
 10
274.350459
 20
140.758809
 30
0.0
 11
275.150459
 21
141.558809
 31
0.0
  0
LINE
  5
218
100
AcDbEntity
  8
1
390
0
  6
Continuous
 62
     7
100
AcDbLine
 10
275.150459
 20
143.958809
 30
0.0
 11
274.350459
 21
144.758809
 31
0.0
  0
LINE
  5
219
100
AcDbEntity
  8
1
390
0
  6
Continuous
 62
     7
100
AcDbLine
 10
181.950459
 20
144.758809
 30
0.0
 11
181.150459
 21
143.958809
 31
0.0
  0
LINE
  5
21A
100
AcDbEntity
  8
1
390
0
  6
Continuous
 62
     7
100
AcDbLine
 10
181.150459
 20
141.558809
 30
0.0
 11
181.950459
 21
140.758809
 31
0.0
  0
LINE
  5
21B
100
AcDbEntity
  8
1
390
0
  6
Continuous
 62
     7
100
AcDbLine
 10
274.150459
 20
140.758809
 30
0.0
 11
274.350459
 21
140.758809
 31
0.0
  0
LINE
  5
21C
100
AcDbEntity
  8
1
390
0
  6
Continuous
 62
     7
100
AcDbLine
 10
274.350459
 20
144.758809
 30
0.0
 11
274.150459
 21
144.758809
 31
0.0
  0
LINE
  5
21D
100
AcDbEntity
  8
1
390
0
  6
Continuous
 62
     7
100
AcDbLine
 10
182.150459
 20
144.758809
 30
0.0
 11
181.950459
 21
144.758809
 31
0.0
  0
LINE
  5
21E
100
AcDbEntity
  8
1
390
0
  6
Continuous
 62
     7
100
AcDbLine
 10
181.950459
 20
140.758809
 30
0.0
 11
182.150459
 21
140.758809
 31
0.0
  0
LINE
  5
21F
100
AcDbEntity
  8
1
390
0
  6
Continuous
 62
     7
100
AcDbLine
 10
182.150459
 20
171.758809
 30
0.0
 11
181.950459
 21
171.758809
 31
0.0
  0
LINE
  5
220
100
AcDbEntity
  8
1
390
0
  6
Continuous
 62
     7
100
AcDbLine
 10
181.950459
 20
167.758809
 30
0.0
 11
182.150459
 21
167.758809
 31
0.0
  0
LINE
  5
221
100
AcDbEntity
  8
1
390
0
  6
Continuous
 62
     7
100
AcDbLine
 10
274.350459
 20
167.758809
 30
0.0
 11
275.150459
 21
168.558809
 31
0.0
  0
LINE
  5
222
100
AcDbEntity
  8
1
390
0
  6
Continuous
 62
     7
100
AcDbLine
 10
275.150459
 20
170.958809
 30
0.0
 11
274.350459
 21
171.758809
 31
0.0
  0
LINE
  5
223
100
AcDbEntity
  8
1
390
0
  6
Continuous
 62
     7
100
AcDbLine
 10
274.150459
 20
167.758809
 30
0.0
 11
274.350459
 21
167.758809
 31
0.0
  0
LINE
  5
224
100
AcDbEntity
  8
1
390
0
  6
Continuous
 62
     7
100
AcDbLine
 10
274.350459
 20
171.758809
 30
0.0
 11
274.150459
 21
171.758809
 31
0.0
  0
LINE
  5
225
100
AcDbEntity
  8
1
390
0
  6
Continuous
 62
     7
100
AcDbLine
 10
181.950459
 20
171.758809
 30
0.0
 11
181.150459
 21
170.958809
 31
0.0
  0
LINE
  5
226
100
AcDbEntity
  8
1
390
0
  6
Continuous
 62
     7
100
AcDbLine
 10
181.150459
 20
168.558809
 30
0.0
 11
181.950459
 21
167.758809
 31
0.0
  0
LINE
  5
227
100
AcDbEntity
  8
1
390
0
  6
Continuous
 62
     7
100
AcDbLine
 10
168.650459
 20
244.790527
 30
0.0
 11
168.650459
 21
243.290527
 31
0.0
  0
LINE
  5
228
100
AcDbEntity
  8
1
390
0
  6
Continuous
 62
     7
100
AcDbLine
 10
168.650459
 20
243.290527
 30
0.0
 11
170.650459
 21
243.290527
 31
0.0
  0
LINE
  5
229
100
AcDbEntity
  8
1
390
0
  6
Continuous
 62
     7
100
AcDbLine
 10
168.650459
 20
244.790527
 30
0.0
 11
170.650459
 21
244.790527
 31
0.0
  0
LINE
  5
22A
100
AcDbEntity
  8
1
390
0
  6
Continuous
 62
     7
100
AcDbLine
 10
287.650459
 20
244.790527
 30
0.0
 11
287.650459
 21
243.290527
 31
0.0
  0
LINE
  5
22B
100
AcDbEntity
  8
1
390
0
  6
Continuous
 62
     7
100
AcDbLine
 10
285.650459
 20
243.290527
 30
0.0
 11
287.650459
 21
243.290527
 31
0.0
  0
LINE
  5
22C
100
AcDbEntity
  8
1
390
0
  6
Continuous
 62
     7
100
AcDbLine
 10
285.650459
 20
244.790527
 30
0.0
 11
287.650459
 21
244.790527
 31
0.0
  0
LINE
  5
22D
100
AcDbEntity
  8
1
390
0
  6
Continuous
 62
     7
100
AcDbLine
 10
170.650459
 20
243.290527
 30
0.0
 11
285.650459
 21
243.290527
 31
0.0
  0
LINE
  5
22E
100
AcDbEntity
  8
1
390
0
  6
Continuous
 62
     7
100
AcDbLine
 10
170.650459
 20
244.790527
 30
0.0
 11
285.650459
 21
244.790527
 31
0.0
  0
LINE
  5
22F
100
AcDbEntity
  8
1
390
0
  6
Continuous
 62
     7
100
AcDbLine
 10
273.150459
 20
243.090527
 30
0.0
 11
183.150459
 21
243.090527
 31
0.0
  0
LINE
  5
230
100
AcDbEntity
  8
1
390
0
  6
Continuous
 62
     7
100
AcDbLine
 10
273.150459
 20
219.290527
 30
0.0
 11
183.150459
 21
219.290527
 31
0.0
  0
ARC
  5
231
100
AcDbEntity
  8
1
390
0
  6
Continuous
 62
     7
100
AcDbCircle
 10
183.150459
 20
244.090527
 30
0.0
 40
1.0
210
0.0
220
0.0
230
1.0
100
AcDbArc
 50
233.130102
 51
270.0
  0
ARC
  5
232
100
AcDbEntity
  8
1
390
0
  6
Continuous
 62
     7
100
AcDbCircle
 10
273.150459
 20
244.090527
 30
0.0
 40
1.0
210
0.0
220
0.0
230
1.0
100
AcDbArc
 50
270.0
 51
306.869898
  0
ARC
  5
233
100
AcDbEntity
  8
1
390
0
  6
Continuous
 62
     7
100
AcDbCircle
 10
183.150459
 20
220.290527
 30
0.0
 40
1.0
210
0.0
220
0.0
230
1.0
100
AcDbArc
 50
180.0
 51
270.0
  0
LINE
  5
234
100
AcDbEntity
  8
1
390
0
  6
Continuous
 62
     7
100
AcDbLine
 10
182.150459
 20
220.290527
 30
0.0
 11
182.150459
 21
243.090527
 31
0.0
  0
LINE
  5
235
100
AcDbEntity
  8
1
390
0
  6
Continuous
 62
     7
100
AcDbLine
 10
182.150459
 20
243.090527
 30
0.0
 11
182.350459
 21
243.290527
 31
0.0
  0
LINE
  5
236
100
AcDbEntity
  8
1
390
0
  6
Continuous
 62
     7
100
AcDbLine
 10
273.950459
 20
243.290527
 30
0.0
 11
274.150459
 21
243.090527
 31
0.0
  0
LINE
  5
237
100
AcDbEntity
  8
1
390
0
  6
Continuous
 62
     7
100
AcDbLine
 10
274.150459
 20
243.090527
 30
0.0
 11
274.150459
 21
220.290527
 31
0.0
  0
ARC
  5
238
100
AcDbEntity
  8
1
390
0
  6
Continuous
 62
     7
100
AcDbCircle
 10
273.150459
 20
220.290527
 30
0.0
 40
1.0
210
0.0
220
0.0
230
1.0
100
AcDbArc
 50
270.0
 51
360.0
  0
LINE
  5
239
100
AcDbEntity
  8
1
390
0
  6
Continuous
 62
     7
100
AcDbLine
 10
275.150459
 20
238.490527
 30
0.0
 11
275.150459
 21
236.090527
 31
0.0
  0
LINE
  5
23A
100
AcDbEntity
  8
1
390
0
  6
Continuous
 62
     7
100
AcDbLine
 10
274.350459
 20
239.290527
 30
0.0
 11
274.350459
 21
235.290527
 31
0.0
  0
LINE
  5
23B
100
AcDbEntity
  8
1
390
0
  6
Continuous
 62
     7
100
AcDbLine
 10
181.950459
 20
239.290527
 30
0.0
 11
181.950459
 21
235.290527
 31
0.0
  0
LINE
  5
23C
100
AcDbEntity
  8
1
390
0
  6
Continuous
 62
     7
100
AcDbLine
 10
181.150459
 20
238.490527
 30
0.0
 11
181.150459
 21
236.090527
 31
0.0
  0
LINE
  5
23D
100
AcDbEntity
  8
1
390
0
  6
Continuous
 62
     7
100
AcDbLine
 10
270.650459
 20
219.190527
 30
0.0
 11
270.650459
 21
219.290527
 31
0.0
  0
LINE
  5
23E
100
AcDbEntity
  8
1
390
0
  6
Continuous
 62
     7
100
AcDbLine
 10
185.650459
 20
219.190527
 30
0.0
 11
270.650459
 21
219.190527
 31
0.0
  0
LINE
  5
23F
100
AcDbEntity
  8
1
390
0
  6
Continuous
 62
     7
100
AcDbLine
 10
185.650459
 20
219.190527
 30
0.0
 11
185.650459
 21
219.290527
 31
0.0
  0
LINE
  5
240
100
AcDbEntity
  8
1
390
0
  6
DOT
 62
     9
100
AcDbLine
 10
274.650459
 20
236.990527
 30
0.0
 11
274.650459
 21
237.590527
 31
0.0
  0
LINE
  5
241
100
AcDbEntity
  8
1
390
0
  6
DOT
 62
     9
100
AcDbLine
 10
275.150459
 20
237.590527
 30
0.0
 11
274.650459
 21
237.590527
 31
0.0
  0
LINE
  5
242
100
AcDbEntity
  8
1
390
0
  6
DOT
 62
     9
100
AcDbLine
 10
181.150459
 20
236.990527
 30
0.0
 11
181.650459
 21
236.990527
 31
0.0
  0
LINE
  5
243
100
AcDbEntity
  8
1
390
0
  6
DOT
 62
     9
100
AcDbLine
 10
181.650459
 20
236.990527
 30
0.0
 11
181.650459
 21
237.590527
 31
0.0
  0
LINE
  5
244
100
AcDbEntity
  8
1
390
0
  6
DOT
 62
     9
100
AcDbLine
 10
181.150459
 20
237.590527
 30
0.0
 11
181.650459
 21
237.590527
 31
0.0
  0
LINE
  5
245
100
AcDbEntity
  8
1
390
0
  6
DOT
 62
     9
100
AcDbLine
 10
275.150459
 20
236.990527
 30
0.0
 11
274.650459
 21
236.990527
 31
0.0
  0
LINE
  5
246
100
AcDbEntity
  8
1
390
0
  6
DOT
 62
     9
100
AcDbLine
 10
274.650459
 20
237.790527
 30
0.0
 11
274.650459
 21
237.590527
 31
0.0
  0
LINE
  5
247
100
AcDbEntity
  8
1
390
0
  6
DOT
 62
     9
100
AcDbLine
 10
181.650459
 20
236.990527
 30
0.0
 11
181.650459
 21
236.790527
 31
0.0
  0
LINE
  5
248
100
AcDbEntity
  8
1
390
0
  6
DOT
 62
     9
100
AcDbLine
 10
181.650459
 20
237.790527
 30
0.0
 11
181.650459
 21
237.590527
 31
0.0
  0
LINE
  5
249
100
AcDbEntity
  8
1
390
0
  6
DOT
 62
     9
100
AcDbLine
 10
274.650459
 20
236.990527
 30
0.0
 11
274.650459
 21
236.790527
 31
0.0
  0
LINE
  5
24A
100
AcDbEntity
  8
1
390
0
  6
DOT
 62
     9
100
AcDbLine
 10
181.650459
 20
237.790527
 30
0.0
 11
181.650459
 21
238.290527
 31
0.0
  0
LINE
  5
24B
100
AcDbEntity
  8
1
390
0
  6
DOT
 62
     9
100
AcDbLine
 10
275.150459
 20
238.290527
 30
0.0
 11
274.650459
 21
238.290527
 31
0.0
  0
LINE
  5
24C
100
AcDbEntity
  8
1
390
0
  6
DOT
 62
     9
100
AcDbLine
 10
274.650459
 20
237.790527
 30
0.0
 11
274.650459
 21
238.290527
 31
0.0
  0
LINE
  5
24D
100
AcDbEntity
  8
1
390
0
  6
DOT
 62
     9
100
AcDbLine
 10
275.150459
 20
236.290527
 30
0.0
 11
274.650459
 21
236.290527
 31
0.0
  0
LINE
  5
24E
100
AcDbEntity
  8
1
390
0
  6
DOT
 62
     9
100
AcDbLine
 10
274.650459
 20
236.290527
 30
0.0
 11
274.650459
 21
236.790527
 31
0.0
  0
LINE
  5
24F
100
AcDbEntity
  8
1
390
0
  6
DOT
 62
     9
100
AcDbLine
 10
181.650459
 20
236.290527
 30
0.0
 11
181.650459
 21
236.790527
 31
0.0
  0
LINE
  5
250
100
AcDbEntity
  8
1
390
0
  6
DOT
 62
     9
100
AcDbLine
 10
181.150459
 20
236.290527
 30
0.0
 11
181.650459
 21
236.290527
 31
0.0
  0
LINE
  5
251
100
AcDbEntity
  8
1
390
0
  6
DOT
 62
     9
100
AcDbLine
 10
181.150459
 20
238.290527
 30
0.0
 11
181.650459
 21
238.290527
 31
0.0
  0
LINE
  5
252
100
AcDbEntity
  8
1
390
0
  6
Continuous
 62
     7
100
AcDbLine
 10
178.150459
 20
223.74371
 30
0.0
 11
178.150459
 21
238.837344
 31
0.0
  0
LINE
  5
253
100
AcDbEntity
  8
1
390
0
  6
Continuous
 62
     7
100
AcDbLine
 10
177.150459
 20
224.740527
 30
0.0
 11
177.150459
 21
237.840527
 31
0.0
  0
LINE
  5
254
100
AcDbEntity
  8
1
390
0
  6
DOT
 62
     9
100
AcDbLine
 10
177.150459
 20
226.449298
 30
0.0
 11
182.150459
 21
226.449298
 31
0.0
  0
LINE
  5
255
100
AcDbEntity
  8
1
390
0
  6
DOT
 62
     9
100
AcDbLine
 10
177.150459
 20
226.449298
 30
0.0
 11
178.150459
 21
226.449298
 31
0.0
  0
LINE
  5
256
100
AcDbEntity
  8
1
390
0
  6
DOT
 62
     9
100
AcDbLine
 10
178.150459
 20
226.449298
 30
0.0
 11
182.150459
 21
226.449298
 31
0.0
  0
LINE
  5
257
100
AcDbEntity
  8
1
390
0
  6
DOT
 62
     9
100
AcDbLine
 10
178.350459
 20
234.290527
 30
0.0
 11
178.350459
 21
228.290527
 31
0.0
  0
LINE
  5
258
100
AcDbEntity
  8
1
390
0
  6
DOT
 62
     9
100
AcDbLine
 10
177.150459
 20
225.290527
 30
0.0
 11
182.150459
 21
225.290527
 31
0.0
  0
ARC
  5
259
100
AcDbEntity
  8
1
390
0
  6
DOT
 62
     9
100
AcDbCircle
 10
218.150459
 20
229.290527
 30
0.0
 40
2.75
210
0.0
220
0.0
230
1.0
100
AcDbArc
 50
263.737087
 51
276.262913
  0
ARC
  5
25A
100
AcDbEntity
  8
1
390
0
  6
DOT
 62
     9
100
AcDbCircle
 10
238.150459
 20
229.290527
 30
0.0
 40
2.75
210
0.0
220
0.0
230
1.0
100
AcDbArc
 50
263.737087
 51
276.262913
  0
ARC
  5
25B
100
AcDbEntity
  8
1
390
0
  6
DOT
 62
     9
100
AcDbCircle
 10
204.150459
 20
229.290527
 30
0.0
 40
2.75
210
0.0
220
0.0
230
1.0
100
AcDbArc
 50
263.737087
 51
276.262913
  0
LINE
  5
25C
100
AcDbEntity
  8
1
390
0
  6
DOT
 62
     9
100
AcDbLine
 10
204.450459
 20
226.55694
 30
0.0
 11
204.450459
 21
226.808592
 31
0.0
  0
LINE
  5
25D
100
AcDbEntity
  8
1
390
0
  6
DOT
 62
     9
100
AcDbLine
 10
252.450459
 20
226.55694
 30
0.0
 11
252.450459
 21
226.808592
 31
0.0
  0
LINE
  5
25E
100
AcDbEntity
  8
1
390
0
  6
DOT
 62
     9
100
AcDbLine
 10
218.450459
 20
226.55694
 30
0.0
 11
218.450459
 21
226.808592
 31
0.0
  0
LINE
  5
25F
100
AcDbEntity
  8
1
390
0
  6
DOT
 62
     9
100
AcDbLine
 10
238.450459
 20
226.55694
 30
0.0
 11
238.450459
 21
226.808592
 31
0.0
  0
ARC
  5
260
100
AcDbEntity
  8
1
390
0
  6
DOT
 62
     9
100
AcDbCircle
 10
252.150459
 20
229.290527
 30
0.0
 40
2.75
210
0.0
220
0.0
230
1.0
100
AcDbArc
 50
263.737087
 51
276.262913
  0
ARC
  5
261
100
AcDbEntity
  8
1
390
0
  6
DOT
 62
     9
100
AcDbCircle
 10
218.150459
 20
229.290527
 30
0.0
 40
2.5
210
0.0
220
0.0
230
1.0
100
AcDbArc
 50
276.892103
 51
263.107897
  0
ARC
  5
262
100
AcDbEntity
  8
1
390
0
  6
DOT
 62
     9
100
AcDbCircle
 10
204.150459
 20
229.290527
 30
0.0
 40
2.5
210
0.0
220
0.0
230
1.0
100
AcDbArc
 50
276.892103
 51
263.107897
  0
ARC
  5
263
100
AcDbEntity
  8
1
390
0
  6
DOT
 62
     9
100
AcDbCircle
 10
238.150459
 20
229.290527
 30
0.0
 40
2.5
210
0.0
220
0.0
230
1.0
100
AcDbArc
 50
276.892103
 51
263.107897
  0
CIRCLE
  5
264
100
AcDbEntity
  8
1
390
0
  6
DOT
 62
     9
100
AcDbCircle
 10
218.150459
 20
229.290527
 30
0.0
 40
1.5
210
0.0
220
0.0
230
1.0
  0
CIRCLE
  5
265
100
AcDbEntity
  8
1
390
0
  6
DOT
 62
     9
100
AcDbCircle
 10
252.150459
 20
229.290527
 30
0.0
 40
1.5
210
0.0
220
0.0
230
1.0
  0
CIRCLE
  5
266
100
AcDbEntity
  8
1
390
0
  6
DOT
 62
     9
100
AcDbCircle
 10
238.150459
 20
229.290527
 30
0.0
 40
1.5
210
0.0
220
0.0
230
1.0
  0
ARC
  5
267
100
AcDbEntity
  8
1
390
0
  6
DOT
 62
     9
100
AcDbCircle
 10
252.150459
 20
229.290527
 30
0.0
 40
2.5
210
0.0
220
0.0
230
1.0
100
AcDbArc
 50
276.892103
 51
263.107897
  0
CIRCLE
  5
268
100
AcDbEntity
  8
1
390
0
  6
DOT
 62
     9
100
AcDbCircle
 10
204.150459
 20
229.290527
 30
0.0
 40
1.5
210
0.0
220
0.0
230
1.0
  0
CIRCLE
  5
269
100
AcDbEntity
  8
1
390
0
  6
DOT
 62
     9
100
AcDbCircle
 10
237.457639
 20
229.690527
 30
0.0
 40
0.3
210
0.0
220
0.0
230
1.0
  0
CIRCLE
  5
26A
100
AcDbEntity
  8
1
390
0
  6
DOT
 62
     9
100
AcDbCircle
 10
238.84328
 20
229.690527
 30
0.0
 40
0.3
210
0.0
220
0.0
230
1.0
  0
CIRCLE
  5
26B
100
AcDbEntity
  8
1
390
0
  6
DOT
 62
     9
100
AcDbCircle
 10
252.84328
 20
229.690527
 30
0.0
 40
0.3
210
0.0
220
0.0
230
1.0
  0
CIRCLE
  5
26C
100
AcDbEntity
  8
1
390
0
  6
DOT
 62
     9
100
AcDbCircle
 10
217.457639
 20
229.690527
 30
0.0
 40
0.3
210
0.0
220
0.0
230
1.0
  0
CIRCLE
  5
26D
100
AcDbEntity
  8
1
390
0
  6
DOT
 62
     9
100
AcDbCircle
 10
252.150459
 20
228.490527
 30
0.0
 40
0.3
210
0.0
220
0.0
230
1.0
  0
CIRCLE
  5
26E
100
AcDbEntity
  8
1
390
0
  6
DOT
 62
     9
100
AcDbCircle
 10
218.84328
 20
229.690527
 30
0.0
 40
0.3
210
0.0
220
0.0
230
1.0
  0
LINE
  5
26F
100
AcDbEntity
  8
1
390
0
  6
DOT
 62
     9
100
AcDbLine
 10
237.850459
 20
226.808592
 30
0.0
 11
237.850459
 21
226.55694
 31
0.0
  0
CIRCLE
  5
270
100
AcDbEntity
  8
1
390
0
  6
DOT
 62
     9
100
AcDbCircle
 10
204.150459
 20
228.490527
 30
0.0
 40
0.3
210
0.0
220
0.0
230
1.0
  0
CIRCLE
  5
271
100
AcDbEntity
  8
1
390
0
  6
DOT
 62
     9
100
AcDbCircle
 10
203.457639
 20
229.690527
 30
0.0
 40
0.3
210
0.0
220
0.0
230
1.0
  0
LINE
  5
272
100
AcDbEntity
  8
1
390
0
  6
DOT
 62
     9
100
AcDbLine
 10
251.850459
 20
226.808592
 30
0.0
 11
251.850459
 21
226.55694
 31
0.0
  0
CIRCLE
  5
273
100
AcDbEntity
  8
1
390
0
  6
DOT
 62
     9
100
AcDbCircle
 10
251.457639
 20
229.690527
 30
0.0
 40
0.3
210
0.0
220
0.0
230
1.0
  0
LINE
  5
274
100
AcDbEntity
  8
1
390
0
  6
DOT
 62
     9
100
AcDbLine
 10
217.850459
 20
226.808592
 30
0.0
 11
217.850459
 21
226.55694
 31
0.0
  0
CIRCLE
  5
275
100
AcDbEntity
  8
1
390
0
  6
DOT
 62
     9
100
AcDbCircle
 10
218.150459
 20
228.490527
 30
0.0
 40
0.3
210
0.0
220
0.0
230
1.0
  0
CIRCLE
  5
276
100
AcDbEntity
  8
1
390
0
  6
DOT
 62
     9
100
AcDbCircle
 10
238.150459
 20
228.490527
 30
0.0
 40
0.3
210
0.0
220
0.0
230
1.0
  0
CIRCLE
  5
277
100
AcDbEntity
  8
1
390
0
  6
DOT
 62
     9
100
AcDbCircle
 10
204.84328
 20
229.690527
 30
0.0
 40
0.3
210
0.0
220
0.0
230
1.0
  0
LINE
  5
278
100
AcDbEntity
  8
1
390
0
  6
DOT
 62
     9
100
AcDbLine
 10
203.850459
 20
226.808592
 30
0.0
 11
203.850459
 21
226.55694
 31
0.0
  0
LINE
  5
279
100
AcDbEntity
  8
1
390
0
  6
DOT
 62
     9
100
AcDbLine
 10
268.150459
 20
241.290527
 30
0.0
 11
188.150459
 21
241.290527
 31
0.0
  0
ARC
  5
27A
100
AcDbEntity
  8
1
390
0
  6
DOT
 62
     9
100
AcDbCircle
 10
188.150459
 20
222.290527
 30
0.0
 40
1.0
210
0.0
220
0.0
230
1.0
100
AcDbArc
 50
180.0
 51
270.0
  0
ARC
  5
27B
100
AcDbEntity
  8
1
390
0
  6
DOT
 62
     9
100
AcDbCircle
 10
268.150459
 20
240.290527
 30
0.0
 40
1.0
210
0.0
220
0.0
230
1.0
100
AcDbArc
 50
0.0
 51
90.0
  0
LINE
  5
27C
100
AcDbEntity
  8
1
390
0
  6
DOT
 62
     9
100
AcDbLine
 10
187.150459
 20
240.290527
 30
0.0
 11
187.150459
 21
222.290527
 31
0.0
  0
ARC
  5
27D
100
AcDbEntity
  8
1
390
0
  6
DOT
 62
     9
100
AcDbCircle
 10
268.150459
 20
222.290527
 30
0.0
 40
1.0
210
0.0
220
0.0
230
1.0
100
AcDbArc
 50
270.0
 51
360.0
  0
LINE
  5
27E
100
AcDbEntity
  8
1
390
0
  6
DOT
 62
     9
100
AcDbLine
 10
188.150459
 20
221.290527
 30
0.0
 11
268.150459
 21
221.290527
 31
0.0
  0
ARC
  5
27F
100
AcDbEntity
  8
1
390
0
  6
DOT
 62
     9
100
AcDbCircle
 10
188.150459
 20
240.290527
 30
0.0
 40
1.0
210
0.0
220
0.0
230
1.0
100
AcDbArc
 50
90.0
 51
180.0
  0
LINE
  5
280
100
AcDbEntity
  8
1
390
0
  6
DOT
 62
     9
100
AcDbLine
 10
269.150459
 20
222.290527
 30
0.0
 11
269.150459
 21
240.290527
 31
0.0
  0
CIRCLE
  5
281
100
AcDbEntity
  8
1
390
0
  6
DOT
 62
     9
100
AcDbCircle
 10
238.150459
 20
229.290527
 30
0.0
 40
1.3
210
0.0
220
0.0
230
1.0
  0
CIRCLE
  5
282
100
AcDbEntity
  8
1
390
0
  6
DOT
 62
     9
100
AcDbCircle
 10
252.150459
 20
229.290527
 30
0.0
 40
1.3
210
0.0
220
0.0
230
0.9999999999999999
  0
CIRCLE
  5
283
100
AcDbEntity
  8
1
390
0
  6
DOT
 62
     9
100
AcDbCircle
 10
204.150459
 20
229.290527
 30
0.0
 40
1.3
210
0.0
220
0.0
230
1.0
  0
CIRCLE
  5
284
100
AcDbEntity
  8
1
390
0
  6
DOT
 62
     9
100
AcDbCircle
 10
218.150459
 20
229.290527
 30
0.0
 40
1.3
210
0.0
220
0.0
230
1.0
  0
CIRCLE
  5
285
100
AcDbEntity
  8
1
390
0
  6
DOT
 62
     9
100
AcDbCircle
 10
238.150459
 20
229.290527
 30
0.0
 40
4.0
210
0.0
220
0.0
230
1.0
  0
CIRCLE
  5
286
100
AcDbEntity
  8
1
390
0
  6
DOT
 62
     9
100
AcDbCircle
 10
218.150459
 20
229.290527
 30
0.0
 40
4.0
210
0.0
220
0.0
230
1.0
  0
CIRCLE
  5
287
100
AcDbEntity
  8
1
390
0
  6
DOT
 62
     9
100
AcDbCircle
 10
204.150459
 20
229.290527
 30
0.0
 40
4.0
210
0.0
220
0.0
230
1.0
  0
CIRCLE
  5
288
100
AcDbEntity
  8
1
390
0
  6
DOT
 62
     9
100
AcDbCircle
 10
252.150459
 20
229.290527
 30
0.0
 40
4.0
210
0.0
220
0.0
230
1.0
  0
CIRCLE
  5
289
100
AcDbEntity
  8
1
390
0
  6
DOT
 62
     9
100
AcDbCircle
 10
245.150459
 20
236.290527
 30
0.0
 40
2.75
210
0.0
220
0.0
230
1.0
  0
CIRCLE
  5
28A
100
AcDbEntity
  8
1
390
0
  6
DOT
 62
     9
100
AcDbCircle
 10
211.150459
 20
236.290527
 30
0.0
 40
2.75
210
0.0
220
0.0
230
1.0
  0
CIRCLE
  5
28B
100
AcDbEntity
  8
1
390
0
  6
DOT
 62
     9
100
AcDbCircle
 10
190.650459
 20
231.290527
 30
0.0
 40
2.75
210
0.0
220
0.0
230
1.0
  0
CIRCLE
  5
28C
100
AcDbEntity
  8
1
390
0
  6
DOT
 62
     9
100
AcDbCircle
 10
265.650459
 20
231.290527
 30
0.0
 40
2.75
210
0.0
220
0.0
230
1.0
  0
CIRCLE
  5
28D
100
AcDbEntity
  8
1
390
0
  6
DOT
 62
     9
100
AcDbCircle
 10
238.150459
 20
229.290527
 30
0.0
 40
3.8
210
0.0
220
0.0
230
1.0
  0
CIRCLE
  5
28E
100
AcDbEntity
  8
1
390
0
  6
DOT
 62
     9
100
AcDbCircle
 10
204.150459
 20
229.290527
 30
0.0
 40
3.8
210
0.0
220
0.0
230
1.0
  0
CIRCLE
  5
28F
100
AcDbEntity
  8
1
390
0
  6
DOT
 62
     9
100
AcDbCircle
 10
252.150459
 20
229.290527
 30
0.0
 40
3.8
210
0.0
220
0.0
230
0.9999999999999999
  0
CIRCLE
  5
290
100
AcDbEntity
  8
1
390
0
  6
DOT
 62
     9
100
AcDbCircle
 10
218.150459
 20
229.290527
 30
0.0
 40
3.8
210
0.0
220
0.0
230
1.0
  0
LINE
  5
291
100
AcDbEntity
  8
1
390
0
  6
DOT
 62
     9
100
AcDbLine
 10
212.067126
 20
235.92386
 30
0.0
 11
212.950459
 21
235.92386
 31
0.0
  0
ARC
  5
292
100
AcDbEntity
  8
1
390
0
  6
DOT
 62
     9
100
AcDbCircle
 10
212.067126
 20
237.207194
 30
0.0
 40
0.55
210
0.0
220
0.0
230
1.0
100
AcDbArc
 50
180.0
 51
270.0
  0
LINE
  5
293
100
AcDbEntity
  8
1
390
0
  6
DOT
 62
     9
100
AcDbLine
 10
211.517126
 20
237.207194
 30
0.0
 11
211.517126
 21
238.090527
 31
0.0
  0
LINE
  5
294
100
AcDbEntity
  8
1
390
0
  6
DOT
 62
     9
100
AcDbLine
 10
209.350459
 20
235.92386
 30
0.0
 11
210.233793
 21
235.92386
 31
0.0
  0
LINE
  5
295
100
AcDbEntity
  8
1
390
0
  6
DOT
 62
     9
100
AcDbLine
 10
212.950459
 20
235.92386
 30
0.0
 11
212.950459
 21
236.657194
 31
0.0
  0
LINE
  5
296
100
AcDbEntity
  8
1
390
0
  6
DOT
 62
     9
100
AcDbLine
 10
212.950459
 20
236.657194
 30
0.0
 11
212.067126
 21
236.657194
 31
0.0
  0
LINE
  5
297
100
AcDbEntity
  8
1
390
0
  6
DOT
 62
     9
100
AcDbLine
 10
209.350459
 20
236.657194
 30
0.0
 11
209.350459
 21
235.92386
 31
0.0
  0
LINE
  5
298
100
AcDbEntity
  8
1
390
0
  6
DOT
 62
     9
100
AcDbLine
 10
211.517126
 20
238.090527
 30
0.0
 11
210.783793
 21
238.090527
 31
0.0
  0
LINE
  5
299
100
AcDbEntity
  8
1
390
0
  6
DOT
 62
     9
100
AcDbLine
 10
210.233793
 20
236.657194
 30
0.0
 11
209.350459
 21
236.657194
 31
0.0
  0
LINE
  5
29A
100
AcDbEntity
  8
1
390
0
  6
DOT
 62
     9
100
AcDbLine
 10
210.783793
 20
238.090527
 30
0.0
 11
210.783793
 21
237.207194
 31
0.0
  0
LINE
  5
29B
100
AcDbEntity
  8
1
390
0
  6
DOT
 62
     9
100
AcDbLine
 10
210.783793
 20
234.490527
 30
0.0
 11
211.517126
 21
234.490527
 31
0.0
  0
LINE
  5
29C
100
AcDbEntity
  8
1
390
0
  6
DOT
 62
     9
100
AcDbLine
 10
246.067126
 20
235.92386
 30
0.0
 11
246.950459
 21
235.92386
 31
0.0
  0
ARC
  5
29D
100
AcDbEntity
  8
1
390
0
  6
DOT
 62
     9
100
AcDbCircle
 10
246.067126
 20
237.207194
 30
0.0
 40
0.55
210
0.0
220
0.0
230
1.0
100
AcDbArc
 50
180.0
 51
270.0
  0
LINE
  5
29E
100
AcDbEntity
  8
1
390
0
  6
DOT
 62
     9
100
AcDbLine
 10
245.517126
 20
237.207194
 30
0.0
 11
245.517126
 21
238.090527
 31
0.0
  0
LINE
  5
29F
100
AcDbEntity
  8
1
390
0
  6
DOT
 62
     9
100
AcDbLine
 10
243.350459
 20
235.92386
 30
0.0
 11
244.233793
 21
235.92386
 31
0.0
  0
LINE
  5
2A0
100
AcDbEntity
  8
1
390
0
  6
DOT
 62
     9
100
AcDbLine
 10
246.950459
 20
236.657194
 30
0.0
 11
246.067126
 21
236.657194
 31
0.0
  0
LINE
  5
2A1
100
AcDbEntity
  8
1
390
0
  6
DOT
 62
     9
100
AcDbLine
 10
246.950459
 20
235.92386
 30
0.0
 11
246.950459
 21
236.657194
 31
0.0
  0
LINE
  5
2A2
100
AcDbEntity
  8
1
390
0
  6
DOT
 62
     9
100
AcDbLine
 10
243.350459
 20
236.657194
 30
0.0
 11
243.350459
 21
235.92386
 31
0.0
  0
LINE
  5
2A3
100
AcDbEntity
  8
1
390
0
  6
DOT
 62
     9
100
AcDbLine
 10
244.233793
 20
236.657194
 30
0.0
 11
243.350459
 21
236.657194
 31
0.0
  0
LINE
  5
2A4
100
AcDbEntity
  8
1
390
0
  6
DOT
 62
     9
100
AcDbLine
 10
245.517126
 20
238.090527
 30
0.0
 11
244.783793
 21
238.090527
 31
0.0
  0
LINE
  5
2A5
100
AcDbEntity
  8
1
390
0
  6
DOT
 62
     9
100
AcDbLine
 10
244.783793
 20
238.090527
 30
0.0
 11
244.783793
 21
237.207194
 31
0.0
  0
ARC
  5
2A6
100
AcDbEntity
  8
1
390
0
  6
DOT
 62
     9
100
AcDbCircle
 10
244.233793
 20
237.207194
 30
0.0
 40
0.55
210
0.0
220
0.0
230
1.0
100
AcDbArc
 50
270.0
 51
360.0
  0
LINE
  5
2A7
100
AcDbEntity
  8
1
390
0
  6
DOT
 62
     9
100
AcDbLine
 10
245.517126
 20
234.490527
 30
0.0
 11
245.517126
 21
235.37386
 31
0.0
  0
ARC
  5
2A8
100
AcDbEntity
  8
1
390
0
  6
DOT
 62
     9
100
AcDbCircle
 10
246.067126
 20
235.37386
 30
0.0
 40
0.55
210
0.0
220
0.0
230
1.0
100
AcDbArc
 50
90.0
 51
180.0
  0
LINE
  5
2A9
100
AcDbEntity
  8
1
390
0
  6
DOT
 62
     9
100
AcDbLine
 10
244.783793
 20
234.490527
 30
0.0
 11
245.517126
 21
234.490527
 31
0.0
  0
LINE
  5
2AA
100
AcDbEntity
  8
1
390
0
  6
DOT
 62
     9
100
AcDbLine
 10
244.783793
 20
235.37386
 30
0.0
 11
244.783793
 21
234.490527
 31
0.0
  0
ARC
  5
2AB
100
AcDbEntity
  8
1
390
0
  6
DOT
 62
     9
100
AcDbCircle
 10
244.233793
 20
235.37386
 30
0.0
 40
0.55
210
0.0
220
0.0
230
1.0
100
AcDbArc
 50
0.0
 51
90.0
  0
LINE
  5
2AC
100
AcDbEntity
  8
1
390
0
  6
DOT
 62
     9
100
AcDbLine
 10
266.567126
 20
230.92386
 30
0.0
 11
267.450459
 21
230.92386
 31
0.0
  0
LINE
  5
2AD
100
AcDbEntity
  8
1
390
0
  6
DOT
 62
     9
100
AcDbLine
 10
267.450459
 20
231.657194
 30
0.0
 11
266.567126
 21
231.657194
 31
0.0
  0
LINE
  5
2AE
100
AcDbEntity
  8
1
390
0
  6
DOT
 62
     9
100
AcDbLine
 10
267.450459
 20
230.92386
 30
0.0
 11
267.450459
 21
231.657194
 31
0.0
  0
LINE
  5
2AF
100
AcDbEntity
  8
1
390
0
  6
DOT
 62
     9
100
AcDbLine
 10
263.850459
 20
230.92386
 30
0.0
 11
264.733793
 21
230.92386
 31
0.0
  0
LINE
  5
2B0
100
AcDbEntity
  8
1
390
0
  6
DOT
 62
     9
100
AcDbLine
 10
263.850459
 20
231.657194
 30
0.0
 11
263.850459
 21
230.92386
 31
0.0
  0
LINE
  5
2B1
100
AcDbEntity
  8
1
390
0
  6
DOT
 62
     9
100
AcDbLine
 10
264.733793
 20
231.657194
 30
0.0
 11
263.850459
 21
231.657194
 31
0.0
  0
ARC
  5
2B2
100
AcDbEntity
  8
1
390
0
  6
DOT
 62
     9
100
AcDbCircle
 10
266.567126
 20
232.207194
 30
0.0
 40
0.55
210
0.0
220
0.0
230
1.0
100
AcDbArc
 50
180.0
 51
270.0
  0
LINE
  5
2B3
100
AcDbEntity
  8
1
390
0
  6
DOT
 62
     9
100
AcDbLine
 10
266.017126
 20
232.207194
 30
0.0
 11
266.017126
 21
233.090527
 31
0.0
  0
LINE
  5
2B4
100
AcDbEntity
  8
1
390
0
  6
DOT
 62
     9
100
AcDbLine
 10
266.017126
 20
233.090527
 30
0.0
 11
265.283793
 21
233.090527
 31
0.0
  0
LINE
  5
2B5
100
AcDbEntity
  8
1
390
0
  6
DOT
 62
     9
100
AcDbLine
 10
265.283793
 20
233.090527
 30
0.0
 11
265.283793
 21
232.207194
 31
0.0
  0
ARC
  5
2B6
100
AcDbEntity
  8
1
390
0
  6
DOT
 62
     9
100
AcDbCircle
 10
264.733793
 20
232.207194
 30
0.0
 40
0.55
210
0.0
220
0.0
230
1.0
100
AcDbArc
 50
270.0
 51
360.0
  0
LINE
  5
2B7
100
AcDbEntity
  8
1
390
0
  6
DOT
 62
     9
100
AcDbLine
 10
266.017126
 20
229.490527
 30
0.0
 11
266.017126
 21
230.37386
 31
0.0
  0
ARC
  5
2B8
100
AcDbEntity
  8
1
390
0
  6
DOT
 62
     9
100
AcDbCircle
 10
266.567126
 20
230.37386
 30
0.0
 40
0.55
210
0.0
220
0.0
230
1.0
100
AcDbArc
 50
90.0
 51
180.0
  0
LINE
  5
2B9
100
AcDbEntity
  8
1
390
0
  6
DOT
 62
     9
100
AcDbLine
 10
265.283793
 20
229.490527
 30
0.0
 11
266.017126
 21
229.490527
 31
0.0
  0
LINE
  5
2BA
100
AcDbEntity
  8
1
390
0
  6
DOT
 62
     9
100
AcDbLine
 10
265.283793
 20
230.37386
 30
0.0
 11
265.283793
 21
229.490527
 31
0.0
  0
ARC
  5
2BB
100
AcDbEntity
  8
1
390
0
  6
DOT
 62
     9
100
AcDbCircle
 10
264.733793
 20
230.37386
 30
0.0
 40
0.55
210
0.0
220
0.0
230
1.0
100
AcDbArc
 50
0.0
 51
90.0
  0
LINE
  5
2BC
100
AcDbEntity
  8
1
390
0
  6
DOT
 62
     9
100
AcDbLine
 10
192.450459
 20
231.657194
 30
0.0
 11
191.567126
 21
231.657194
 31
0.0
  0
LINE
  5
2BD
100
AcDbEntity
  8
1
390
0
  6
DOT
 62
     9
100
AcDbLine
 10
192.450459
 20
230.92386
 30
0.0
 11
192.450459
 21
231.657194
 31
0.0
  0
ARC
  5
2BE
100
AcDbEntity
  8
1
390
0
  6
DOT
 62
     9
100
AcDbCircle
 10
189.733793
 20
230.37386
 30
0.0
 40
0.55
210
0.0
220
0.0
230
1.0
100
AcDbArc
 50
0.0
 51
90.0
  0
LINE
  5
2BF
100
AcDbEntity
  8
1
390
0
  6
DOT
 62
     9
100
AcDbLine
 10
190.283793
 20
230.37386
 30
0.0
 11
190.283793
 21
229.490527
 31
0.0
  0
LINE
  5
2C0
100
AcDbEntity
  8
1
390
0
  6
DOT
 62
     9
100
AcDbLine
 10
189.733793
 20
231.657194
 30
0.0
 11
188.850459
 21
231.657194
 31
0.0
  0
LINE
  5
2C1
100
AcDbEntity
  8
1
390
0
  6
DOT
 62
     9
100
AcDbLine
 10
188.850459
 20
231.657194
 30
0.0
 11
188.850459
 21
230.92386
 31
0.0
  0
LINE
  5
2C2
100
AcDbEntity
  8
1
390
0
  6
DOT
 62
     9
100
AcDbLine
 10
191.017126
 20
232.207194
 30
0.0
 11
191.017126
 21
233.090527
 31
0.0
  0
ARC
  5
2C3
100
AcDbEntity
  8
1
390
0
  6
DOT
 62
     9
100
AcDbCircle
 10
191.567126
 20
232.207194
 30
0.0
 40
0.55
210
0.0
220
0.0
230
1.0
100
AcDbArc
 50
180.0
 51
270.0
  0
LINE
  5
2C4
100
AcDbEntity
  8
1
390
0
  6
DOT
 62
     9
100
AcDbLine
 10
190.283793
 20
233.090527
 30
0.0
 11
190.283793
 21
232.207194
 31
0.0
  0
ARC
  5
2C5
100
AcDbEntity
  8
1
390
0
  6
DOT
 62
     9
100
AcDbCircle
 10
189.733793
 20
232.207194
 30
0.0
 40
0.55
210
0.0
220
0.0
230
1.0
100
AcDbArc
 50
270.0
 51
360.0
  0
LINE
  5
2C6
100
AcDbEntity
  8
1
390
0
  6
DOT
 62
     9
100
AcDbLine
 10
188.850459
 20
230.92386
 30
0.0
 11
189.733793
 21
230.92386
 31
0.0
  0
LINE
  5
2C7
100
AcDbEntity
  8
1
390
0
  6
DOT
 62
     9
100
AcDbLine
 10
191.017126
 20
229.490527
 30
0.0
 11
191.017126
 21
230.37386
 31
0.0
  0
ARC
  5
2C8
100
AcDbEntity
  8
1
390
0
  6
DOT
 62
     9
100
AcDbCircle
 10
191.567126
 20
230.37386
 30
0.0
 40
0.55
210
0.0
220
0.0
230
1.0
100
AcDbArc
 50
90.0
 51
180.0
  0
LINE
  5
2C9
100
AcDbEntity
  8
1
390
0
  6
DOT
 62
     9
100
AcDbLine
 10
191.017126
 20
233.090527
 30
0.0
 11
190.283793
 21
233.090527
 31
0.0
  0
LINE
  5
2CA
100
AcDbEntity
  8
1
390
0
  6
DOT
 62
     9
100
AcDbLine
 10
190.283793
 20
229.490527
 30
0.0
 11
191.017126
 21
229.490527
 31
0.0
  0
LINE
  5
2CB
100
AcDbEntity
  8
1
390
0
  6
DOT
 62
     9
100
AcDbLine
 10
191.567126
 20
230.92386
 30
0.0
 11
192.450459
 21
230.92386
 31
0.0
  0
LINE
  5
2CC
100
AcDbEntity
  8
1
390
0
  6
DOT
 62
     9
100
AcDbLine
 10
211.517126
 20
234.490527
 30
0.0
 11
211.517126
 21
235.37386
 31
0.0
  0
ARC
  5
2CD
100
AcDbEntity
  8
1
390
0
  6
DOT
 62
     9
100
AcDbCircle
 10
212.067126
 20
235.37386
 30
0.0
 40
0.55
210
0.0
220
0.0
230
1.0
100
AcDbArc
 50
90.0
 51
180.0
  0
LINE
  5
2CE
100
AcDbEntity
  8
1
390
0
  6
DOT
 62
     9
100
AcDbLine
 10
210.783793
 20
235.37386
 30
0.0
 11
210.783793
 21
234.490527
 31
0.0
  0
ARC
  5
2CF
100
AcDbEntity
  8
1
390
0
  6
DOT
 62
     9
100
AcDbCircle
 10
210.233793
 20
235.37386
 30
0.0
 40
0.55
210
0.0
220
0.0
230
1.0
100
AcDbArc
 50
0.0
 51
90.0
  0
ARC
  5
2D0
100
AcDbEntity
  8
1
390
0
  6
DOT
 62
     9
100
AcDbCircle
 10
210.233793
 20
237.207194
 30
0.0
 40
0.55
210
0.0
220
0.0
230
1.0
100
AcDbArc
 50
270.0
 51
360.0
  0
LINE
  5
2D1
100
AcDbEntity
  8
1
390
0
  6
Continuous
 62
     7
100
AcDbLine
 10
274.350459
 20
235.290527
 30
0.0
 11
275.150459
 21
236.090527
 31
0.0
  0
LINE
  5
2D2
100
AcDbEntity
  8
1
390
0
  6
Continuous
 62
     7
100
AcDbLine
 10
275.150459
 20
238.490527
 30
0.0
 11
274.350459
 21
239.290527
 31
0.0
  0
LINE
  5
2D3
100
AcDbEntity
  8
1
390
0
  6
Continuous
 62
     7
100
AcDbLine
 10
182.150459
 20
239.290527
 30
0.0
 11
181.950459
 21
239.290527
 31
0.0
  0
LINE
  5
2D4
100
AcDbEntity
  8
1
390
0
  6
Continuous
 62
     7
100
AcDbLine
 10
181.950459
 20
235.290527
 30
0.0
 11
182.150459
 21
235.290527
 31
0.0
  0
LINE
  5
2D5
100
AcDbEntity
  8
1
390
0
  6
Continuous
 62
     7
100
AcDbLine
 10
181.950459
 20
239.290527
 30
0.0
 11
181.150459
 21
238.490527
 31
0.0
  0
LINE
  5
2D6
100
AcDbEntity
  8
1
390
0
  6
Continuous
 62
     7
100
AcDbLine
 10
181.150459
 20
236.090527
 30
0.0
 11
181.950459
 21
235.290527
 31
0.0
  0
LINE
  5
2D7
100
AcDbEntity
  8
1
390
0
  6
Continuous
 62
     7
100
AcDbLine
 10
274.150459
 20
235.290527
 30
0.0
 11
274.350459
 21
235.290527
 31
0.0
  0
LINE
  5
2D8
100
AcDbEntity
  8
1
390
0
  6
Continuous
 62
     7
100
AcDbLine
 10
274.350459
 20
239.290527
 30
0.0
 11
274.150459
 21
239.290527
 31
0.0
  0
LINE
  5
2D9
100
AcDbEntity
  8
1
390
0
  6
DOT
 62
     9
100
AcDbLine
 10
280.550459
 20
244.790527
 30
0.0
 11
280.550459
 21
243.290527
 31
0.0
  0
LINE
  5
2DA
100
AcDbEntity
  8
1
390
0
  6
DOT
 62
     9
100
AcDbLine
 10
284.750459
 20
243.290527
 30
0.0
 11
284.750459
 21
244.790527
 31
0.0
  0
LINE
  5
2DB
100
AcDbEntity
  8
1
390
0
  6
DOT
 62
     9
100
AcDbLine
 10
171.550459
 20
244.790527
 30
0.0
 11
171.550459
 21
243.290527
 31
0.0
  0
LINE
  5
2DC
100
AcDbEntity
  8
1
390
0
  6
DOT
 62
     9
100
AcDbLine
 10
175.750459
 20
243.290527
 30
0.0
 11
175.750459
 21
244.790527
 31
0.0
  0
LINE
  5
2DD
100
AcDbEntity
  8
1
390
0
  6
Continuous
 62
     7
100
AcDbLine
 10
180.954049
 20
222.040527
 30
0.0
 11
182.150459
 21
222.040527
 31
0.0
  0
LINE
  5
2DE
100
AcDbEntity
  8
1
390
0
  6
Continuous
 62
     7
100
AcDbLine
 10
182.150459
 20
240.540527
 30
0.0
 11
180.954049
 21
240.540527
 31
0.0
  0
LINE
  5
2DF
100
AcDbEntity
  8
1
390
0
  6
Continuous
 62
     7
100
AcDbLine
 10
180.854049
 20
240.513732
 30
0.0
 11
178.250459
 21
239.010549
 31
0.0
  0
LINE
  5
2E0
100
AcDbEntity
  8
1
390
0
  6
Continuous
 62
     7
100
AcDbLine
 10
178.250459
 20
223.570505
 30
0.0
 11
180.854049
 21
222.067322
 31
0.0
  0
ARC
  5
2E1
100
AcDbEntity
  8
1
390
0
  6
Continuous
 62
     7
100
AcDbCircle
 10
178.350459
 20
238.837344
 30
0.0
 40
0.2
210
0.0
220
0.0
230
1.0
100
AcDbArc
 50
120.0
 51
180.0
  0
ARC
  5
2E2
100
AcDbEntity
  8
1
390
0
  6
Continuous
 62
     7
100
AcDbCircle
 10
178.350459
 20
223.74371
 30
0.0
 40
0.2
210
0.0
220
0.0
230
1.0
100
AcDbArc
 50
180.0
 51
240.0
  0
ARC
  5
2E3
100
AcDbEntity
  8
1
390
0
  6
Continuous
 62
     7
100
AcDbCircle
 10
177.350459
 20
237.840527
 30
0.0
 40
0.2
210
0.0
220
0.0
230
1.0
100
AcDbArc
 50
90.0
 51
180.0
  0
ARC
  5
2E4
100
AcDbEntity
  8
1
390
0
  6
Continuous
 62
     7
100
AcDbCircle
 10
177.350459
 20
224.740527
 30
0.0
 40
0.2
210
0.0
220
0.0
230
1.0
100
AcDbArc
 50
180.0
 51
270.0
  0
LINE
  5
2E5
100
AcDbEntity
  8
1
390
0
  6
Continuous
 62
     7
100
AcDbLine
 10
177.350459
 20
224.540527
 30
0.0
 11
178.150459
 21
224.540527
 31
0.0
  0
LINE
  5
2E6
100
AcDbEntity
  8
1
390
0
  6
Continuous
 62
     7
100
AcDbLine
 10
178.150459
 20
238.040527
 30
0.0
 11
177.350459
 21
238.040527
 31
0.0
  0
LINE
  5
2E7
100
AcDbEntity
  8
1
390
0
  6
DOT
 62
     9
100
AcDbLine
 10
182.150459
 20
236.290527
 30
0.0
 11
181.650459
 21
236.290527
 31
0.0
  0
LINE
  5
2E8
100
AcDbEntity
  8
1
390
0
  6
DOT
 62
     9
100
AcDbLine
 10
181.150459
 20
236.290527
 30
0.0
 11
177.150459
 21
236.290527
 31
0.0
  0
LINE
  5
2E9
100
AcDbEntity
  8
1
390
0
  6
DOT
 62
     9
100
AcDbLine
 10
178.350459
 20
228.290527
 30
0.0
 11
182.150459
 21
228.290527
 31
0.0
  0
LINE
  5
2EA
100
AcDbEntity
  8
1
390
0
  6
DOT
 62
     9
100
AcDbLine
 10
182.150459
 20
234.290527
 30
0.0
 11
178.350459
 21
234.290527
 31
0.0
  0
LINE
  5
2EB
100
AcDbEntity
  8
1
390
0
  6
DOT
 62
     9
100
AcDbLine
 10
178.350459
 20
234.290527
 30
0.0
 11
178.150459
 21
234.090527
 31
0.0
  0
LINE
  5
2EC
100
AcDbEntity
  8
1
390
0
  6
DOT
 62
     9
100
AcDbLine
 10
178.150459
 20
228.490527
 30
0.0
 11
178.350459
 21
228.290527
 31
0.0
  0
LINE
  5
2ED
100
AcDbEntity
  8
1
390
0
  6
DOT
 62
     9
100
AcDbLine
 10
178.150459
 20
230.790527
 30
0.0
 11
182.150459
 21
230.790527
 31
0.0
  0
LINE
  5
2EE
100
AcDbEntity
  8
1
390
0
  6
DOT
 62
     9
100
AcDbLine
 10
182.150459
 20
231.790527
 30
0.0
 11
178.150459
 21
231.790527
 31
0.0
  0
LINE
  5
2EF
100
AcDbEntity
  8
1
390
0
  6
DOT
 62
     9
100
AcDbLine
 10
178.150459
 20
229.46801
 30
0.0
 11
182.150459
 21
229.46801
 31
0.0
  0
LINE
  5
2F0
100
AcDbEntity
  8
1
390
0
  6
DOT
 62
     9
100
AcDbLine
 10
182.150459
 20
230.46801
 30
0.0
 11
178.150459
 21
230.46801
 31
0.0
  0
LINE
  5
2F1
100
AcDbEntity
  8
1
390
0
  6
DOT
 62
     9
100
AcDbLine
 10
178.150459
 20
232.113044
 30
0.0
 11
182.150459
 21
232.113044
 31
0.0
  0
LINE
  5
2F2
100
AcDbEntity
  8
1
390
0
  6
DOT
 62
     9
100
AcDbLine
 10
182.150459
 20
233.113044
 30
0.0
 11
178.150459
 21
233.113044
 31
0.0
  0
LINE
  5
2F3
100
AcDbEntity
  8
1
390
0
  6
DOT
 62
     9
100
AcDbLine
 10
178.150459
 20
228.65065
 30
0.0
 11
182.150459
 21
228.65065
 31
0.0
  0
LINE
  5
2F4
100
AcDbEntity
  8
1
390
0
  6
DOT
 62
     9
100
AcDbLine
 10
182.150459
 20
229.65065
 30
0.0
 11
178.150459
 21
229.65065
 31
0.0
  0
LINE
  5
2F5
100
AcDbEntity
  8
1
390
0
  6
DOT
 62
     9
100
AcDbLine
 10
178.150459
 20
232.930404
 30
0.0
 11
182.150459
 21
232.930404
 31
0.0
  0
LINE
  5
2F6
100
AcDbEntity
  8
1
390
0
  6
DOT
 62
     9
100
AcDbLine
 10
182.150459
 20
233.930404
 30
0.0
 11
178.150459
 21
233.930404
 31
0.0
  0
LINE
  5
2F7
100
AcDbEntity
  8
1
390
0
  6
DOT
 62
     9
100
AcDbLine
 10
178.150459
 20
229.790527
 30
0.0
 11
182.150459
 21
229.790527
 31
0.0
  0
LINE
  5
2F8
100
AcDbEntity
  8
1
390
0
  6
DOT
 62
     9
100
AcDbLine
 10
182.150459
 20
232.790527
 30
0.0
 11
178.150459
 21
232.790527
 31
0.0
  0
LINE
  5
2F9
100
AcDbEntity
  8
1
390
0
  6
Continuous
 62
     7
100
AcDbLine
 10
263.850459
 20
76.642966
 30
0.0
 11
264.733793
 21
76.642966
 31
0.0
  0
LINE
  5
2FA
100
AcDbEntity
  8
1
390
0
  6
Continuous
 62
     7
100
AcDbLine
 10
263.850459
 20
75.909633
 30
0.0
 11
263.850459
 21
76.642966
 31
0.0
  0
LINE
  5
2FB
100
AcDbEntity
  8
1
390
0
  6
Continuous
 62
     7
100
AcDbLine
 10
264.733793
 20
75.909633
 30
0.0
 11
263.850459
 21
75.909633
 31
0.0
  0
POLYLINE
  5
2FC
100
AcDbEntity
  8
1
390
0
  6
Continuous
 62
     7
100
AcDb2dPolyline
 66
     1
 10
0.0
 20
0.0
 30
0.0
 40
3.0
 41
3.0
  0
VERTEX
  5
2FD
100
AcDbEntity
  8
1
390
0
 62
     7
100
AcDbVertex
100
AcDb2dVertex
 10
264.733793
 20
75.909633
 30
0.0
  0
VERTEX
  5
2FE
100
AcDbEntity
  8
1
390
0
 62
     7
100
AcDbVertex
100
AcDb2dVertex
 10
264.756372
 20
75.909167
 30
0.0
  0
VERTEX
  5
2FF
100
AcDbEntity
  8
1
390
0
 62
     7
100
AcDbVertex
100
AcDb2dVertex
 10
264.778948
 20
75.907773
 30
0.0
  0
VERTEX
  5
300
100
AcDbEntity
  8
1
390
0
 62
     7
100
AcDbVertex
100
AcDb2dVertex
 10
264.801464
 20
75.905452
 30
0.0
  0
VERTEX
  5
301
100
AcDbEntity
  8
1
390
0
 62
     7
100
AcDbVertex
100
AcDb2dVertex
 10
264.823861
 20
75.902208
 30
0.0
  0
VERTEX
  5
302
100
AcDbEntity
  8
1
390
0
 62
     7
100
AcDbVertex
100
AcDb2dVertex
 10
264.846758
 20
75.897904
 30
0.0
  0
VERTEX
  5
303
100
AcDbEntity
  8
1
390
0
 62
     7
100
AcDbVertex
100
AcDb2dVertex
 10
264.869489
 20
75.892627
 30
0.0
  0
VERTEX
  5
304
100
AcDbEntity
  8
1
390
0
 62
     7
100
AcDbVertex
100
AcDb2dVertex
 10
264.89199
 20
75.886388
 30
0.0
  0
VERTEX
  5
305
100
AcDbEntity
  8
1
390
0
 62
     7
100
AcDbVertex
100
AcDb2dVertex
 10
264.914199
 20
75.879203
 30
0.0
  0
VERTEX
  5
306
100
AcDbEntity
  8
1
390
0
 62
     7
100
AcDbVertex
100
AcDb2dVertex
 10
264.935491
 20
75.871312
 30
0.0
  0
VERTEX
  5
307
100
AcDbEntity
  8
1
390
0
 62
     7
100
AcDbVertex
100
AcDb2dVertex
 10
264.956467
 20
75.862537
 30
0.0
  0
VERTEX
  5
308
100
AcDbEntity
  8
1
390
0
 62
     7
100
AcDbVertex
100
AcDb2dVertex
 10
264.977074
 20
75.852899
 30
0.0
  0
VERTEX
  5
309
100
AcDbEntity
  8
1
390
0
 62
     7
100
AcDbVertex
100
AcDb2dVertex
 10
264.997257
 20
75.842423
 30
0.0
  0
VERTEX
  5
30A
100
AcDbEntity
  8
1
390
0
 62
     7
100
AcDbVertex
100
AcDb2dVertex
 10
265.017571
 20
75.830767
 30
0.0
  0
VERTEX
  5
30B
100
AcDbEntity
  8
1
390
0
 62
     7
100
AcDbVertex
100
AcDb2dVertex
 10
265.037396
 20
75.81824
 30
0.0
  0
VERTEX
  5
30C
100
AcDbEntity
  8
1
390
0
 62
     7
100
AcDbVertex
100
AcDb2dVertex
 10
265.056677
 20
75.804878
 30
0.0
  0
VERTEX
  5
30D
100
AcDbEntity
  8
1
390
0
 62
     7
100
AcDbVertex
100
AcDb2dVertex
 10
265.075357
 20
75.790717
 30
0.0
  0
VERTEX
  5
30E
100
AcDbEntity
  8
1
390
0
 62
     7
100
AcDbVertex
100
AcDb2dVertex
 10
265.092748
 20
75.776344
 30
0.0
  0
VERTEX
  5
30F
100
AcDbEntity
  8
1
390
0
 62
     7
100
AcDbVertex
100
AcDb2dVertex
 10
265.109552
 20
75.761256
 30
0.0
  0
VERTEX
  5
310
100
AcDbEntity
  8
1
390
0
 62
     7
100
AcDbVertex
100
AcDb2dVertex
 10
265.125725
 20
75.745492
 30
0.0
  0
VERTEX
  5
311
100
AcDbEntity
  8
1
390
0
 62
     7
100
AcDbVertex
100
AcDb2dVertex
 10
265.141223
 20
75.729092
 30
0.0
  0
VERTEX
  5
312
100
AcDbEntity
  8
1
390
0
 62
     7
100
AcDbVertex
100
AcDb2dVertex
 10
265.156456
 20
75.711561
 30
0.0
  0
VERTEX
  5
313
100
AcDbEntity
  8
1
390
0
 62
     7
100
AcDbVertex
100
AcDb2dVertex
 10
265.170946
 20
75.693389
 30
0.0
  0
VERTEX
  5
314
100
AcDbEntity
  8
1
390
0
 62
     7
100
AcDbVertex
100
AcDb2dVertex
 10
265.184655
 20
75.674626
 30
0.0
  0
VERTEX
  5
315
100
AcDbEntity
  8
1
390
0
 62
     7
100
AcDbVertex
100
AcDb2dVertex
 10
265.197546
 20
75.655324
 30
0.0
  0
VERTEX
  5
316
100
AcDbEntity
  8
1
390
0
 62
     7
100
AcDbVertex
100
AcDb2dVertex
 10
265.209227
 20
75.636147
 30
0.0
  0
VERTEX
  5
317
100
AcDbEntity
  8
1
390
0
 62
     7
100
AcDbVertex
100
AcDb2dVertex
 10
265.220122
 20
75.616499
 30
0.0
  0
VERTEX
  5
318
100
AcDbEntity
  8
1
390
0
 62
     7
100
AcDbVertex
100
AcDb2dVertex
 10
265.230204
 20
75.596432
 30
0.0
  0
VERTEX
  5
319
100
AcDbEntity
  8
1
390
0
 62
     7
100
AcDbVertex
100
AcDb2dVertex
 10
265.239447
 20
75.575997
 30
0.0
  0
VERTEX
  5
31A
100
AcDbEntity
  8
1
390
0
 62
     7
100
AcDbVertex
100
AcDb2dVertex
 10
265.248071
 20
75.55461
 30
0.0
  0
VERTEX
  5
31B
100
AcDbEntity
  8
1
390
0
 62
     7
100
AcDbVertex
100
AcDb2dVertex
 10
265.255793
 20
75.532873
 30
0.0
  0
VERTEX
  5
31C
100
AcDbEntity
  8
1
390
0
 62
     7
100
AcDbVertex
100
AcDb2dVertex
 10
265.262596
 20
75.510845
 30
0.0
  0
VERTEX
  5
31D
100
AcDbEntity
  8
1
390
0
 62
     7
100
AcDbVertex
100
AcDb2dVertex
 10
265.268462
 20
75.488585
 30
0.0
  0
VERTEX
  5
31E
100
AcDbEntity
  8
1
390
0
 62
     7
100
AcDbVertex
100
AcDb2dVertex
 10
265.273961
 20
75.463131
 30
0.0
  0
VERTEX
  5
31F
100
AcDbEntity
  8
1
390
0
 62
     7
100
AcDbVertex
100
AcDb2dVertex
 10
265.278251
 20
75.437422
 30
0.0
  0
VERTEX
  5
320
100
AcDbEntity
  8
1
390
0
 62
     7
100
AcDbVertex
100
AcDb2dVertex
 10
265.281325
 20
75.411544
 30
0.0
  0
VERTEX
  5
321
100
AcDbEntity
  8
1
390
0
 62
     7
100
AcDbVertex
100
AcDb2dVertex
 10
265.283175
 20
75.385585
 30
0.0
  0
VERTEX
  5
322
100
AcDbEntity
  8
1
390
0
 62
     7
100
AcDbVertex
100
AcDb2dVertex
 10
265.283793
 20
75.359633
 30
0.0
  0
SEQEND
  5
323
100
AcDbEntity
  8
0
390
0
  0
LINE
  5
324
100
AcDbEntity
  8
1
390
0
  6
Continuous
 62
     7
100
AcDbLine
 10
265.283793
 20
74.476299
 30
0.0
 11
265.283793
 21
75.359633
 31
0.0
  0
LINE
  5
325
100
AcDbEntity
  8
1
390
0
  6
Continuous
 62
     7
100
AcDbLine
 10
266.017126
 20
74.476299
 30
0.0
 11
265.283793
 21
74.476299
 31
0.0
  0
LINE
  5
326
100
AcDbEntity
  8
1
390
0
  6
Continuous
 62
     7
100
AcDbLine
 10
266.017126
 20
75.359633
 30
0.0
 11
266.017126
 21
74.476299
 31
0.0
  0
POLYLINE
  5
327
100
AcDbEntity
  8
1
390
0
  6
Continuous
 62
     7
100
AcDb2dPolyline
 66
     1
 10
0.0
 20
0.0
 30
0.0
 40
3.0
 41
3.0
  0
VERTEX
  5
328
100
AcDbEntity
  8
1
390
0
 62
     7
100
AcDbVertex
100
AcDb2dVertex
 10
266.017126
 20
75.359633
 30
0.0
  0
VERTEX
  5
329
100
AcDbEntity
  8
1
390
0
 62
     7
100
AcDbVertex
100
AcDb2dVertex
 10
266.017592
 20
75.382212
 30
0.0
  0
VERTEX
  5
32A
100
AcDbEntity
  8
1
390
0
 62
     7
100
AcDbVertex
100
AcDb2dVertex
 10
266.018986
 20
75.404788
 30
0.0
  0
VERTEX
  5
32B
100
AcDbEntity
  8
1
390
0
 62
     7
100
AcDbVertex
100
AcDb2dVertex
 10
266.021307
 20
75.427304
 30
0.0
  0
VERTEX
  5
32C
100
AcDbEntity
  8
1
390
0
 62
     7
100
AcDbVertex
100
AcDb2dVertex
 10
266.024551
 20
75.449701
 30
0.0
  0
VERTEX
  5
32D
100
AcDbEntity
  8
1
390
0
 62
     7
100
AcDbVertex
100
AcDb2dVertex
 10
266.028854
 20
75.472598
 30
0.0
  0
VERTEX
  5
32E
100
AcDbEntity
  8
1
390
0
 62
     7
100
AcDbVertex
100
AcDb2dVertex
 10
266.034132
 20
75.495328
 30
0.0
  0
VERTEX
  5
32F
100
AcDbEntity
  8
1
390
0
 62
     7
100
AcDbVertex
100
AcDb2dVertex
 10
266.040371
 20
75.51783
 30
0.0
  0
VERTEX
  5
330
100
AcDbEntity
  8
1
390
0
 62
     7
100
AcDbVertex
100
AcDb2dVertex
 10
266.047556
 20
75.540039
 30
0.0
  0
VERTEX
  5
331
100
AcDbEntity
  8
1
390
0
 62
     7
100
AcDbVertex
100
AcDb2dVertex
 10
266.055447
 20
75.56133
 30
0.0
  0
VERTEX
  5
332
100
AcDbEntity
  8
1
390
0
 62
     7
100
AcDbVertex
100
AcDb2dVertex
 10
266.064222
 20
75.582307
 30
0.0
  0
VERTEX
  5
333
100
AcDbEntity
  8
1
390
0
 62
     7
100
AcDbVertex
100
AcDb2dVertex
 10
266.073859
 20
75.602914
 30
0.0
  0
VERTEX
  5
334
100
AcDbEntity
  8
1
390
0
 62
     7
100
AcDbVertex
100
AcDb2dVertex
 10
266.084335
 20
75.623097
 30
0.0
  0
VERTEX
  5
335
100
AcDbEntity
  8
1
390
0
 62
     7
100
AcDbVertex
100
AcDb2dVertex
 10
266.095992
 20
75.643411
 30
0.0
  0
VERTEX
  5
336
100
AcDbEntity
  8
1
390
0
 62
     7
100
AcDbVertex
100
AcDb2dVertex
 10
266.108519
 20
75.663236
 30
0.0
  0
VERTEX
  5
337
100
AcDbEntity
  8
1
390
0
 62
     7
100
AcDbVertex
100
AcDb2dVertex
 10
266.121881
 20
75.682517
 30
0.0
  0
VERTEX
  5
338
100
AcDbEntity
  8
1
390
0
 62
     7
100
AcDbVertex
100
AcDb2dVertex
 10
266.136042
 20
75.701197
 30
0.0
  0
VERTEX
  5
339
100
AcDbEntity
  8
1
390
0
 62
     7
100
AcDbVertex
100
AcDb2dVertex
 10
266.150414
 20
75.718588
 30
0.0
  0
VERTEX
  5
33A
100
AcDbEntity
  8
1
390
0
 62
     7
100
AcDbVertex
100
AcDb2dVertex
 10
266.165503
 20
75.735392
 30
0.0
  0
VERTEX
  5
33B
100
AcDbEntity
  8
1
390
0
 62
     7
100
AcDbVertex
100
AcDb2dVertex
 10
266.181267
 20
75.751564
 30
0.0
  0
VERTEX
  5
33C
100
AcDbEntity
  8
1
390
0
 62
     7
100
AcDbVertex
100
AcDb2dVertex
 10
266.197667
 20
75.767063
 30
0.0
  0
VERTEX
  5
33D
100
AcDbEntity
  8
1
390
0
 62
     7
100
AcDbVertex
100
AcDb2dVertex
 10
266.215197
 20
75.782295
 30
0.0
  0
VERTEX
  5
33E
100
AcDbEntity
  8
1
390
0
 62
     7
100
AcDbVertex
100
AcDb2dVertex
 10
266.23337
 20
75.796786
 30
0.0
  0
VERTEX
  5
33F
100
AcDbEntity
  8
1
390
0
 62
     7
100
AcDbVertex
100
AcDb2dVertex
 10
266.252133
 20
75.810495
 30
0.0
  0
VERTEX
  5
340
100
AcDbEntity
  8
1
390
0
 62
     7
100
AcDbVertex
100
AcDb2dVertex
 10
266.271435
 20
75.823386
 30
0.0
  0
VERTEX
  5
341
100
AcDbEntity
  8
1
390
0
 62
     7
100
AcDbVertex
100
AcDb2dVertex
 10
266.290612
 20
75.835067
 30
0.0
  0
VERTEX
  5
342
100
AcDbEntity
  8
1
390
0
 62
     7
100
AcDbVertex
100
AcDb2dVertex
 10
266.31026
 20
75.845962
 30
0.0
  0
VERTEX
  5
343
100
AcDbEntity
  8
1
390
0
 62
     7
100
AcDbVertex
100
AcDb2dVertex
 10
266.330327
 20
75.856044
 30
0.0
  0
VERTEX
  5
344
100
AcDbEntity
  8
1
390
0
 62
     7
100
AcDbVertex
100
AcDb2dVertex
 10
266.350762
 20
75.865287
 30
0.0
  0
VERTEX
  5
345
100
AcDbEntity
  8
1
390
0
 62
     7
100
AcDbVertex
100
AcDb2dVertex
 10
266.372149
 20
75.87391
 30
0.0
  0
VERTEX
  5
346
100
AcDbEntity
  8
1
390
0
 62
     7
100
AcDbVertex
100
AcDb2dVertex
 10
266.393886
 20
75.881632
 30
0.0
  0
VERTEX
  5
347
100
AcDbEntity
  8
1
390
0
 62
     7
100
AcDbVertex
100
AcDb2dVertex
 10
266.415914
 20
75.888436
 30
0.0
  0
VERTEX
  5
348
100
AcDbEntity
  8
1
390
0
 62
     7
100
AcDbVertex
100
AcDb2dVertex
 10
266.438173
 20
75.894302
 30
0.0
  0
VERTEX
  5
349
100
AcDbEntity
  8
1
390
0
 62
     7
100
AcDbVertex
100
AcDb2dVertex
 10
266.463627
 20
75.899801
 30
0.0
  0
VERTEX
  5
34A
100
AcDbEntity
  8
1
390
0
 62
     7
100
AcDbVertex
100
AcDb2dVertex
 10
266.489337
 20
75.904091
 30
0.0
  0
VERTEX
  5
34B
100
AcDbEntity
  8
1
390
0
 62
     7
100
AcDbVertex
100
AcDb2dVertex
 10
266.515215
 20
75.907165
 30
0.0
  0
VERTEX
  5
34C
100
AcDbEntity
  8
1
390
0
 62
     7
100
AcDbVertex
100
AcDb2dVertex
 10
266.541174
 20
75.909014
 30
0.0
  0
VERTEX
  5
34D
100
AcDbEntity
  8
1
390
0
 62
     7
100
AcDbVertex
100
AcDb2dVertex
 10
266.567126
 20
75.909633
 30
0.0
  0
SEQEND
  5
34E
100
AcDbEntity
  8
0
390
0
  0
LINE
  5
34F
100
AcDbEntity
  8
1
390
0
  6
Continuous
 62
     7
100
AcDbLine
 10
267.450459
 20
75.909633
 30
0.0
 11
266.567126
 21
75.909633
 31
0.0
  0
LINE
  5
350
100
AcDbEntity
  8
1
390
0
  6
Continuous
 62
     7
100
AcDbLine
 10
267.450459
 20
76.642966
 30
0.0
 11
267.450459
 21
75.909633
 31
0.0
  0
LINE
  5
351
100
AcDbEntity
  8
1
390
0
  6
Continuous
 62
     7
100
AcDbLine
 10
266.567126
 20
76.642966
 30
0.0
 11
267.450459
 21
76.642966
 31
0.0
  0
POLYLINE
  5
352
100
AcDbEntity
  8
1
390
0
  6
Continuous
 62
     7
100
AcDb2dPolyline
 66
     1
 10
0.0
 20
0.0
 30
0.0
 40
3.0
 41
3.0
  0
VERTEX
  5
353
100
AcDbEntity
  8
1
390
0
 62
     7
100
AcDbVertex
100
AcDb2dVertex
 10
266.567126
 20
76.642966
 30
0.0
  0
VERTEX
  5
354
100
AcDbEntity
  8
1
390
0
 62
     7
100
AcDbVertex
100
AcDb2dVertex
 10
266.544547
 20
76.643431
 30
0.0
  0
VERTEX
  5
355
100
AcDbEntity
  8
1
390
0
 62
     7
100
AcDbVertex
100
AcDb2dVertex
 10
266.521971
 20
76.644826
 30
0.0
  0
VERTEX
  5
356
100
AcDbEntity
  8
1
390
0
 62
     7
100
AcDbVertex
100
AcDb2dVertex
 10
266.499455
 20
76.647147
 30
0.0
  0
VERTEX
  5
357
100
AcDbEntity
  8
1
390
0
 62
     7
100
AcDbVertex
100
AcDb2dVertex
 10
266.477058
 20
76.650391
 30
0.0
  0
VERTEX
  5
358
100
AcDbEntity
  8
1
390
0
 62
     7
100
AcDbVertex
100
AcDb2dVertex
 10
266.454161
 20
76.654694
 30
0.0
  0
VERTEX
  5
359
100
AcDbEntity
  8
1
390
0
 62
     7
100
AcDbVertex
100
AcDb2dVertex
 10
266.43143
 20
76.659972
 30
0.0
  0
VERTEX
  5
35A
100
AcDbEntity
  8
1
390
0
 62
     7
100
AcDbVertex
100
AcDb2dVertex
 10
266.408929
 20
76.66621
 30
0.0
  0
VERTEX
  5
35B
100
AcDbEntity
  8
1
390
0
 62
     7
100
AcDbVertex
100
AcDb2dVertex
 10
266.38672
 20
76.673395
 30
0.0
  0
VERTEX
  5
35C
100
AcDbEntity
  8
1
390
0
 62
     7
100
AcDbVertex
100
AcDb2dVertex
 10
266.365428
 20
76.681286
 30
0.0
  0
VERTEX
  5
35D
100
AcDbEntity
  8
1
390
0
 62
     7
100
AcDbVertex
100
AcDb2dVertex
 10
266.344452
 20
76.690062
 30
0.0
  0
VERTEX
  5
35E
100
AcDbEntity
  8
1
390
0
 62
     7
100
AcDbVertex
100
AcDb2dVertex
 10
266.323845
 20
76.699699
 30
0.0
  0
VERTEX
  5
35F
100
AcDbEntity
  8
1
390
0
 62
     7
100
AcDbVertex
100
AcDb2dVertex
 10
266.303662
 20
76.710175
 30
0.0
  0
VERTEX
  5
360
100
AcDbEntity
  8
1
390
0
 62
     7
100
AcDbVertex
100
AcDb2dVertex
 10
266.283348
 20
76.721832
 30
0.0
  0
VERTEX
  5
361
100
AcDbEntity
  8
1
390
0
 62
     7
100
AcDbVertex
100
AcDb2dVertex
 10
266.263523
 20
76.734359
 30
0.0
  0
VERTEX
  5
362
100
AcDbEntity
  8
1
390
0
 62
     7
100
AcDbVertex
100
AcDb2dVertex
 10
266.244242
 20
76.747721
 30
0.0
  0
VERTEX
  5
363
100
AcDbEntity
  8
1
390
0
 62
     7
100
AcDbVertex
100
AcDb2dVertex
 10
266.225562
 20
76.761882
 30
0.0
  0
VERTEX
  5
364
100
AcDbEntity
  8
1
390
0
 62
     7
100
AcDbVertex
100
AcDb2dVertex
 10
266.20817
 20
76.776254
 30
0.0
  0
VERTEX
  5
365
100
AcDbEntity
  8
1
390
0
 62
     7
100
AcDbVertex
100
AcDb2dVertex
 10
266.191367
 20
76.791343
 30
0.0
  0
VERTEX
  5
366
100
AcDbEntity
  8
1
390
0
 62
     7
100
AcDbVertex
100
AcDb2dVertex
 10
266.175194
 20
76.807107
 30
0.0
  0
VERTEX
  5
367
100
AcDbEntity
  8
1
390
0
 62
     7
100
AcDbVertex
100
AcDb2dVertex
 10
266.159696
 20
76.823506
 30
0.0
  0
VERTEX
  5
368
100
AcDbEntity
  8
1
390
0
 62
     7
100
AcDbVertex
100
AcDb2dVertex
 10
266.144463
 20
76.841037
 30
0.0
  0
VERTEX
  5
369
100
AcDbEntity
  8
1
390
0
 62
     7
100
AcDbVertex
100
AcDb2dVertex
 10
266.129973
 20
76.85921
 30
0.0
  0
VERTEX
  5
36A
100
AcDbEntity
  8
1
390
0
 62
     7
100
AcDbVertex
100
AcDb2dVertex
 10
266.116264
 20
76.877973
 30
0.0
  0
VERTEX
  5
36B
100
AcDbEntity
  8
1
390
0
 62
     7
100
AcDbVertex
100
AcDb2dVertex
 10
266.103373
 20
76.897275
 30
0.0
  0
VERTEX
  5
36C
100
AcDbEntity
  8
1
390
0
 62
     7
100
AcDbVertex
100
AcDb2dVertex
 10
266.091692
 20
76.916452
 30
0.0
  0
VERTEX
  5
36D
100
AcDbEntity
  8
1
390
0
 62
     7
100
AcDbVertex
100
AcDb2dVertex
 10
266.080797
 20
76.9361
 30
0.0
  0
VERTEX
  5
36E
100
AcDbEntity
  8
1
390
0
 62
     7
100
AcDbVertex
100
AcDb2dVertex
 10
266.070715
 20
76.956167
 30
0.0
  0
VERTEX
  5
36F
100
AcDbEntity
  8
1
390
0
 62
     7
100
AcDbVertex
100
AcDb2dVertex
 10
266.061472
 20
76.976602
 30
0.0
  0
VERTEX
  5
370
100
AcDbEntity
  8
1
390
0
 62
     7
100
AcDbVertex
100
AcDb2dVertex
 10
266.052848
 20
76.997988
 30
0.0
  0
VERTEX
  5
371
100
AcDbEntity
  8
1
390
0
 62
     7
100
AcDbVertex
100
AcDb2dVertex
 10
266.045126
 20
77.019725
 30
0.0
  0
VERTEX
  5
372
100
AcDbEntity
  8
1
390
0
 62
     7
100
AcDbVertex
100
AcDb2dVertex
 10
266.038323
 20
77.041753
 30
0.0
  0
VERTEX
  5
373
100
AcDbEntity
  8
1
390
0
 62
     7
100
AcDbVertex
100
AcDb2dVertex
 10
266.032457
 20
77.064013
 30
0.0
  0
VERTEX
  5
374
100
AcDbEntity
  8
1
390
0
 62
     7
100
AcDbVertex
100
AcDb2dVertex
 10
266.026958
 20
77.089467
 30
0.0
  0
VERTEX
  5
375
100
AcDbEntity
  8
1
390
0
 62
     7
100
AcDbVertex
100
AcDb2dVertex
 10
266.022668
 20
77.115177
 30
0.0
  0
VERTEX
  5
376
100
AcDbEntity
  8
1
390
0
 62
     7
100
AcDbVertex
100
AcDb2dVertex
 10
266.019594
 20
77.141055
 30
0.0
  0
VERTEX
  5
377
100
AcDbEntity
  8
1
390
0
 62
     7
100
AcDbVertex
100
AcDb2dVertex
 10
266.017744
 20
77.167014
 30
0.0
  0
VERTEX
  5
378
100
AcDbEntity
  8
1
390
0
 62
     7
100
AcDbVertex
100
AcDb2dVertex
 10
266.017126
 20
77.192966
 30
0.0
  0
SEQEND
  5
379
100
AcDbEntity
  8
0
390
0
  0
LINE
  5
37A
100
AcDbEntity
  8
1
390
0
  6
Continuous
 62
     7
100
AcDbLine
 10
266.017126
 20
78.076299
 30
0.0
 11
266.017126
 21
77.192966
 31
0.0
  0
LINE
  5
37B
100
AcDbEntity
  8
1
390
0
  6
Continuous
 62
     7
100
AcDbLine
 10
265.283793
 20
78.076299
 30
0.0
 11
266.017126
 21
78.076299
 31
0.0
  0
LINE
  5
37C
100
AcDbEntity
  8
1
390
0
  6
Continuous
 62
     7
100
AcDbLine
 10
265.283793
 20
77.192966
 30
0.0
 11
265.283793
 21
78.076299
 31
0.0
  0
POLYLINE
  5
37D
100
AcDbEntity
  8
1
390
0
  6
Continuous
 62
     7
100
AcDb2dPolyline
 66
     1
 10
0.0
 20
0.0
 30
0.0
 40
3.0
 41
3.0
  0
VERTEX
  5
37E
100
AcDbEntity
  8
1
390
0
 62
     7
100
AcDbVertex
100
AcDb2dVertex
 10
265.283793
 20
77.192966
 30
0.0
  0
VERTEX
  5
37F
100
AcDbEntity
  8
1
390
0
 62
     7
100
AcDbVertex
100
AcDb2dVertex
 10
265.283327
 20
77.170387
 30
0.0
  0
VERTEX
  5
380
100
AcDbEntity
  8
1
390
0
 62
     7
100
AcDbVertex
100
AcDb2dVertex
 10
265.281933
 20
77.147811
 30
0.0
  0
VERTEX
  5
381
100
AcDbEntity
  8
1
390
0
 62
     7
100
AcDbVertex
100
AcDb2dVertex
 10
265.279612
 20
77.125295
 30
0.0
  0
VERTEX
  5
382
100
AcDbEntity
  8
1
390
0
 62
     7
100
AcDbVertex
100
AcDb2dVertex
 10
265.276368
 20
77.102897
 30
0.0
  0
VERTEX
  5
383
100
AcDbEntity
  8
1
390
0
 62
     7
100
AcDbVertex
100
AcDb2dVertex
 10
265.272065
 20
77.08
 30
0.0
  0
VERTEX
  5
384
100
AcDbEntity
  8
1
390
0
 62
     7
100
AcDbVertex
100
AcDb2dVertex
 10
265.266787
 20
77.05727
 30
0.0
  0
VERTEX
  5
385
100
AcDbEntity
  8
1
390
0
 62
     7
100
AcDbVertex
100
AcDb2dVertex
 10
265.260548
 20
77.034769
 30
0.0
  0
VERTEX
  5
386
100
AcDbEntity
  8
1
390
0
 62
     7
100
AcDbVertex
100
AcDb2dVertex
 10
265.253363
 20
77.01256
 30
0.0
  0
VERTEX
  5
387
100
AcDbEntity
  8
1
390
0
 62
     7
100
AcDbVertex
100
AcDb2dVertex
 10
265.245472
 20
76.991268
 30
0.0
  0
VERTEX
  5
388
100
AcDbEntity
  8
1
390
0
 62
     7
100
AcDbVertex
100
AcDb2dVertex
 10
265.236697
 20
76.970291
 30
0.0
  0
VERTEX
  5
389
100
AcDbEntity
  8
1
390
0
 62
     7
100
AcDbVertex
100
AcDb2dVertex
 10
265.227059
 20
76.949684
 30
0.0
  0
VERTEX
  5
38A
100
AcDbEntity
  8
1
390
0
 62
     7
100
AcDbVertex
100
AcDb2dVertex
 10
265.216583
 20
76.929502
 30
0.0
  0
VERTEX
  5
38B
100
AcDbEntity
  8
1
390
0
 62
     7
100
AcDbVertex
100
AcDb2dVertex
 10
265.204927
 20
76.909188
 30
0.0
  0
VERTEX
  5
38C
100
AcDbEntity
  8
1
390
0
 62
     7
100
AcDbVertex
100
AcDb2dVertex
 10
265.1924
 20
76.889362
 30
0.0
  0
VERTEX
  5
38D
100
AcDbEntity
  8
1
390
0
 62
     7
100
AcDbVertex
100
AcDb2dVertex
 10
265.179038
 20
76.870082
 30
0.0
  0
VERTEX
  5
38E
100
AcDbEntity
  8
1
390
0
 62
     7
100
AcDbVertex
100
AcDb2dVertex
 10
265.164877
 20
76.851401
 30
0.0
  0
VERTEX
  5
38F
100
AcDbEntity
  8
1
390
0
 62
     7
100
AcDbVertex
100
AcDb2dVertex
 10
265.150505
 20
76.83401
 30
0.0
  0
VERTEX
  5
390
100
AcDbEntity
  8
1
390
0
 62
     7
100
AcDbVertex
100
AcDb2dVertex
 10
265.135416
 20
76.817207
 30
0.0
  0
VERTEX
  5
391
100
AcDbEntity
  8
1
390
0
 62
     7
100
AcDbVertex
100
AcDb2dVertex
 10
265.119652
 20
76.801034
 30
0.0
  0
VERTEX
  5
392
100
AcDbEntity
  8
1
390
0
 62
     7
100
AcDbVertex
100
AcDb2dVertex
 10
265.103252
 20
76.785535
 30
0.0
  0
VERTEX
  5
393
100
AcDbEntity
  8
1
390
0
 62
     7
100
AcDbVertex
100
AcDb2dVertex
 10
265.085721
 20
76.770303
 30
0.0
  0
VERTEX
  5
394
100
AcDbEntity
  8
1
390
0
 62
     7
100
AcDbVertex
100
AcDb2dVertex
 10
265.067549
 20
76.755813
 30
0.0
  0
VERTEX
  5
395
100
AcDbEntity
  8
1
390
0
 62
     7
100
AcDbVertex
100
AcDb2dVertex
 10
265.048786
 20
76.742103
 30
0.0
  0
VERTEX
  5
396
100
AcDbEntity
  8
1
390
0
 62
     7
100
AcDbVertex
100
AcDb2dVertex
 10
265.029484
 20
76.729213
 30
0.0
  0
VERTEX
  5
397
100
AcDbEntity
  8
1
390
0
 62
     7
100
AcDbVertex
100
AcDb2dVertex
 10
265.010307
 20
76.717531
 30
0.0
  0
VERTEX
  5
398
100
AcDbEntity
  8
1
390
0
 62
     7
100
AcDbVertex
100
AcDb2dVertex
 10
264.990659
 20
76.706637
 30
0.0
  0
VERTEX
  5
399
100
AcDbEntity
  8
1
390
0
 62
     7
100
AcDbVertex
100
AcDb2dVertex
 10
264.970592
 20
76.696555
 30
0.0
  0
VERTEX
  5
39A
100
AcDbEntity
  8
1
390
0
 62
     7
100
AcDbVertex
100
AcDb2dVertex
 10
264.950157
 20
76.687311
 30
0.0
  0
VERTEX
  5
39B
100
AcDbEntity
  8
1
390
0
 62
     7
100
AcDbVertex
100
AcDb2dVertex
 10
264.92877
 20
76.678688
 30
0.0
  0
VERTEX
  5
39C
100
AcDbEntity
  8
1
390
0
 62
     7
100
AcDbVertex
100
AcDb2dVertex
 10
264.907033
 20
76.670966
 30
0.0
  0
VERTEX
  5
39D
100
AcDbEntity
  8
1
390
0
 62
     7
100
AcDbVertex
100
AcDb2dVertex
 10
264.885005
 20
76.664163
 30
0.0
  0
VERTEX
  5
39E
100
AcDbEntity
  8
1
390
0
 62
     7
100
AcDbVertex
100
AcDb2dVertex
 10
264.862746
 20
76.658297
 30
0.0
  0
VERTEX
  5
39F
100
AcDbEntity
  8
1
390
0
 62
     7
100
AcDbVertex
100
AcDb2dVertex
 10
264.837292
 20
76.652798
 30
0.0
  0
VERTEX
  5
3A0
100
AcDbEntity
  8
1
390
0
 62
     7
100
AcDbVertex
100
AcDb2dVertex
 10
264.811582
 20
76.648507
 30
0.0
  0
VERTEX
  5
3A1
100
AcDbEntity
  8
1
390
0
 62
     7
100
AcDbVertex
100
AcDb2dVertex
 10
264.785704
 20
76.645434
 30
0.0
  0
VERTEX
  5
3A2
100
AcDbEntity
  8
1
390
0
 62
     7
100
AcDbVertex
100
AcDb2dVertex
 10
264.759745
 20
76.643584
 30
0.0
  0
VERTEX
  5
3A3
100
AcDbEntity
  8
1
390
0
 62
     7
100
AcDbVertex
100
AcDb2dVertex
 10
264.733793
 20
76.642966
 30
0.0
  0
SEQEND
  5
3A4
100
AcDbEntity
  8
0
390
0
  0
POLYLINE
  5
3A5
100
AcDbEntity
  8
1
390
0
  6
Continuous
 62
     7
100
AcDb2dPolyline
 66
     1
 10
0.0
 20
0.0
 30
0.0
 40
3.0
 41
3.0
  0
VERTEX
  5
3A6
100
AcDbEntity
  8
1
390
0
 62
     7
100
AcDbVertex
100
AcDb2dVertex
 10
190.283793
 20
77.192966
 30
0.0
  0
VERTEX
  5
3A7
100
AcDbEntity
  8
1
390
0
 62
     7
100
AcDbVertex
100
AcDb2dVertex
 10
190.283327
 20
77.170387
 30
0.0
  0
VERTEX
  5
3A8
100
AcDbEntity
  8
1
390
0
 62
     7
100
AcDbVertex
100
AcDb2dVertex
 10
190.281933
 20
77.147811
 30
0.0
  0
VERTEX
  5
3A9
100
AcDbEntity
  8
1
390
0
 62
     7
100
AcDbVertex
100
AcDb2dVertex
 10
190.279612
 20
77.125295
 30
0.0
  0
VERTEX
  5
3AA
100
AcDbEntity
  8
1
390
0
 62
     7
100
AcDbVertex
100
AcDb2dVertex
 10
190.276368
 20
77.102897
 30
0.0
  0
VERTEX
  5
3AB
100
AcDbEntity
  8
1
390
0
 62
     7
100
AcDbVertex
100
AcDb2dVertex
 10
190.272065
 20
77.08
 30
0.0
  0
VERTEX
  5
3AC
100
AcDbEntity
  8
1
390
0
 62
     7
100
AcDbVertex
100
AcDb2dVertex
 10
190.266787
 20
77.05727
 30
0.0
  0
VERTEX
  5
3AD
100
AcDbEntity
  8
1
390
0
 62
     7
100
AcDbVertex
100
AcDb2dVertex
 10
190.260548
 20
77.034769
 30
0.0
  0
VERTEX
  5
3AE
100
AcDbEntity
  8
1
390
0
 62
     7
100
AcDbVertex
100
AcDb2dVertex
 10
190.253363
 20
77.01256
 30
0.0
  0
VERTEX
  5
3AF
100
AcDbEntity
  8
1
390
0
 62
     7
100
AcDbVertex
100
AcDb2dVertex
 10
190.245472
 20
76.991268
 30
0.0
  0
VERTEX
  5
3B0
100
AcDbEntity
  8
1
390
0
 62
     7
100
AcDbVertex
100
AcDb2dVertex
 10
190.236697
 20
76.970291
 30
0.0
  0
VERTEX
  5
3B1
100
AcDbEntity
  8
1
390
0
 62
     7
100
AcDbVertex
100
AcDb2dVertex
 10
190.227059
 20
76.949684
 30
0.0
  0
VERTEX
  5
3B2
100
AcDbEntity
  8
1
390
0
 62
     7
100
AcDbVertex
100
AcDb2dVertex
 10
190.216583
 20
76.929502
 30
0.0
  0
VERTEX
  5
3B3
100
AcDbEntity
  8
1
390
0
 62
     7
100
AcDbVertex
100
AcDb2dVertex
 10
190.204927
 20
76.909188
 30
0.0
  0
VERTEX
  5
3B4
100
AcDbEntity
  8
1
390
0
 62
     7
100
AcDbVertex
100
AcDb2dVertex
 10
190.1924
 20
76.889362
 30
0.0
  0
VERTEX
  5
3B5
100
AcDbEntity
  8
1
390
0
 62
     7
100
AcDbVertex
100
AcDb2dVertex
 10
190.179038
 20
76.870082
 30
0.0
  0
VERTEX
  5
3B6
100
AcDbEntity
  8
1
390
0
 62
     7
100
AcDbVertex
100
AcDb2dVertex
 10
190.164877
 20
76.851401
 30
0.0
  0
VERTEX
  5
3B7
100
AcDbEntity
  8
1
390
0
 62
     7
100
AcDbVertex
100
AcDb2dVertex
 10
190.150505
 20
76.83401
 30
0.0
  0
VERTEX
  5
3B8
100
AcDbEntity
  8
1
390
0
 62
     7
100
AcDbVertex
100
AcDb2dVertex
 10
190.135416
 20
76.817207
 30
0.0
  0
VERTEX
  5
3B9
100
AcDbEntity
  8
1
390
0
 62
     7
100
AcDbVertex
100
AcDb2dVertex
 10
190.119652
 20
76.801034
 30
0.0
  0
VERTEX
  5
3BA
100
AcDbEntity
  8
1
390
0
 62
     7
100
AcDbVertex
100
AcDb2dVertex
 10
190.103252
 20
76.785535
 30
0.0
  0
VERTEX
  5
3BB
100
AcDbEntity
  8
1
390
0
 62
     7
100
AcDbVertex
100
AcDb2dVertex
 10
190.085721
 20
76.770303
 30
0.0
  0
VERTEX
  5
3BC
100
AcDbEntity
  8
1
390
0
 62
     7
100
AcDbVertex
100
AcDb2dVertex
 10
190.067549
 20
76.755813
 30
0.0
  0
VERTEX
  5
3BD
100
AcDbEntity
  8
1
390
0
 62
     7
100
AcDbVertex
100
AcDb2dVertex
 10
190.048786
 20
76.742103
 30
0.0
  0
VERTEX
  5
3BE
100
AcDbEntity
  8
1
390
0
 62
     7
100
AcDbVertex
100
AcDb2dVertex
 10
190.029484
 20
76.729213
 30
0.0
  0
VERTEX
  5
3BF
100
AcDbEntity
  8
1
390
0
 62
     7
100
AcDbVertex
100
AcDb2dVertex
 10
190.010307
 20
76.717531
 30
0.0
  0
VERTEX
  5
3C0
100
AcDbEntity
  8
1
390
0
 62
     7
100
AcDbVertex
100
AcDb2dVertex
 10
189.990659
 20
76.706637
 30
0.0
  0
VERTEX
  5
3C1
100
AcDbEntity
  8
1
390
0
 62
     7
100
AcDbVertex
100
AcDb2dVertex
 10
189.970592
 20
76.696555
 30
0.0
  0
VERTEX
  5
3C2
100
AcDbEntity
  8
1
390
0
 62
     7
100
AcDbVertex
100
AcDb2dVertex
 10
189.950157
 20
76.687311
 30
0.0
  0
VERTEX
  5
3C3
100
AcDbEntity
  8
1
390
0
 62
     7
100
AcDbVertex
100
AcDb2dVertex
 10
189.92877
 20
76.678688
 30
0.0
  0
VERTEX
  5
3C4
100
AcDbEntity
  8
1
390
0
 62
     7
100
AcDbVertex
100
AcDb2dVertex
 10
189.907033
 20
76.670966
 30
0.0
  0
VERTEX
  5
3C5
100
AcDbEntity
  8
1
390
0
 62
     7
100
AcDbVertex
100
AcDb2dVertex
 10
189.885005
 20
76.664163
 30
0.0
  0
VERTEX
  5
3C6
100
AcDbEntity
  8
1
390
0
 62
     7
100
AcDbVertex
100
AcDb2dVertex
 10
189.862746
 20
76.658297
 30
0.0
  0
VERTEX
  5
3C7
100
AcDbEntity
  8
1
390
0
 62
     7
100
AcDbVertex
100
AcDb2dVertex
 10
189.837292
 20
76.652798
 30
0.0
  0
VERTEX
  5
3C8
100
AcDbEntity
  8
1
390
0
 62
     7
100
AcDbVertex
100
AcDb2dVertex
 10
189.811582
 20
76.648507
 30
0.0
  0
VERTEX
  5
3C9
100
AcDbEntity
  8
1
390
0
 62
     7
100
AcDbVertex
100
AcDb2dVertex
 10
189.785704
 20
76.645434
 30
0.0
  0
VERTEX
  5
3CA
100
AcDbEntity
  8
1
390
0
 62
     7
100
AcDbVertex
100
AcDb2dVertex
 10
189.759745
 20
76.643584
 30
0.0
  0
VERTEX
  5
3CB
100
AcDbEntity
  8
1
390
0
 62
     7
100
AcDbVertex
100
AcDb2dVertex
 10
189.733793
 20
76.642966
 30
0.0
  0
SEQEND
  5
3CC
100
AcDbEntity
  8
0
390
0
  0
LINE
  5
3CD
100
AcDbEntity
  8
1
390
0
  6
Continuous
 62
     7
100
AcDbLine
 10
188.850459
 20
76.642966
 30
0.0
 11
189.733793
 21
76.642966
 31
0.0
  0
LINE
  5
3CE
100
AcDbEntity
  8
1
390
0
  6
Continuous
 62
     7
100
AcDbLine
 10
188.850459
 20
75.909633
 30
0.0
 11
188.850459
 21
76.642966
 31
0.0
  0
LINE
  5
3CF
100
AcDbEntity
  8
1
390
0
  6
Continuous
 62
     7
100
AcDbLine
 10
189.733793
 20
75.909633
 30
0.0
 11
188.850459
 21
75.909633
 31
0.0
  0
POLYLINE
  5
3D0
100
AcDbEntity
  8
1
390
0
  6
Continuous
 62
     7
100
AcDb2dPolyline
 66
     1
 10
0.0
 20
0.0
 30
0.0
 40
3.0
 41
3.0
  0
VERTEX
  5
3D1
100
AcDbEntity
  8
1
390
0
 62
     7
100
AcDbVertex
100
AcDb2dVertex
 10
189.733793
 20
75.909633
 30
0.0
  0
VERTEX
  5
3D2
100
AcDbEntity
  8
1
390
0
 62
     7
100
AcDbVertex
100
AcDb2dVertex
 10
189.756372
 20
75.909167
 30
0.0
  0
VERTEX
  5
3D3
100
AcDbEntity
  8
1
390
0
 62
     7
100
AcDbVertex
100
AcDb2dVertex
 10
189.778948
 20
75.907773
 30
0.0
  0
VERTEX
  5
3D4
100
AcDbEntity
  8
1
390
0
 62
     7
100
AcDbVertex
100
AcDb2dVertex
 10
189.801464
 20
75.905452
 30
0.0
  0
VERTEX
  5
3D5
100
AcDbEntity
  8
1
390
0
 62
     7
100
AcDbVertex
100
AcDb2dVertex
 10
189.823861
 20
75.902208
 30
0.0
  0
VERTEX
  5
3D6
100
AcDbEntity
  8
1
390
0
 62
     7
100
AcDbVertex
100
AcDb2dVertex
 10
189.846758
 20
75.897904
 30
0.0
  0
VERTEX
  5
3D7
100
AcDbEntity
  8
1
390
0
 62
     7
100
AcDbVertex
100
AcDb2dVertex
 10
189.869489
 20
75.892627
 30
0.0
  0
VERTEX
  5
3D8
100
AcDbEntity
  8
1
390
0
 62
     7
100
AcDbVertex
100
AcDb2dVertex
 10
189.89199
 20
75.886388
 30
0.0
  0
VERTEX
  5
3D9
100
AcDbEntity
  8
1
390
0
 62
     7
100
AcDbVertex
100
AcDb2dVertex
 10
189.914199
 20
75.879203
 30
0.0
  0
VERTEX
  5
3DA
100
AcDbEntity
  8
1
390
0
 62
     7
100
AcDbVertex
100
AcDb2dVertex
 10
189.935491
 20
75.871312
 30
0.0
  0
VERTEX
  5
3DB
100
AcDbEntity
  8
1
390
0
 62
     7
100
AcDbVertex
100
AcDb2dVertex
 10
189.956467
 20
75.862537
 30
0.0
  0
VERTEX
  5
3DC
100
AcDbEntity
  8
1
390
0
 62
     7
100
AcDbVertex
100
AcDb2dVertex
 10
189.977074
 20
75.852899
 30
0.0
  0
VERTEX
  5
3DD
100
AcDbEntity
  8
1
390
0
 62
     7
100
AcDbVertex
100
AcDb2dVertex
 10
189.997257
 20
75.842423
 30
0.0
  0
VERTEX
  5
3DE
100
AcDbEntity
  8
1
390
0
 62
     7
100
AcDbVertex
100
AcDb2dVertex
 10
190.017571
 20
75.830767
 30
0.0
  0
VERTEX
  5
3DF
100
AcDbEntity
  8
1
390
0
 62
     7
100
AcDbVertex
100
AcDb2dVertex
 10
190.037396
 20
75.81824
 30
0.0
  0
VERTEX
  5
3E0
100
AcDbEntity
  8
1
390
0
 62
     7
100
AcDbVertex
100
AcDb2dVertex
 10
190.056677
 20
75.804878
 30
0.0
  0
VERTEX
  5
3E1
100
AcDbEntity
  8
1
390
0
 62
     7
100
AcDbVertex
100
AcDb2dVertex
 10
190.075357
 20
75.790717
 30
0.0
  0
VERTEX
  5
3E2
100
AcDbEntity
  8
1
390
0
 62
     7
100
AcDbVertex
100
AcDb2dVertex
 10
190.092748
 20
75.776344
 30
0.0
  0
VERTEX
  5
3E3
100
AcDbEntity
  8
1
390
0
 62
     7
100
AcDbVertex
100
AcDb2dVertex
 10
190.109552
 20
75.761256
 30
0.0
  0
VERTEX
  5
3E4
100
AcDbEntity
  8
1
390
0
 62
     7
100
AcDbVertex
100
AcDb2dVertex
 10
190.125725
 20
75.745492
 30
0.0
  0
VERTEX
  5
3E5
100
AcDbEntity
  8
1
390
0
 62
     7
100
AcDbVertex
100
AcDb2dVertex
 10
190.141223
 20
75.729092
 30
0.0
  0
VERTEX
  5
3E6
100
AcDbEntity
  8
1
390
0
 62
     7
100
AcDbVertex
100
AcDb2dVertex
 10
190.156456
 20
75.711561
 30
0.0
  0
VERTEX
  5
3E7
100
AcDbEntity
  8
1
390
0
 62
     7
100
AcDbVertex
100
AcDb2dVertex
 10
190.170946
 20
75.693389
 30
0.0
  0
VERTEX
  5
3E8
100
AcDbEntity
  8
1
390
0
 62
     7
100
AcDbVertex
100
AcDb2dVertex
 10
190.184655
 20
75.674626
 30
0.0
  0
VERTEX
  5
3E9
100
AcDbEntity
  8
1
390
0
 62
     7
100
AcDbVertex
100
AcDb2dVertex
 10
190.197546
 20
75.655324
 30
0.0
  0
VERTEX
  5
3EA
100
AcDbEntity
  8
1
390
0
 62
     7
100
AcDbVertex
100
AcDb2dVertex
 10
190.209227
 20
75.636147
 30
0.0
  0
VERTEX
  5
3EB
100
AcDbEntity
  8
1
390
0
 62
     7
100
AcDbVertex
100
AcDb2dVertex
 10
190.220122
 20
75.616499
 30
0.0
  0
VERTEX
  5
3EC
100
AcDbEntity
  8
1
390
0
 62
     7
100
AcDbVertex
100
AcDb2dVertex
 10
190.230204
 20
75.596432
 30
0.0
  0
VERTEX
  5
3ED
100
AcDbEntity
  8
1
390
0
 62
     7
100
AcDbVertex
100
AcDb2dVertex
 10
190.239447
 20
75.575997
 30
0.0
  0
VERTEX
  5
3EE
100
AcDbEntity
  8
1
390
0
 62
     7
100
AcDbVertex
100
AcDb2dVertex
 10
190.248071
 20
75.55461
 30
0.0
  0
VERTEX
  5
3EF
100
AcDbEntity
  8
1
390
0
 62
     7
100
AcDbVertex
100
AcDb2dVertex
 10
190.255793
 20
75.532873
 30
0.0
  0
VERTEX
  5
3F0
100
AcDbEntity
  8
1
390
0
 62
     7
100
AcDbVertex
100
AcDb2dVertex
 10
190.262596
 20
75.510845
 30
0.0
  0
VERTEX
  5
3F1
100
AcDbEntity
  8
1
390
0
 62
     7
100
AcDbVertex
100
AcDb2dVertex
 10
190.268462
 20
75.488585
 30
0.0
  0
VERTEX
  5
3F2
100
AcDbEntity
  8
1
390
0
 62
     7
100
AcDbVertex
100
AcDb2dVertex
 10
190.273961
 20
75.463131
 30
0.0
  0
VERTEX
  5
3F3
100
AcDbEntity
  8
1
390
0
 62
     7
100
AcDbVertex
100
AcDb2dVertex
 10
190.278251
 20
75.437422
 30
0.0
  0
VERTEX
  5
3F4
100
AcDbEntity
  8
1
390
0
 62
     7
100
AcDbVertex
100
AcDb2dVertex
 10
190.281325
 20
75.411544
 30
0.0
  0
VERTEX
  5
3F5
100
AcDbEntity
  8
1
390
0
 62
     7
100
AcDbVertex
100
AcDb2dVertex
 10
190.283175
 20
75.385585
 30
0.0
  0
VERTEX
  5
3F6
100
AcDbEntity
  8
1
390
0
 62
     7
100
AcDbVertex
100
AcDb2dVertex
 10
190.283793
 20
75.359633
 30
0.0
  0
SEQEND
  5
3F7
100
AcDbEntity
  8
0
390
0
  0
LINE
  5
3F8
100
AcDbEntity
  8
1
390
0
  6
Continuous
 62
     7
100
AcDbLine
 10
190.283793
 20
74.476299
 30
0.0
 11
190.283793
 21
75.359633
 31
0.0
  0
LINE
  5
3F9
100
AcDbEntity
  8
1
390
0
  6
Continuous
 62
     7
100
AcDbLine
 10
191.017126
 20
74.476299
 30
0.0
 11
190.283793
 21
74.476299
 31
0.0
  0
LINE
  5
3FA
100
AcDbEntity
  8
1
390
0
  6
Continuous
 62
     7
100
AcDbLine
 10
191.017126
 20
75.359633
 30
0.0
 11
191.017126
 21
74.476299
 31
0.0
  0
POLYLINE
  5
3FB
100
AcDbEntity
  8
1
390
0
  6
Continuous
 62
     7
100
AcDb2dPolyline
 66
     1
 10
0.0
 20
0.0
 30
0.0
 40
3.0
 41
3.0
  0
VERTEX
  5
3FC
100
AcDbEntity
  8
1
390
0
 62
     7
100
AcDbVertex
100
AcDb2dVertex
 10
191.017126
 20
75.359633
 30
0.0
  0
VERTEX
  5
3FD
100
AcDbEntity
  8
1
390
0
 62
     7
100
AcDbVertex
100
AcDb2dVertex
 10
191.017592
 20
75.382212
 30
0.0
  0
VERTEX
  5
3FE
100
AcDbEntity
  8
1
390
0
 62
     7
100
AcDbVertex
100
AcDb2dVertex
 10
191.018986
 20
75.404788
 30
0.0
  0
VERTEX
  5
3FF
100
AcDbEntity
  8
1
390
0
 62
     7
100
AcDbVertex
100
AcDb2dVertex
 10
191.021307
 20
75.427304
 30
0.0
  0
VERTEX
  5
400
100
AcDbEntity
  8
1
390
0
 62
     7
100
AcDbVertex
100
AcDb2dVertex
 10
191.024551
 20
75.449701
 30
0.0
  0
VERTEX
  5
401
100
AcDbEntity
  8
1
390
0
 62
     7
100
AcDbVertex
100
AcDb2dVertex
 10
191.028854
 20
75.472598
 30
0.0
  0
VERTEX
  5
402
100
AcDbEntity
  8
1
390
0
 62
     7
100
AcDbVertex
100
AcDb2dVertex
 10
191.034132
 20
75.495328
 30
0.0
  0
VERTEX
  5
403
100
AcDbEntity
  8
1
390
0
 62
     7
100
AcDbVertex
100
AcDb2dVertex
 10
191.040371
 20
75.51783
 30
0.0
  0
VERTEX
  5
404
100
AcDbEntity
  8
1
390
0
 62
     7
100
AcDbVertex
100
AcDb2dVertex
 10
191.047556
 20
75.540039
 30
0.0
  0
VERTEX
  5
405
100
AcDbEntity
  8
1
390
0
 62
     7
100
AcDbVertex
100
AcDb2dVertex
 10
191.055447
 20
75.56133
 30
0.0
  0
VERTEX
  5
406
100
AcDbEntity
  8
1
390
0
 62
     7
100
AcDbVertex
100
AcDb2dVertex
 10
191.064222
 20
75.582307
 30
0.0
  0
VERTEX
  5
407
100
AcDbEntity
  8
1
390
0
 62
     7
100
AcDbVertex
100
AcDb2dVertex
 10
191.073859
 20
75.602914
 30
0.0
  0
VERTEX
  5
408
100
AcDbEntity
  8
1
390
0
 62
     7
100
AcDbVertex
100
AcDb2dVertex
 10
191.084335
 20
75.623097
 30
0.0
  0
VERTEX
  5
409
100
AcDbEntity
  8
1
390
0
 62
     7
100
AcDbVertex
100
AcDb2dVertex
 10
191.095992
 20
75.643411
 30
0.0
  0
VERTEX
  5
40A
100
AcDbEntity
  8
1
390
0
 62
     7
100
AcDbVertex
100
AcDb2dVertex
 10
191.108519
 20
75.663236
 30
0.0
  0
VERTEX
  5
40B
100
AcDbEntity
  8
1
390
0
 62
     7
100
AcDbVertex
100
AcDb2dVertex
 10
191.121881
 20
75.682517
 30
0.0
  0
VERTEX
  5
40C
100
AcDbEntity
  8
1
390
0
 62
     7
100
AcDbVertex
100
AcDb2dVertex
 10
191.136042
 20
75.701197
 30
0.0
  0
VERTEX
  5
40D
100
AcDbEntity
  8
1
390
0
 62
     7
100
AcDbVertex
100
AcDb2dVertex
 10
191.150414
 20
75.718588
 30
0.0
  0
VERTEX
  5
40E
100
AcDbEntity
  8
1
390
0
 62
     7
100
AcDbVertex
100
AcDb2dVertex
 10
191.165503
 20
75.735392
 30
0.0
  0
VERTEX
  5
40F
100
AcDbEntity
  8
1
390
0
 62
     7
100
AcDbVertex
100
AcDb2dVertex
 10
191.181267
 20
75.751564
 30
0.0
  0
VERTEX
  5
410
100
AcDbEntity
  8
1
390
0
 62
     7
100
AcDbVertex
100
AcDb2dVertex
 10
191.197667
 20
75.767063
 30
0.0
  0
VERTEX
  5
411
100
AcDbEntity
  8
1
390
0
 62
     7
100
AcDbVertex
100
AcDb2dVertex
 10
191.215197
 20
75.782295
 30
0.0
  0
VERTEX
  5
412
100
AcDbEntity
  8
1
390
0
 62
     7
100
AcDbVertex
100
AcDb2dVertex
 10
191.23337
 20
75.796786
 30
0.0
  0
VERTEX
  5
413
100
AcDbEntity
  8
1
390
0
 62
     7
100
AcDbVertex
100
AcDb2dVertex
 10
191.252133
 20
75.810495
 30
0.0
  0
VERTEX
  5
414
100
AcDbEntity
  8
1
390
0
 62
     7
100
AcDbVertex
100
AcDb2dVertex
 10
191.271435
 20
75.823386
 30
0.0
  0
VERTEX
  5
415
100
AcDbEntity
  8
1
390
0
 62
     7
100
AcDbVertex
100
AcDb2dVertex
 10
191.290612
 20
75.835067
 30
0.0
  0
VERTEX
  5
416
100
AcDbEntity
  8
1
390
0
 62
     7
100
AcDbVertex
100
AcDb2dVertex
 10
191.31026
 20
75.845962
 30
0.0
  0
VERTEX
  5
417
100
AcDbEntity
  8
1
390
0
 62
     7
100
AcDbVertex
100
AcDb2dVertex
 10
191.330327
 20
75.856044
 30
0.0
  0
VERTEX
  5
418
100
AcDbEntity
  8
1
390
0
 62
     7
100
AcDbVertex
100
AcDb2dVertex
 10
191.350762
 20
75.865287
 30
0.0
  0
VERTEX
  5
419
100
AcDbEntity
  8
1
390
0
 62
     7
100
AcDbVertex
100
AcDb2dVertex
 10
191.372149
 20
75.87391
 30
0.0
  0
VERTEX
  5
41A
100
AcDbEntity
  8
1
390
0
 62
     7
100
AcDbVertex
100
AcDb2dVertex
 10
191.393886
 20
75.881632
 30
0.0
  0
VERTEX
  5
41B
100
AcDbEntity
  8
1
390
0
 62
     7
100
AcDbVertex
100
AcDb2dVertex
 10
191.415914
 20
75.888436
 30
0.0
  0
VERTEX
  5
41C
100
AcDbEntity
  8
1
390
0
 62
     7
100
AcDbVertex
100
AcDb2dVertex
 10
191.438173
 20
75.894302
 30
0.0
  0
VERTEX
  5
41D
100
AcDbEntity
  8
1
390
0
 62
     7
100
AcDbVertex
100
AcDb2dVertex
 10
191.463627
 20
75.899801
 30
0.0
  0
VERTEX
  5
41E
100
AcDbEntity
  8
1
390
0
 62
     7
100
AcDbVertex
100
AcDb2dVertex
 10
191.489337
 20
75.904091
 30
0.0
  0
VERTEX
  5
41F
100
AcDbEntity
  8
1
390
0
 62
     7
100
AcDbVertex
100
AcDb2dVertex
 10
191.515215
 20
75.907165
 30
0.0
  0
VERTEX
  5
420
100
AcDbEntity
  8
1
390
0
 62
     7
100
AcDbVertex
100
AcDb2dVertex
 10
191.541174
 20
75.909014
 30
0.0
  0
VERTEX
  5
421
100
AcDbEntity
  8
1
390
0
 62
     7
100
AcDbVertex
100
AcDb2dVertex
 10
191.567126
 20
75.909633
 30
0.0
  0
SEQEND
  5
422
100
AcDbEntity
  8
0
390
0
  0
LINE
  5
423
100
AcDbEntity
  8
1
390
0
  6
Continuous
 62
     7
100
AcDbLine
 10
192.450459
 20
75.909633
 30
0.0
 11
191.567126
 21
75.909633
 31
0.0
  0
LINE
  5
424
100
AcDbEntity
  8
1
390
0
  6
Continuous
 62
     7
100
AcDbLine
 10
192.450459
 20
76.642966
 30
0.0
 11
192.450459
 21
75.909633
 31
0.0
  0
LINE
  5
425
100
AcDbEntity
  8
1
390
0
  6
Continuous
 62
     7
100
AcDbLine
 10
191.567126
 20
76.642966
 30
0.0
 11
192.450459
 21
76.642966
 31
0.0
  0
POLYLINE
  5
426
100
AcDbEntity
  8
1
390
0
  6
Continuous
 62
     7
100
AcDb2dPolyline
 66
     1
 10
0.0
 20
0.0
 30
0.0
 40
3.0
 41
3.0
  0
VERTEX
  5
427
100
AcDbEntity
  8
1
390
0
 62
     7
100
AcDbVertex
100
AcDb2dVertex
 10
191.567126
 20
76.642966
 30
0.0
  0
VERTEX
  5
428
100
AcDbEntity
  8
1
390
0
 62
     7
100
AcDbVertex
100
AcDb2dVertex
 10
191.544547
 20
76.643431
 30
0.0
  0
VERTEX
  5
429
100
AcDbEntity
  8
1
390
0
 62
     7
100
AcDbVertex
100
AcDb2dVertex
 10
191.521971
 20
76.644826
 30
0.0
  0
VERTEX
  5
42A
100
AcDbEntity
  8
1
390
0
 62
     7
100
AcDbVertex
100
AcDb2dVertex
 10
191.499455
 20
76.647147
 30
0.0
  0
VERTEX
  5
42B
100
AcDbEntity
  8
1
390
0
 62
     7
100
AcDbVertex
100
AcDb2dVertex
 10
191.477058
 20
76.650391
 30
0.0
  0
VERTEX
  5
42C
100
AcDbEntity
  8
1
390
0
 62
     7
100
AcDbVertex
100
AcDb2dVertex
 10
191.454161
 20
76.654694
 30
0.0
  0
VERTEX
  5
42D
100
AcDbEntity
  8
1
390
0
 62
     7
100
AcDbVertex
100
AcDb2dVertex
 10
191.43143
 20
76.659972
 30
0.0
  0
VERTEX
  5
42E
100
AcDbEntity
  8
1
390
0
 62
     7
100
AcDbVertex
100
AcDb2dVertex
 10
191.408929
 20
76.66621
 30
0.0
  0
VERTEX
  5
42F
100
AcDbEntity
  8
1
390
0
 62
     7
100
AcDbVertex
100
AcDb2dVertex
 10
191.38672
 20
76.673395
 30
0.0
  0
VERTEX
  5
430
100
AcDbEntity
  8
1
390
0
 62
     7
100
AcDbVertex
100
AcDb2dVertex
 10
191.365428
 20
76.681286
 30
0.0
  0
VERTEX
  5
431
100
AcDbEntity
  8
1
390
0
 62
     7
100
AcDbVertex
100
AcDb2dVertex
 10
191.344452
 20
76.690062
 30
0.0
  0
VERTEX
  5
432
100
AcDbEntity
  8
1
390
0
 62
     7
100
AcDbVertex
100
AcDb2dVertex
 10
191.323845
 20
76.699699
 30
0.0
  0
VERTEX
  5
433
100
AcDbEntity
  8
1
390
0
 62
     7
100
AcDbVertex
100
AcDb2dVertex
 10
191.303662
 20
76.710175
 30
0.0
  0
VERTEX
  5
434
100
AcDbEntity
  8
1
390
0
 62
     7
100
AcDbVertex
100
AcDb2dVertex
 10
191.283348
 20
76.721832
 30
0.0
  0
VERTEX
  5
435
100
AcDbEntity
  8
1
390
0
 62
     7
100
AcDbVertex
100
AcDb2dVertex
 10
191.263523
 20
76.734359
 30
0.0
  0
VERTEX
  5
436
100
AcDbEntity
  8
1
390
0
 62
     7
100
AcDbVertex
100
AcDb2dVertex
 10
191.244242
 20
76.747721
 30
0.0
  0
VERTEX
  5
437
100
AcDbEntity
  8
1
390
0
 62
     7
100
AcDbVertex
100
AcDb2dVertex
 10
191.225562
 20
76.761882
 30
0.0
  0
VERTEX
  5
438
100
AcDbEntity
  8
1
390
0
 62
     7
100
AcDbVertex
100
AcDb2dVertex
 10
191.20817
 20
76.776254
 30
0.0
  0
VERTEX
  5
439
100
AcDbEntity
  8
1
390
0
 62
     7
100
AcDbVertex
100
AcDb2dVertex
 10
191.191367
 20
76.791343
 30
0.0
  0
VERTEX
  5
43A
100
AcDbEntity
  8
1
390
0
 62
     7
100
AcDbVertex
100
AcDb2dVertex
 10
191.175194
 20
76.807107
 30
0.0
  0
VERTEX
  5
43B
100
AcDbEntity
  8
1
390
0
 62
     7
100
AcDbVertex
100
AcDb2dVertex
 10
191.159696
 20
76.823506
 30
0.0
  0
VERTEX
  5
43C
100
AcDbEntity
  8
1
390
0
 62
     7
100
AcDbVertex
100
AcDb2dVertex
 10
191.144463
 20
76.841037
 30
0.0
  0
VERTEX
  5
43D
100
AcDbEntity
  8
1
390
0
 62
     7
100
AcDbVertex
100
AcDb2dVertex
 10
191.129973
 20
76.85921
 30
0.0
  0
VERTEX
  5
43E
100
AcDbEntity
  8
1
390
0
 62
     7
100
AcDbVertex
100
AcDb2dVertex
 10
191.116264
 20
76.877973
 30
0.0
  0
VERTEX
  5
43F
100
AcDbEntity
  8
1
390
0
 62
     7
100
AcDbVertex
100
AcDb2dVertex
 10
191.103373
 20
76.897275
 30
0.0
  0
VERTEX
  5
440
100
AcDbEntity
  8
1
390
0
 62
     7
100
AcDbVertex
100
AcDb2dVertex
 10
191.091692
 20
76.916452
 30
0.0
  0
VERTEX
  5
441
100
AcDbEntity
  8
1
390
0
 62
     7
100
AcDbVertex
100
AcDb2dVertex
 10
191.080797
 20
76.9361
 30
0.0
  0
VERTEX
  5
442
100
AcDbEntity
  8
1
390
0
 62
     7
100
AcDbVertex
100
AcDb2dVertex
 10
191.070715
 20
76.956167
 30
0.0
  0
VERTEX
  5
443
100
AcDbEntity
  8
1
390
0
 62
     7
100
AcDbVertex
100
AcDb2dVertex
 10
191.061472
 20
76.976602
 30
0.0
  0
VERTEX
  5
444
100
AcDbEntity
  8
1
390
0
 62
     7
100
AcDbVertex
100
AcDb2dVertex
 10
191.052848
 20
76.997988
 30
0.0
  0
VERTEX
  5
445
100
AcDbEntity
  8
1
390
0
 62
     7
100
AcDbVertex
100
AcDb2dVertex
 10
191.045126
 20
77.019725
 30
0.0
  0
VERTEX
  5
446
100
AcDbEntity
  8
1
390
0
 62
     7
100
AcDbVertex
100
AcDb2dVertex
 10
191.038323
 20
77.041753
 30
0.0
  0
VERTEX
  5
447
100
AcDbEntity
  8
1
390
0
 62
     7
100
AcDbVertex
100
AcDb2dVertex
 10
191.032457
 20
77.064013
 30
0.0
  0
VERTEX
  5
448
100
AcDbEntity
  8
1
390
0
 62
     7
100
AcDbVertex
100
AcDb2dVertex
 10
191.026958
 20
77.089467
 30
0.0
  0
VERTEX
  5
449
100
AcDbEntity
  8
1
390
0
 62
     7
100
AcDbVertex
100
AcDb2dVertex
 10
191.022668
 20
77.115177
 30
0.0
  0
VERTEX
  5
44A
100
AcDbEntity
  8
1
390
0
 62
     7
100
AcDbVertex
100
AcDb2dVertex
 10
191.019594
 20
77.141055
 30
0.0
  0
VERTEX
  5
44B
100
AcDbEntity
  8
1
390
0
 62
     7
100
AcDbVertex
100
AcDb2dVertex
 10
191.017744
 20
77.167014
 30
0.0
  0
VERTEX
  5
44C
100
AcDbEntity
  8
1
390
0
 62
     7
100
AcDbVertex
100
AcDb2dVertex
 10
191.017126
 20
77.192966
 30
0.0
  0
SEQEND
  5
44D
100
AcDbEntity
  8
0
390
0
  0
LINE
  5
44E
100
AcDbEntity
  8
1
390
0
  6
Continuous
 62
     7
100
AcDbLine
 10
191.017126
 20
78.076299
 30
0.0
 11
191.017126
 21
77.192966
 31
0.0
  0
LINE
  5
44F
100
AcDbEntity
  8
1
390
0
  6
Continuous
 62
     7
100
AcDbLine
 10
190.283793
 20
78.076299
 30
0.0
 11
191.017126
 21
78.076299
 31
0.0
  0
LINE
  5
450
100
AcDbEntity
  8
1
390
0
  6
Continuous
 62
     7
100
AcDbLine
 10
190.283793
 20
77.192966
 30
0.0
 11
190.283793
 21
78.076299
 31
0.0
  0
LINE
  5
451
100
AcDbEntity
  8
1
390
0
  6
Continuous
 62
     7
100
AcDbLine
 10
209.350459
 20
71.642966
 30
0.0
 11
210.233793
 21
71.642966
 31
0.0
  0
LINE
  5
452
100
AcDbEntity
  8
1
390
0
  6
Continuous
 62
     7
100
AcDbLine
 10
209.350459
 20
70.909633
 30
0.0
 11
209.350459
 21
71.642966
 31
0.0
  0
LINE
  5
453
100
AcDbEntity
  8
1
390
0
  6
Continuous
 62
     7
100
AcDbLine
 10
210.233793
 20
70.909633
 30
0.0
 11
209.350459
 21
70.909633
 31
0.0
  0
LINE
  5
454
100
AcDbEntity
  8
1
390
0
  6
Continuous
 62
     7
100
AcDbLine
 10
210.783793
 20
69.476299
 30
0.0
 11
210.783793
 21
70.359633
 31
0.0
  0
LINE
  5
455
100
AcDbEntity
  8
1
390
0
  6
Continuous
 62
     7
100
AcDbLine
 10
211.517126
 20
69.476299
 30
0.0
 11
210.783793
 21
69.476299
 31
0.0
  0
LINE
  5
456
100
AcDbEntity
  8
1
390
0
  6
Continuous
 62
     7
100
AcDbLine
 10
211.517126
 20
70.359633
 30
0.0
 11
211.517126
 21
69.476299
 31
0.0
  0
POLYLINE
  5
457
100
AcDbEntity
  8
1
390
0
  6
Continuous
 62
     7
100
AcDb2dPolyline
 66
     1
 10
0.0
 20
0.0
 30
0.0
 40
3.0
 41
3.0
  0
VERTEX
  5
458
100
AcDbEntity
  8
1
390
0
 62
     7
100
AcDbVertex
100
AcDb2dVertex
 10
211.517126
 20
70.359633
 30
0.0
  0
VERTEX
  5
459
100
AcDbEntity
  8
1
390
0
 62
     7
100
AcDbVertex
100
AcDb2dVertex
 10
211.517592
 20
70.382212
 30
0.0
  0
VERTEX
  5
45A
100
AcDbEntity
  8
1
390
0
 62
     7
100
AcDbVertex
100
AcDb2dVertex
 10
211.518986
 20
70.404788
 30
0.0
  0
VERTEX
  5
45B
100
AcDbEntity
  8
1
390
0
 62
     7
100
AcDbVertex
100
AcDb2dVertex
 10
211.521307
 20
70.427304
 30
0.0
  0
VERTEX
  5
45C
100
AcDbEntity
  8
1
390
0
 62
     7
100
AcDbVertex
100
AcDb2dVertex
 10
211.524551
 20
70.449701
 30
0.0
  0
VERTEX
  5
45D
100
AcDbEntity
  8
1
390
0
 62
     7
100
AcDbVertex
100
AcDb2dVertex
 10
211.528854
 20
70.472598
 30
0.0
  0
VERTEX
  5
45E
100
AcDbEntity
  8
1
390
0
 62
     7
100
AcDbVertex
100
AcDb2dVertex
 10
211.534132
 20
70.495328
 30
0.0
  0
VERTEX
  5
45F
100
AcDbEntity
  8
1
390
0
 62
     7
100
AcDbVertex
100
AcDb2dVertex
 10
211.540371
 20
70.51783
 30
0.0
  0
VERTEX
  5
460
100
AcDbEntity
  8
1
390
0
 62
     7
100
AcDbVertex
100
AcDb2dVertex
 10
211.547556
 20
70.540039
 30
0.0
  0
VERTEX
  5
461
100
AcDbEntity
  8
1
390
0
 62
     7
100
AcDbVertex
100
AcDb2dVertex
 10
211.555447
 20
70.56133
 30
0.0
  0
VERTEX
  5
462
100
AcDbEntity
  8
1
390
0
 62
     7
100
AcDbVertex
100
AcDb2dVertex
 10
211.564222
 20
70.582307
 30
0.0
  0
VERTEX
  5
463
100
AcDbEntity
  8
1
390
0
 62
     7
100
AcDbVertex
100
AcDb2dVertex
 10
211.573859
 20
70.602914
 30
0.0
  0
VERTEX
  5
464
100
AcDbEntity
  8
1
390
0
 62
     7
100
AcDbVertex
100
AcDb2dVertex
 10
211.584335
 20
70.623097
 30
0.0
  0
VERTEX
  5
465
100
AcDbEntity
  8
1
390
0
 62
     7
100
AcDbVertex
100
AcDb2dVertex
 10
211.595992
 20
70.643411
 30
0.0
  0
VERTEX
  5
466
100
AcDbEntity
  8
1
390
0
 62
     7
100
AcDbVertex
100
AcDb2dVertex
 10
211.608519
 20
70.663236
 30
0.0
  0
VERTEX
  5
467
100
AcDbEntity
  8
1
390
0
 62
     7
100
AcDbVertex
100
AcDb2dVertex
 10
211.621881
 20
70.682517
 30
0.0
  0
VERTEX
  5
468
100
AcDbEntity
  8
1
390
0
 62
     7
100
AcDbVertex
100
AcDb2dVertex
 10
211.636042
 20
70.701197
 30
0.0
  0
VERTEX
  5
469
100
AcDbEntity
  8
1
390
0
 62
     7
100
AcDbVertex
100
AcDb2dVertex
 10
211.650414
 20
70.718588
 30
0.0
  0
VERTEX
  5
46A
100
AcDbEntity
  8
1
390
0
 62
     7
100
AcDbVertex
100
AcDb2dVertex
 10
211.665503
 20
70.735392
 30
0.0
  0
VERTEX
  5
46B
100
AcDbEntity
  8
1
390
0
 62
     7
100
AcDbVertex
100
AcDb2dVertex
 10
211.681267
 20
70.751564
 30
0.0
  0
VERTEX
  5
46C
100
AcDbEntity
  8
1
390
0
 62
     7
100
AcDbVertex
100
AcDb2dVertex
 10
211.697667
 20
70.767063
 30
0.0
  0
VERTEX
  5
46D
100
AcDbEntity
  8
1
390
0
 62
     7
100
AcDbVertex
100
AcDb2dVertex
 10
211.715197
 20
70.782295
 30
0.0
  0
VERTEX
  5
46E
100
AcDbEntity
  8
1
390
0
 62
     7
100
AcDbVertex
100
AcDb2dVertex
 10
211.73337
 20
70.796786
 30
0.0
  0
VERTEX
  5
46F
100
AcDbEntity
  8
1
390
0
 62
     7
100
AcDbVertex
100
AcDb2dVertex
 10
211.752133
 20
70.810495
 30
0.0
  0
VERTEX
  5
470
100
AcDbEntity
  8
1
390
0
 62
     7
100
AcDbVertex
100
AcDb2dVertex
 10
211.771435
 20
70.823386
 30
0.0
  0
VERTEX
  5
471
100
AcDbEntity
  8
1
390
0
 62
     7
100
AcDbVertex
100
AcDb2dVertex
 10
211.790612
 20
70.835067
 30
0.0
  0
VERTEX
  5
472
100
AcDbEntity
  8
1
390
0
 62
     7
100
AcDbVertex
100
AcDb2dVertex
 10
211.81026
 20
70.845962
 30
0.0
  0
VERTEX
  5
473
100
AcDbEntity
  8
1
390
0
 62
     7
100
AcDbVertex
100
AcDb2dVertex
 10
211.830327
 20
70.856044
 30
0.0
  0
VERTEX
  5
474
100
AcDbEntity
  8
1
390
0
 62
     7
100
AcDbVertex
100
AcDb2dVertex
 10
211.850762
 20
70.865287
 30
0.0
  0
VERTEX
  5
475
100
AcDbEntity
  8
1
390
0
 62
     7
100
AcDbVertex
100
AcDb2dVertex
 10
211.872149
 20
70.87391
 30
0.0
  0
VERTEX
  5
476
100
AcDbEntity
  8
1
390
0
 62
     7
100
AcDbVertex
100
AcDb2dVertex
 10
211.893886
 20
70.881632
 30
0.0
  0
VERTEX
  5
477
100
AcDbEntity
  8
1
390
0
 62
     7
100
AcDbVertex
100
AcDb2dVertex
 10
211.915914
 20
70.888436
 30
0.0
  0
VERTEX
  5
478
100
AcDbEntity
  8
1
390
0
 62
     7
100
AcDbVertex
100
AcDb2dVertex
 10
211.938173
 20
70.894302
 30
0.0
  0
VERTEX
  5
479
100
AcDbEntity
  8
1
390
0
 62
     7
100
AcDbVertex
100
AcDb2dVertex
 10
211.963627
 20
70.899801
 30
0.0
  0
VERTEX
  5
47A
100
AcDbEntity
  8
1
390
0
 62
     7
100
AcDbVertex
100
AcDb2dVertex
 10
211.989337
 20
70.904091
 30
0.0
  0
VERTEX
  5
47B
100
AcDbEntity
  8
1
390
0
 62
     7
100
AcDbVertex
100
AcDb2dVertex
 10
212.015215
 20
70.907165
 30
0.0
  0
VERTEX
  5
47C
100
AcDbEntity
  8
1
390
0
 62
     7
100
AcDbVertex
100
AcDb2dVertex
 10
212.041174
 20
70.909014
 30
0.0
  0
VERTEX
  5
47D
100
AcDbEntity
  8
1
390
0
 62
     7
100
AcDbVertex
100
AcDb2dVertex
 10
212.067126
 20
70.909633
 30
0.0
  0
SEQEND
  5
47E
100
AcDbEntity
  8
0
390
0
  0
LINE
  5
47F
100
AcDbEntity
  8
1
390
0
  6
Continuous
 62
     7
100
AcDbLine
 10
212.950459
 20
70.909633
 30
0.0
 11
212.067126
 21
70.909633
 31
0.0
  0
LINE
  5
480
100
AcDbEntity
  8
1
390
0
  6
Continuous
 62
     7
100
AcDbLine
 10
212.950459
 20
71.642966
 30
0.0
 11
212.950459
 21
70.909633
 31
0.0
  0
LINE
  5
481
100
AcDbEntity
  8
1
390
0
  6
Continuous
 62
     7
100
AcDbLine
 10
212.067126
 20
71.642966
 30
0.0
 11
212.950459
 21
71.642966
 31
0.0
  0
LINE
  5
482
100
AcDbEntity
  8
1
390
0
  6
Continuous
 62
     7
100
AcDbLine
 10
211.517126
 20
73.076299
 30
0.0
 11
211.517126
 21
72.192966
 31
0.0
  0
LINE
  5
483
100
AcDbEntity
  8
1
390
0
  6
Continuous
 62
     7
100
AcDbLine
 10
210.783793
 20
73.076299
 30
0.0
 11
211.517126
 21
73.076299
 31
0.0
  0
LINE
  5
484
100
AcDbEntity
  8
1
390
0
  6
Continuous
 62
     7
100
AcDbLine
 10
210.783793
 20
72.192966
 30
0.0
 11
210.783793
 21
73.076299
 31
0.0
  0
POLYLINE
  5
485
100
AcDbEntity
  8
1
390
0
  6
Continuous
 62
     7
100
AcDb2dPolyline
 66
     1
 10
0.0
 20
0.0
 30
0.0
 40
3.0
 41
3.0
  0
VERTEX
  5
486
100
AcDbEntity
  8
1
390
0
 62
     7
100
AcDbVertex
100
AcDb2dVertex
 10
212.067126
 20
71.642966
 30
0.0
  0
VERTEX
  5
487
100
AcDbEntity
  8
1
390
0
 62
     7
100
AcDbVertex
100
AcDb2dVertex
 10
212.044547
 20
71.643431
 30
0.0
  0
VERTEX
  5
488
100
AcDbEntity
  8
1
390
0
 62
     7
100
AcDbVertex
100
AcDb2dVertex
 10
212.021971
 20
71.644826
 30
0.0
  0
VERTEX
  5
489
100
AcDbEntity
  8
1
390
0
 62
     7
100
AcDbVertex
100
AcDb2dVertex
 10
211.999455
 20
71.647147
 30
0.0
  0
VERTEX
  5
48A
100
AcDbEntity
  8
1
390
0
 62
     7
100
AcDbVertex
100
AcDb2dVertex
 10
211.977058
 20
71.650391
 30
0.0
  0
VERTEX
  5
48B
100
AcDbEntity
  8
1
390
0
 62
     7
100
AcDbVertex
100
AcDb2dVertex
 10
211.954161
 20
71.654694
 30
0.0
  0
VERTEX
  5
48C
100
AcDbEntity
  8
1
390
0
 62
     7
100
AcDbVertex
100
AcDb2dVertex
 10
211.93143
 20
71.659972
 30
0.0
  0
VERTEX
  5
48D
100
AcDbEntity
  8
1
390
0
 62
     7
100
AcDbVertex
100
AcDb2dVertex
 10
211.908929
 20
71.66621
 30
0.0
  0
VERTEX
  5
48E
100
AcDbEntity
  8
1
390
0
 62
     7
100
AcDbVertex
100
AcDb2dVertex
 10
211.88672
 20
71.673395
 30
0.0
  0
VERTEX
  5
48F
100
AcDbEntity
  8
1
390
0
 62
     7
100
AcDbVertex
100
AcDb2dVertex
 10
211.865428
 20
71.681286
 30
0.0
  0
VERTEX
  5
490
100
AcDbEntity
  8
1
390
0
 62
     7
100
AcDbVertex
100
AcDb2dVertex
 10
211.844452
 20
71.690062
 30
0.0
  0
VERTEX
  5
491
100
AcDbEntity
  8
1
390
0
 62
     7
100
AcDbVertex
100
AcDb2dVertex
 10
211.823845
 20
71.699699
 30
0.0
  0
VERTEX
  5
492
100
AcDbEntity
  8
1
390
0
 62
     7
100
AcDbVertex
100
AcDb2dVertex
 10
211.803662
 20
71.710175
 30
0.0
  0
VERTEX
  5
493
100
AcDbEntity
  8
1
390
0
 62
     7
100
AcDbVertex
100
AcDb2dVertex
 10
211.783348
 20
71.721832
 30
0.0
  0
VERTEX
  5
494
100
AcDbEntity
  8
1
390
0
 62
     7
100
AcDbVertex
100
AcDb2dVertex
 10
211.763523
 20
71.734359
 30
0.0
  0
VERTEX
  5
495
100
AcDbEntity
  8
1
390
0
 62
     7
100
AcDbVertex
100
AcDb2dVertex
 10
211.744242
 20
71.747721
 30
0.0
  0
VERTEX
  5
496
100
AcDbEntity
  8
1
390
0
 62
     7
100
AcDbVertex
100
AcDb2dVertex
 10
211.725562
 20
71.761882
 30
0.0
  0
VERTEX
  5
497
100
AcDbEntity
  8
1
390
0
 62
     7
100
AcDbVertex
100
AcDb2dVertex
 10
211.70817
 20
71.776254
 30
0.0
  0
VERTEX
  5
498
100
AcDbEntity
  8
1
390
0
 62
     7
100
AcDbVertex
100
AcDb2dVertex
 10
211.691367
 20
71.791343
 30
0.0
  0
VERTEX
  5
499
100
AcDbEntity
  8
1
390
0
 62
     7
100
AcDbVertex
100
AcDb2dVertex
 10
211.675194
 20
71.807107
 30
0.0
  0
VERTEX
  5
49A
100
AcDbEntity
  8
1
390
0
 62
     7
100
AcDbVertex
100
AcDb2dVertex
 10
211.659696
 20
71.823506
 30
0.0
  0
VERTEX
  5
49B
100
AcDbEntity
  8
1
390
0
 62
     7
100
AcDbVertex
100
AcDb2dVertex
 10
211.644463
 20
71.841037
 30
0.0
  0
VERTEX
  5
49C
100
AcDbEntity
  8
1
390
0
 62
     7
100
AcDbVertex
100
AcDb2dVertex
 10
211.629973
 20
71.85921
 30
0.0
  0
VERTEX
  5
49D
100
AcDbEntity
  8
1
390
0
 62
     7
100
AcDbVertex
100
AcDb2dVertex
 10
211.616264
 20
71.877973
 30
0.0
  0
VERTEX
  5
49E
100
AcDbEntity
  8
1
390
0
 62
     7
100
AcDbVertex
100
AcDb2dVertex
 10
211.603373
 20
71.897275
 30
0.0
  0
VERTEX
  5
49F
100
AcDbEntity
  8
1
390
0
 62
     7
100
AcDbVertex
100
AcDb2dVertex
 10
211.591692
 20
71.916452
 30
0.0
  0
VERTEX
  5
4A0
100
AcDbEntity
  8
1
390
0
 62
     7
100
AcDbVertex
100
AcDb2dVertex
 10
211.580797
 20
71.9361
 30
0.0
  0
VERTEX
  5
4A1
100
AcDbEntity
  8
1
390
0
 62
     7
100
AcDbVertex
100
AcDb2dVertex
 10
211.570715
 20
71.956167
 30
0.0
  0
VERTEX
  5
4A2
100
AcDbEntity
  8
1
390
0
 62
     7
100
AcDbVertex
100
AcDb2dVertex
 10
211.561472
 20
71.976602
 30
0.0
  0
VERTEX
  5
4A3
100
AcDbEntity
  8
1
390
0
 62
     7
100
AcDbVertex
100
AcDb2dVertex
 10
211.552848
 20
71.997988
 30
0.0
  0
VERTEX
  5
4A4
100
AcDbEntity
  8
1
390
0
 62
     7
100
AcDbVertex
100
AcDb2dVertex
 10
211.545126
 20
72.019725
 30
0.0
  0
VERTEX
  5
4A5
100
AcDbEntity
  8
1
390
0
 62
     7
100
AcDbVertex
100
AcDb2dVertex
 10
211.538323
 20
72.041753
 30
0.0
  0
VERTEX
  5
4A6
100
AcDbEntity
  8
1
390
0
 62
     7
100
AcDbVertex
100
AcDb2dVertex
 10
211.532457
 20
72.064013
 30
0.0
  0
VERTEX
  5
4A7
100
AcDbEntity
  8
1
390
0
 62
     7
100
AcDbVertex
100
AcDb2dVertex
 10
211.526958
 20
72.089467
 30
0.0
  0
VERTEX
  5
4A8
100
AcDbEntity
  8
1
390
0
 62
     7
100
AcDbVertex
100
AcDb2dVertex
 10
211.522668
 20
72.115177
 30
0.0
  0
VERTEX
  5
4A9
100
AcDbEntity
  8
1
390
0
 62
     7
100
AcDbVertex
100
AcDb2dVertex
 10
211.519594
 20
72.141055
 30
0.0
  0
VERTEX
  5
4AA
100
AcDbEntity
  8
1
390
0
 62
     7
100
AcDbVertex
100
AcDb2dVertex
 10
211.517744
 20
72.167014
 30
0.0
  0
VERTEX
  5
4AB
100
AcDbEntity
  8
1
390
0
 62
     7
100
AcDbVertex
100
AcDb2dVertex
 10
211.517126
 20
72.192966
 30
0.0
  0
SEQEND
  5
4AC
100
AcDbEntity
  8
0
390
0
  0
POLYLINE
  5
4AD
100
AcDbEntity
  8
1
390
0
  6
Continuous
 62
     7
100
AcDb2dPolyline
 66
     1
 10
0.0
 20
0.0
 30
0.0
 40
3.0
 41
3.0
  0
VERTEX
  5
4AE
100
AcDbEntity
  8
1
390
0
 62
     7
100
AcDbVertex
100
AcDb2dVertex
 10
210.783793
 20
72.192966
 30
0.0
  0
VERTEX
  5
4AF
100
AcDbEntity
  8
1
390
0
 62
     7
100
AcDbVertex
100
AcDb2dVertex
 10
210.783327
 20
72.170387
 30
0.0
  0
VERTEX
  5
4B0
100
AcDbEntity
  8
1
390
0
 62
     7
100
AcDbVertex
100
AcDb2dVertex
 10
210.781933
 20
72.147811
 30
0.0
  0
VERTEX
  5
4B1
100
AcDbEntity
  8
1
390
0
 62
     7
100
AcDbVertex
100
AcDb2dVertex
 10
210.779612
 20
72.125295
 30
0.0
  0
VERTEX
  5
4B2
100
AcDbEntity
  8
1
390
0
 62
     7
100
AcDbVertex
100
AcDb2dVertex
 10
210.776368
 20
72.102897
 30
0.0
  0
VERTEX
  5
4B3
100
AcDbEntity
  8
1
390
0
 62
     7
100
AcDbVertex
100
AcDb2dVertex
 10
210.772065
 20
72.08
 30
0.0
  0
VERTEX
  5
4B4
100
AcDbEntity
  8
1
390
0
 62
     7
100
AcDbVertex
100
AcDb2dVertex
 10
210.766787
 20
72.05727
 30
0.0
  0
VERTEX
  5
4B5
100
AcDbEntity
  8
1
390
0
 62
     7
100
AcDbVertex
100
AcDb2dVertex
 10
210.760548
 20
72.034769
 30
0.0
  0
VERTEX
  5
4B6
100
AcDbEntity
  8
1
390
0
 62
     7
100
AcDbVertex
100
AcDb2dVertex
 10
210.753363
 20
72.01256
 30
0.0
  0
VERTEX
  5
4B7
100
AcDbEntity
  8
1
390
0
 62
     7
100
AcDbVertex
100
AcDb2dVertex
 10
210.745472
 20
71.991268
 30
0.0
  0
VERTEX
  5
4B8
100
AcDbEntity
  8
1
390
0
 62
     7
100
AcDbVertex
100
AcDb2dVertex
 10
210.736697
 20
71.970291
 30
0.0
  0
VERTEX
  5
4B9
100
AcDbEntity
  8
1
390
0
 62
     7
100
AcDbVertex
100
AcDb2dVertex
 10
210.727059
 20
71.949684
 30
0.0
  0
VERTEX
  5
4BA
100
AcDbEntity
  8
1
390
0
 62
     7
100
AcDbVertex
100
AcDb2dVertex
 10
210.716583
 20
71.929502
 30
0.0
  0
VERTEX
  5
4BB
100
AcDbEntity
  8
1
390
0
 62
     7
100
AcDbVertex
100
AcDb2dVertex
 10
210.704927
 20
71.909188
 30
0.0
  0
VERTEX
  5
4BC
100
AcDbEntity
  8
1
390
0
 62
     7
100
AcDbVertex
100
AcDb2dVertex
 10
210.6924
 20
71.889362
 30
0.0
  0
VERTEX
  5
4BD
100
AcDbEntity
  8
1
390
0
 62
     7
100
AcDbVertex
100
AcDb2dVertex
 10
210.679038
 20
71.870082
 30
0.0
  0
VERTEX
  5
4BE
100
AcDbEntity
  8
1
390
0
 62
     7
100
AcDbVertex
100
AcDb2dVertex
 10
210.664877
 20
71.851401
 30
0.0
  0
VERTEX
  5
4BF
100
AcDbEntity
  8
1
390
0
 62
     7
100
AcDbVertex
100
AcDb2dVertex
 10
210.650505
 20
71.83401
 30
0.0
  0
VERTEX
  5
4C0
100
AcDbEntity
  8
1
390
0
 62
     7
100
AcDbVertex
100
AcDb2dVertex
 10
210.635416
 20
71.817207
 30
0.0
  0
VERTEX
  5
4C1
100
AcDbEntity
  8
1
390
0
 62
     7
100
AcDbVertex
100
AcDb2dVertex
 10
210.619652
 20
71.801034
 30
0.0
  0
VERTEX
  5
4C2
100
AcDbEntity
  8
1
390
0
 62
     7
100
AcDbVertex
100
AcDb2dVertex
 10
210.603252
 20
71.785535
 30
0.0
  0
VERTEX
  5
4C3
100
AcDbEntity
  8
1
390
0
 62
     7
100
AcDbVertex
100
AcDb2dVertex
 10
210.585721
 20
71.770303
 30
0.0
  0
VERTEX
  5
4C4
100
AcDbEntity
  8
1
390
0
 62
     7
100
AcDbVertex
100
AcDb2dVertex
 10
210.567549
 20
71.755813
 30
0.0
  0
VERTEX
  5
4C5
100
AcDbEntity
  8
1
390
0
 62
     7
100
AcDbVertex
100
AcDb2dVertex
 10
210.548786
 20
71.742103
 30
0.0
  0
VERTEX
  5
4C6
100
AcDbEntity
  8
1
390
0
 62
     7
100
AcDbVertex
100
AcDb2dVertex
 10
210.529484
 20
71.729213
 30
0.0
  0
VERTEX
  5
4C7
100
AcDbEntity
  8
1
390
0
 62
     7
100
AcDbVertex
100
AcDb2dVertex
 10
210.510307
 20
71.717531
 30
0.0
  0
VERTEX
  5
4C8
100
AcDbEntity
  8
1
390
0
 62
     7
100
AcDbVertex
100
AcDb2dVertex
 10
210.490659
 20
71.706637
 30
0.0
  0
VERTEX
  5
4C9
100
AcDbEntity
  8
1
390
0
 62
     7
100
AcDbVertex
100
AcDb2dVertex
 10
210.470592
 20
71.696555
 30
0.0
  0
VERTEX
  5
4CA
100
AcDbEntity
  8
1
390
0
 62
     7
100
AcDbVertex
100
AcDb2dVertex
 10
210.450157
 20
71.687311
 30
0.0
  0
VERTEX
  5
4CB
100
AcDbEntity
  8
1
390
0
 62
     7
100
AcDbVertex
100
AcDb2dVertex
 10
210.42877
 20
71.678688
 30
0.0
  0
VERTEX
  5
4CC
100
AcDbEntity
  8
1
390
0
 62
     7
100
AcDbVertex
100
AcDb2dVertex
 10
210.407033
 20
71.670966
 30
0.0
  0
VERTEX
  5
4CD
100
AcDbEntity
  8
1
390
0
 62
     7
100
AcDbVertex
100
AcDb2dVertex
 10
210.385005
 20
71.664163
 30
0.0
  0
VERTEX
  5
4CE
100
AcDbEntity
  8
1
390
0
 62
     7
100
AcDbVertex
100
AcDb2dVertex
 10
210.362746
 20
71.658297
 30
0.0
  0
VERTEX
  5
4CF
100
AcDbEntity
  8
1
390
0
 62
     7
100
AcDbVertex
100
AcDb2dVertex
 10
210.337292
 20
71.652798
 30
0.0
  0
VERTEX
  5
4D0
100
AcDbEntity
  8
1
390
0
 62
     7
100
AcDbVertex
100
AcDb2dVertex
 10
210.311582
 20
71.648507
 30
0.0
  0
VERTEX
  5
4D1
100
AcDbEntity
  8
1
390
0
 62
     7
100
AcDbVertex
100
AcDb2dVertex
 10
210.285704
 20
71.645434
 30
0.0
  0
VERTEX
  5
4D2
100
AcDbEntity
  8
1
390
0
 62
     7
100
AcDbVertex
100
AcDb2dVertex
 10
210.259745
 20
71.643584
 30
0.0
  0
VERTEX
  5
4D3
100
AcDbEntity
  8
1
390
0
 62
     7
100
AcDbVertex
100
AcDb2dVertex
 10
210.233793
 20
71.642966
 30
0.0
  0
SEQEND
  5
4D4
100
AcDbEntity
  8
0
390
0
  0
POLYLINE
  5
4D5
100
AcDbEntity
  8
1
390
0
  6
Continuous
 62
     7
100
AcDb2dPolyline
 66
     1
 10
0.0
 20
0.0
 30
0.0
 40
3.0
 41
3.0
  0
VERTEX
  5
4D6
100
AcDbEntity
  8
1
390
0
 62
     7
100
AcDbVertex
100
AcDb2dVertex
 10
210.233793
 20
70.909633
 30
0.0
  0
VERTEX
  5
4D7
100
AcDbEntity
  8
1
390
0
 62
     7
100
AcDbVertex
100
AcDb2dVertex
 10
210.256372
 20
70.909167
 30
0.0
  0
VERTEX
  5
4D8
100
AcDbEntity
  8
1
390
0
 62
     7
100
AcDbVertex
100
AcDb2dVertex
 10
210.278948
 20
70.907773
 30
0.0
  0
VERTEX
  5
4D9
100
AcDbEntity
  8
1
390
0
 62
     7
100
AcDbVertex
100
AcDb2dVertex
 10
210.301464
 20
70.905452
 30
0.0
  0
VERTEX
  5
4DA
100
AcDbEntity
  8
1
390
0
 62
     7
100
AcDbVertex
100
AcDb2dVertex
 10
210.323861
 20
70.902208
 30
0.0
  0
VERTEX
  5
4DB
100
AcDbEntity
  8
1
390
0
 62
     7
100
AcDbVertex
100
AcDb2dVertex
 10
210.346758
 20
70.897904
 30
0.0
  0
VERTEX
  5
4DC
100
AcDbEntity
  8
1
390
0
 62
     7
100
AcDbVertex
100
AcDb2dVertex
 10
210.369489
 20
70.892627
 30
0.0
  0
VERTEX
  5
4DD
100
AcDbEntity
  8
1
390
0
 62
     7
100
AcDbVertex
100
AcDb2dVertex
 10
210.39199
 20
70.886388
 30
0.0
  0
VERTEX
  5
4DE
100
AcDbEntity
  8
1
390
0
 62
     7
100
AcDbVertex
100
AcDb2dVertex
 10
210.414199
 20
70.879203
 30
0.0
  0
VERTEX
  5
4DF
100
AcDbEntity
  8
1
390
0
 62
     7
100
AcDbVertex
100
AcDb2dVertex
 10
210.435491
 20
70.871312
 30
0.0
  0
VERTEX
  5
4E0
100
AcDbEntity
  8
1
390
0
 62
     7
100
AcDbVertex
100
AcDb2dVertex
 10
210.456467
 20
70.862537
 30
0.0
  0
VERTEX
  5
4E1
100
AcDbEntity
  8
1
390
0
 62
     7
100
AcDbVertex
100
AcDb2dVertex
 10
210.477074
 20
70.852899
 30
0.0
  0
VERTEX
  5
4E2
100
AcDbEntity
  8
1
390
0
 62
     7
100
AcDbVertex
100
AcDb2dVertex
 10
210.497257
 20
70.842423
 30
0.0
  0
VERTEX
  5
4E3
100
AcDbEntity
  8
1
390
0
 62
     7
100
AcDbVertex
100
AcDb2dVertex
 10
210.517571
 20
70.830767
 30
0.0
  0
VERTEX
  5
4E4
100
AcDbEntity
  8
1
390
0
 62
     7
100
AcDbVertex
100
AcDb2dVertex
 10
210.537396
 20
70.81824
 30
0.0
  0
VERTEX
  5
4E5
100
AcDbEntity
  8
1
390
0
 62
     7
100
AcDbVertex
100
AcDb2dVertex
 10
210.556677
 20
70.804878
 30
0.0
  0
VERTEX
  5
4E6
100
AcDbEntity
  8
1
390
0
 62
     7
100
AcDbVertex
100
AcDb2dVertex
 10
210.575357
 20
70.790717
 30
0.0
  0
VERTEX
  5
4E7
100
AcDbEntity
  8
1
390
0
 62
     7
100
AcDbVertex
100
AcDb2dVertex
 10
210.592748
 20
70.776344
 30
0.0
  0
VERTEX
  5
4E8
100
AcDbEntity
  8
1
390
0
 62
     7
100
AcDbVertex
100
AcDb2dVertex
 10
210.609552
 20
70.761256
 30
0.0
  0
VERTEX
  5
4E9
100
AcDbEntity
  8
1
390
0
 62
     7
100
AcDbVertex
100
AcDb2dVertex
 10
210.625725
 20
70.745492
 30
0.0
  0
VERTEX
  5
4EA
100
AcDbEntity
  8
1
390
0
 62
     7
100
AcDbVertex
100
AcDb2dVertex
 10
210.641223
 20
70.729092
 30
0.0
  0
VERTEX
  5
4EB
100
AcDbEntity
  8
1
390
0
 62
     7
100
AcDbVertex
100
AcDb2dVertex
 10
210.656456
 20
70.711561
 30
0.0
  0
VERTEX
  5
4EC
100
AcDbEntity
  8
1
390
0
 62
     7
100
AcDbVertex
100
AcDb2dVertex
 10
210.670946
 20
70.693389
 30
0.0
  0
VERTEX
  5
4ED
100
AcDbEntity
  8
1
390
0
 62
     7
100
AcDbVertex
100
AcDb2dVertex
 10
210.684655
 20
70.674626
 30
0.0
  0
VERTEX
  5
4EE
100
AcDbEntity
  8
1
390
0
 62
     7
100
AcDbVertex
100
AcDb2dVertex
 10
210.697546
 20
70.655324
 30
0.0
  0
VERTEX
  5
4EF
100
AcDbEntity
  8
1
390
0
 62
     7
100
AcDbVertex
100
AcDb2dVertex
 10
210.709227
 20
70.636147
 30
0.0
  0
VERTEX
  5
4F0
100
AcDbEntity
  8
1
390
0
 62
     7
100
AcDbVertex
100
AcDb2dVertex
 10
210.720122
 20
70.616499
 30
0.0
  0
VERTEX
  5
4F1
100
AcDbEntity
  8
1
390
0
 62
     7
100
AcDbVertex
100
AcDb2dVertex
 10
210.730204
 20
70.596432
 30
0.0
  0
VERTEX
  5
4F2
100
AcDbEntity
  8
1
390
0
 62
     7
100
AcDbVertex
100
AcDb2dVertex
 10
210.739447
 20
70.575997
 30
0.0
  0
VERTEX
  5
4F3
100
AcDbEntity
  8
1
390
0
 62
     7
100
AcDbVertex
100
AcDb2dVertex
 10
210.748071
 20
70.55461
 30
0.0
  0
VERTEX
  5
4F4
100
AcDbEntity
  8
1
390
0
 62
     7
100
AcDbVertex
100
AcDb2dVertex
 10
210.755793
 20
70.532873
 30
0.0
  0
VERTEX
  5
4F5
100
AcDbEntity
  8
1
390
0
 62
     7
100
AcDbVertex
100
AcDb2dVertex
 10
210.762596
 20
70.510845
 30
0.0
  0
VERTEX
  5
4F6
100
AcDbEntity
  8
1
390
0
 62
     7
100
AcDbVertex
100
AcDb2dVertex
 10
210.768462
 20
70.488585
 30
0.0
  0
VERTEX
  5
4F7
100
AcDbEntity
  8
1
390
0
 62
     7
100
AcDbVertex
100
AcDb2dVertex
 10
210.773961
 20
70.463131
 30
0.0
  0
VERTEX
  5
4F8
100
AcDbEntity
  8
1
390
0
 62
     7
100
AcDbVertex
100
AcDb2dVertex
 10
210.778251
 20
70.437422
 30
0.0
  0
VERTEX
  5
4F9
100
AcDbEntity
  8
1
390
0
 62
     7
100
AcDbVertex
100
AcDb2dVertex
 10
210.781325
 20
70.411544
 30
0.0
  0
VERTEX
  5
4FA
100
AcDbEntity
  8
1
390
0
 62
     7
100
AcDbVertex
100
AcDb2dVertex
 10
210.783175
 20
70.385585
 30
0.0
  0
VERTEX
  5
4FB
100
AcDbEntity
  8
1
390
0
 62
     7
100
AcDbVertex
100
AcDb2dVertex
 10
210.783793
 20
70.359633
 30
0.0
  0
SEQEND
  5
4FC
100
AcDbEntity
  8
0
390
0
  0
POLYLINE
  5
4FD
100
AcDbEntity
  8
1
390
0
  6
Continuous
 62
     7
100
AcDb2dPolyline
 66
     1
 10
0.0
 20
0.0
 30
0.0
 40
3.0
 41
3.0
  0
VERTEX
  5
4FE
100
AcDbEntity
  8
1
390
0
 62
     7
100
AcDbVertex
100
AcDb2dVertex
 10
244.783793
 20
72.192966
 30
0.0
  0
VERTEX
  5
4FF
100
AcDbEntity
  8
1
390
0
 62
     7
100
AcDbVertex
100
AcDb2dVertex
 10
244.783327
 20
72.170387
 30
0.0
  0
VERTEX
  5
500
100
AcDbEntity
  8
1
390
0
 62
     7
100
AcDbVertex
100
AcDb2dVertex
 10
244.781933
 20
72.147811
 30
0.0
  0
VERTEX
  5
501
100
AcDbEntity
  8
1
390
0
 62
     7
100
AcDbVertex
100
AcDb2dVertex
 10
244.779612
 20
72.125295
 30
0.0
  0
VERTEX
  5
502
100
AcDbEntity
  8
1
390
0
 62
     7
100
AcDbVertex
100
AcDb2dVertex
 10
244.776368
 20
72.102897
 30
0.0
  0
VERTEX
  5
503
100
AcDbEntity
  8
1
390
0
 62
     7
100
AcDbVertex
100
AcDb2dVertex
 10
244.772065
 20
72.08
 30
0.0
  0
VERTEX
  5
504
100
AcDbEntity
  8
1
390
0
 62
     7
100
AcDbVertex
100
AcDb2dVertex
 10
244.766787
 20
72.05727
 30
0.0
  0
VERTEX
  5
505
100
AcDbEntity
  8
1
390
0
 62
     7
100
AcDbVertex
100
AcDb2dVertex
 10
244.760548
 20
72.034769
 30
0.0
  0
VERTEX
  5
506
100
AcDbEntity
  8
1
390
0
 62
     7
100
AcDbVertex
100
AcDb2dVertex
 10
244.753363
 20
72.01256
 30
0.0
  0
VERTEX
  5
507
100
AcDbEntity
  8
1
390
0
 62
     7
100
AcDbVertex
100
AcDb2dVertex
 10
244.745472
 20
71.991268
 30
0.0
  0
VERTEX
  5
508
100
AcDbEntity
  8
1
390
0
 62
     7
100
AcDbVertex
100
AcDb2dVertex
 10
244.736697
 20
71.970291
 30
0.0
  0
VERTEX
  5
509
100
AcDbEntity
  8
1
390
0
 62
     7
100
AcDbVertex
100
AcDb2dVertex
 10
244.727059
 20
71.949684
 30
0.0
  0
VERTEX
  5
50A
100
AcDbEntity
  8
1
390
0
 62
     7
100
AcDbVertex
100
AcDb2dVertex
 10
244.716583
 20
71.929502
 30
0.0
  0
VERTEX
  5
50B
100
AcDbEntity
  8
1
390
0
 62
     7
100
AcDbVertex
100
AcDb2dVertex
 10
244.704927
 20
71.909188
 30
0.0
  0
VERTEX
  5
50C
100
AcDbEntity
  8
1
390
0
 62
     7
100
AcDbVertex
100
AcDb2dVertex
 10
244.6924
 20
71.889362
 30
0.0
  0
VERTEX
  5
50D
100
AcDbEntity
  8
1
390
0
 62
     7
100
AcDbVertex
100
AcDb2dVertex
 10
244.679038
 20
71.870082
 30
0.0
  0
VERTEX
  5
50E
100
AcDbEntity
  8
1
390
0
 62
     7
100
AcDbVertex
100
AcDb2dVertex
 10
244.664877
 20
71.851401
 30
0.0
  0
VERTEX
  5
50F
100
AcDbEntity
  8
1
390
0
 62
     7
100
AcDbVertex
100
AcDb2dVertex
 10
244.650505
 20
71.83401
 30
0.0
  0
VERTEX
  5
510
100
AcDbEntity
  8
1
390
0
 62
     7
100
AcDbVertex
100
AcDb2dVertex
 10
244.635416
 20
71.817207
 30
0.0
  0
VERTEX
  5
511
100
AcDbEntity
  8
1
390
0
 62
     7
100
AcDbVertex
100
AcDb2dVertex
 10
244.619652
 20
71.801034
 30
0.0
  0
VERTEX
  5
512
100
AcDbEntity
  8
1
390
0
 62
     7
100
AcDbVertex
100
AcDb2dVertex
 10
244.603252
 20
71.785535
 30
0.0
  0
VERTEX
  5
513
100
AcDbEntity
  8
1
390
0
 62
     7
100
AcDbVertex
100
AcDb2dVertex
 10
244.585721
 20
71.770303
 30
0.0
  0
VERTEX
  5
514
100
AcDbEntity
  8
1
390
0
 62
     7
100
AcDbVertex
100
AcDb2dVertex
 10
244.567549
 20
71.755813
 30
0.0
  0
VERTEX
  5
515
100
AcDbEntity
  8
1
390
0
 62
     7
100
AcDbVertex
100
AcDb2dVertex
 10
244.548786
 20
71.742103
 30
0.0
  0
VERTEX
  5
516
100
AcDbEntity
  8
1
390
0
 62
     7
100
AcDbVertex
100
AcDb2dVertex
 10
244.529484
 20
71.729213
 30
0.0
  0
VERTEX
  5
517
100
AcDbEntity
  8
1
390
0
 62
     7
100
AcDbVertex
100
AcDb2dVertex
 10
244.510307
 20
71.717531
 30
0.0
  0
VERTEX
  5
518
100
AcDbEntity
  8
1
390
0
 62
     7
100
AcDbVertex
100
AcDb2dVertex
 10
244.490659
 20
71.706637
 30
0.0
  0
VERTEX
  5
519
100
AcDbEntity
  8
1
390
0
 62
     7
100
AcDbVertex
100
AcDb2dVertex
 10
244.470592
 20
71.696555
 30
0.0
  0
VERTEX
  5
51A
100
AcDbEntity
  8
1
390
0
 62
     7
100
AcDbVertex
100
AcDb2dVertex
 10
244.450157
 20
71.687311
 30
0.0
  0
VERTEX
  5
51B
100
AcDbEntity
  8
1
390
0
 62
     7
100
AcDbVertex
100
AcDb2dVertex
 10
244.42877
 20
71.678688
 30
0.0
  0
VERTEX
  5
51C
100
AcDbEntity
  8
1
390
0
 62
     7
100
AcDbVertex
100
AcDb2dVertex
 10
244.407033
 20
71.670966
 30
0.0
  0
VERTEX
  5
51D
100
AcDbEntity
  8
1
390
0
 62
     7
100
AcDbVertex
100
AcDb2dVertex
 10
244.385005
 20
71.664163
 30
0.0
  0
VERTEX
  5
51E
100
AcDbEntity
  8
1
390
0
 62
     7
100
AcDbVertex
100
AcDb2dVertex
 10
244.362746
 20
71.658297
 30
0.0
  0
VERTEX
  5
51F
100
AcDbEntity
  8
1
390
0
 62
     7
100
AcDbVertex
100
AcDb2dVertex
 10
244.337292
 20
71.652798
 30
0.0
  0
VERTEX
  5
520
100
AcDbEntity
  8
1
390
0
 62
     7
100
AcDbVertex
100
AcDb2dVertex
 10
244.311582
 20
71.648507
 30
0.0
  0
VERTEX
  5
521
100
AcDbEntity
  8
1
390
0
 62
     7
100
AcDbVertex
100
AcDb2dVertex
 10
244.285704
 20
71.645434
 30
0.0
  0
VERTEX
  5
522
100
AcDbEntity
  8
1
390
0
 62
     7
100
AcDbVertex
100
AcDb2dVertex
 10
244.259745
 20
71.643584
 30
0.0
  0
VERTEX
  5
523
100
AcDbEntity
  8
1
390
0
 62
     7
100
AcDbVertex
100
AcDb2dVertex
 10
244.233793
 20
71.642966
 30
0.0
  0
SEQEND
  5
524
100
AcDbEntity
  8
0
390
0
  0
LINE
  5
525
100
AcDbEntity
  8
1
390
0
  6
Continuous
 62
     7
100
AcDbLine
 10
243.350459
 20
71.642966
 30
0.0
 11
244.233793
 21
71.642966
 31
0.0
  0
LINE
  5
526
100
AcDbEntity
  8
1
390
0
  6
Continuous
 62
     7
100
AcDbLine
 10
243.350459
 20
70.909633
 30
0.0
 11
243.350459
 21
71.642966
 31
0.0
  0
LINE
  5
527
100
AcDbEntity
  8
1
390
0
  6
Continuous
 62
     7
100
AcDbLine
 10
244.233793
 20
70.909633
 30
0.0
 11
243.350459
 21
70.909633
 31
0.0
  0
LINE
  5
528
100
AcDbEntity
  8
1
390
0
  6
Continuous
 62
     7
100
AcDbLine
 10
244.783793
 20
69.476299
 30
0.0
 11
244.783793
 21
70.359633
 31
0.0
  0
LINE
  5
529
100
AcDbEntity
  8
1
390
0
  6
Continuous
 62
     7
100
AcDbLine
 10
245.517126
 20
69.476299
 30
0.0
 11
244.783793
 21
69.476299
 31
0.0
  0
LINE
  5
52A
100
AcDbEntity
  8
1
390
0
  6
Continuous
 62
     7
100
AcDbLine
 10
245.517126
 20
70.359633
 30
0.0
 11
245.517126
 21
69.476299
 31
0.0
  0
POLYLINE
  5
52B
100
AcDbEntity
  8
1
390
0
  6
Continuous
 62
     7
100
AcDb2dPolyline
 66
     1
 10
0.0
 20
0.0
 30
0.0
 40
3.0
 41
3.0
  0
VERTEX
  5
52C
100
AcDbEntity
  8
1
390
0
 62
     7
100
AcDbVertex
100
AcDb2dVertex
 10
245.517126
 20
70.359633
 30
0.0
  0
VERTEX
  5
52D
100
AcDbEntity
  8
1
390
0
 62
     7
100
AcDbVertex
100
AcDb2dVertex
 10
245.517592
 20
70.382212
 30
0.0
  0
VERTEX
  5
52E
100
AcDbEntity
  8
1
390
0
 62
     7
100
AcDbVertex
100
AcDb2dVertex
 10
245.518986
 20
70.404788
 30
0.0
  0
VERTEX
  5
52F
100
AcDbEntity
  8
1
390
0
 62
     7
100
AcDbVertex
100
AcDb2dVertex
 10
245.521307
 20
70.427304
 30
0.0
  0
VERTEX
  5
530
100
AcDbEntity
  8
1
390
0
 62
     7
100
AcDbVertex
100
AcDb2dVertex
 10
245.524551
 20
70.449701
 30
0.0
  0
VERTEX
  5
531
100
AcDbEntity
  8
1
390
0
 62
     7
100
AcDbVertex
100
AcDb2dVertex
 10
245.528854
 20
70.472598
 30
0.0
  0
VERTEX
  5
532
100
AcDbEntity
  8
1
390
0
 62
     7
100
AcDbVertex
100
AcDb2dVertex
 10
245.534132
 20
70.495328
 30
0.0
  0
VERTEX
  5
533
100
AcDbEntity
  8
1
390
0
 62
     7
100
AcDbVertex
100
AcDb2dVertex
 10
245.540371
 20
70.51783
 30
0.0
  0
VERTEX
  5
534
100
AcDbEntity
  8
1
390
0
 62
     7
100
AcDbVertex
100
AcDb2dVertex
 10
245.547556
 20
70.540039
 30
0.0
  0
VERTEX
  5
535
100
AcDbEntity
  8
1
390
0
 62
     7
100
AcDbVertex
100
AcDb2dVertex
 10
245.555447
 20
70.56133
 30
0.0
  0
VERTEX
  5
536
100
AcDbEntity
  8
1
390
0
 62
     7
100
AcDbVertex
100
AcDb2dVertex
 10
245.564222
 20
70.582307
 30
0.0
  0
VERTEX
  5
537
100
AcDbEntity
  8
1
390
0
 62
     7
100
AcDbVertex
100
AcDb2dVertex
 10
245.573859
 20
70.602914
 30
0.0
  0
VERTEX
  5
538
100
AcDbEntity
  8
1
390
0
 62
     7
100
AcDbVertex
100
AcDb2dVertex
 10
245.584335
 20
70.623097
 30
0.0
  0
VERTEX
  5
539
100
AcDbEntity
  8
1
390
0
 62
     7
100
AcDbVertex
100
AcDb2dVertex
 10
245.595992
 20
70.643411
 30
0.0
  0
VERTEX
  5
53A
100
AcDbEntity
  8
1
390
0
 62
     7
100
AcDbVertex
100
AcDb2dVertex
 10
245.608519
 20
70.663236
 30
0.0
  0
VERTEX
  5
53B
100
AcDbEntity
  8
1
390
0
 62
     7
100
AcDbVertex
100
AcDb2dVertex
 10
245.621881
 20
70.682517
 30
0.0
  0
VERTEX
  5
53C
100
AcDbEntity
  8
1
390
0
 62
     7
100
AcDbVertex
100
AcDb2dVertex
 10
245.636042
 20
70.701197
 30
0.0
  0
VERTEX
  5
53D
100
AcDbEntity
  8
1
390
0
 62
     7
100
AcDbVertex
100
AcDb2dVertex
 10
245.650414
 20
70.718588
 30
0.0
  0
VERTEX
  5
53E
100
AcDbEntity
  8
1
390
0
 62
     7
100
AcDbVertex
100
AcDb2dVertex
 10
245.665503
 20
70.735392
 30
0.0
  0
VERTEX
  5
53F
100
AcDbEntity
  8
1
390
0
 62
     7
100
AcDbVertex
100
AcDb2dVertex
 10
245.681267
 20
70.751564
 30
0.0
  0
VERTEX
  5
540
100
AcDbEntity
  8
1
390
0
 62
     7
100
AcDbVertex
100
AcDb2dVertex
 10
245.697667
 20
70.767063
 30
0.0
  0
VERTEX
  5
541
100
AcDbEntity
  8
1
390
0
 62
     7
100
AcDbVertex
100
AcDb2dVertex
 10
245.715197
 20
70.782295
 30
0.0
  0
VERTEX
  5
542
100
AcDbEntity
  8
1
390
0
 62
     7
100
AcDbVertex
100
AcDb2dVertex
 10
245.73337
 20
70.796786
 30
0.0
  0
VERTEX
  5
543
100
AcDbEntity
  8
1
390
0
 62
     7
100
AcDbVertex
100
AcDb2dVertex
 10
245.752133
 20
70.810495
 30
0.0
  0
VERTEX
  5
544
100
AcDbEntity
  8
1
390
0
 62
     7
100
AcDbVertex
100
AcDb2dVertex
 10
245.771435
 20
70.823386
 30
0.0
  0
VERTEX
  5
545
100
AcDbEntity
  8
1
390
0
 62
     7
100
AcDbVertex
100
AcDb2dVertex
 10
245.790612
 20
70.835067
 30
0.0
  0
VERTEX
  5
546
100
AcDbEntity
  8
1
390
0
 62
     7
100
AcDbVertex
100
AcDb2dVertex
 10
245.81026
 20
70.845962
 30
0.0
  0
VERTEX
  5
547
100
AcDbEntity
  8
1
390
0
 62
     7
100
AcDbVertex
100
AcDb2dVertex
 10
245.830327
 20
70.856044
 30
0.0
  0
VERTEX
  5
548
100
AcDbEntity
  8
1
390
0
 62
     7
100
AcDbVertex
100
AcDb2dVertex
 10
245.850762
 20
70.865287
 30
0.0
  0
VERTEX
  5
549
100
AcDbEntity
  8
1
390
0
 62
     7
100
AcDbVertex
100
AcDb2dVertex
 10
245.872149
 20
70.87391
 30
0.0
  0
VERTEX
  5
54A
100
AcDbEntity
  8
1
390
0
 62
     7
100
AcDbVertex
100
AcDb2dVertex
 10
245.893886
 20
70.881632
 30
0.0
  0
VERTEX
  5
54B
100
AcDbEntity
  8
1
390
0
 62
     7
100
AcDbVertex
100
AcDb2dVertex
 10
245.915914
 20
70.888436
 30
0.0
  0
VERTEX
  5
54C
100
AcDbEntity
  8
1
390
0
 62
     7
100
AcDbVertex
100
AcDb2dVertex
 10
245.938173
 20
70.894302
 30
0.0
  0
VERTEX
  5
54D
100
AcDbEntity
  8
1
390
0
 62
     7
100
AcDbVertex
100
AcDb2dVertex
 10
245.963627
 20
70.899801
 30
0.0
  0
VERTEX
  5
54E
100
AcDbEntity
  8
1
390
0
 62
     7
100
AcDbVertex
100
AcDb2dVertex
 10
245.989337
 20
70.904091
 30
0.0
  0
VERTEX
  5
54F
100
AcDbEntity
  8
1
390
0
 62
     7
100
AcDbVertex
100
AcDb2dVertex
 10
246.015215
 20
70.907165
 30
0.0
  0
VERTEX
  5
550
100
AcDbEntity
  8
1
390
0
 62
     7
100
AcDbVertex
100
AcDb2dVertex
 10
246.041174
 20
70.909014
 30
0.0
  0
VERTEX
  5
551
100
AcDbEntity
  8
1
390
0
 62
     7
100
AcDbVertex
100
AcDb2dVertex
 10
246.067126
 20
70.909633
 30
0.0
  0
SEQEND
  5
552
100
AcDbEntity
  8
0
390
0
  0
LINE
  5
553
100
AcDbEntity
  8
1
390
0
  6
Continuous
 62
     7
100
AcDbLine
 10
246.950459
 20
70.909633
 30
0.0
 11
246.067126
 21
70.909633
 31
0.0
  0
LINE
  5
554
100
AcDbEntity
  8
1
390
0
  6
Continuous
 62
     7
100
AcDbLine
 10
246.950459
 20
71.642966
 30
0.0
 11
246.950459
 21
70.909633
 31
0.0
  0
LINE
  5
555
100
AcDbEntity
  8
1
390
0
  6
Continuous
 62
     7
100
AcDbLine
 10
246.067126
 20
71.642966
 30
0.0
 11
246.950459
 21
71.642966
 31
0.0
  0
LINE
  5
556
100
AcDbEntity
  8
1
390
0
  6
Continuous
 62
     7
100
AcDbLine
 10
245.517126
 20
73.076299
 30
0.0
 11
245.517126
 21
72.192966
 31
0.0
  0
LINE
  5
557
100
AcDbEntity
  8
1
390
0
  6
Continuous
 62
     7
100
AcDbLine
 10
244.783793
 20
73.076299
 30
0.0
 11
245.517126
 21
73.076299
 31
0.0
  0
LINE
  5
558
100
AcDbEntity
  8
1
390
0
  6
Continuous
 62
     7
100
AcDbLine
 10
244.783793
 20
72.192966
 30
0.0
 11
244.783793
 21
73.076299
 31
0.0
  0
POLYLINE
  5
559
100
AcDbEntity
  8
1
390
0
  6
Continuous
 62
     7
100
AcDb2dPolyline
 66
     1
 10
0.0
 20
0.0
 30
0.0
 40
3.0
 41
3.0
  0
VERTEX
  5
55A
100
AcDbEntity
  8
1
390
0
 62
     7
100
AcDbVertex
100
AcDb2dVertex
 10
244.233793
 20
70.909633
 30
0.0
  0
VERTEX
  5
55B
100
AcDbEntity
  8
1
390
0
 62
     7
100
AcDbVertex
100
AcDb2dVertex
 10
244.256372
 20
70.909167
 30
0.0
  0
VERTEX
  5
55C
100
AcDbEntity
  8
1
390
0
 62
     7
100
AcDbVertex
100
AcDb2dVertex
 10
244.278948
 20
70.907773
 30
0.0
  0
VERTEX
  5
55D
100
AcDbEntity
  8
1
390
0
 62
     7
100
AcDbVertex
100
AcDb2dVertex
 10
244.301464
 20
70.905452
 30
0.0
  0
VERTEX
  5
55E
100
AcDbEntity
  8
1
390
0
 62
     7
100
AcDbVertex
100
AcDb2dVertex
 10
244.323861
 20
70.902208
 30
0.0
  0
VERTEX
  5
55F
100
AcDbEntity
  8
1
390
0
 62
     7
100
AcDbVertex
100
AcDb2dVertex
 10
244.346758
 20
70.897904
 30
0.0
  0
VERTEX
  5
560
100
AcDbEntity
  8
1
390
0
 62
     7
100
AcDbVertex
100
AcDb2dVertex
 10
244.369489
 20
70.892627
 30
0.0
  0
VERTEX
  5
561
100
AcDbEntity
  8
1
390
0
 62
     7
100
AcDbVertex
100
AcDb2dVertex
 10
244.39199
 20
70.886388
 30
0.0
  0
VERTEX
  5
562
100
AcDbEntity
  8
1
390
0
 62
     7
100
AcDbVertex
100
AcDb2dVertex
 10
244.414199
 20
70.879203
 30
0.0
  0
VERTEX
  5
563
100
AcDbEntity
  8
1
390
0
 62
     7
100
AcDbVertex
100
AcDb2dVertex
 10
244.435491
 20
70.871312
 30
0.0
  0
VERTEX
  5
564
100
AcDbEntity
  8
1
390
0
 62
     7
100
AcDbVertex
100
AcDb2dVertex
 10
244.456467
 20
70.862537
 30
0.0
  0
VERTEX
  5
565
100
AcDbEntity
  8
1
390
0
 62
     7
100
AcDbVertex
100
AcDb2dVertex
 10
244.477074
 20
70.852899
 30
0.0
  0
VERTEX
  5
566
100
AcDbEntity
  8
1
390
0
 62
     7
100
AcDbVertex
100
AcDb2dVertex
 10
244.497257
 20
70.842423
 30
0.0
  0
VERTEX
  5
567
100
AcDbEntity
  8
1
390
0
 62
     7
100
AcDbVertex
100
AcDb2dVertex
 10
244.517571
 20
70.830767
 30
0.0
  0
VERTEX
  5
568
100
AcDbEntity
  8
1
390
0
 62
     7
100
AcDbVertex
100
AcDb2dVertex
 10
244.537396
 20
70.81824
 30
0.0
  0
VERTEX
  5
569
100
AcDbEntity
  8
1
390
0
 62
     7
100
AcDbVertex
100
AcDb2dVertex
 10
244.556677
 20
70.804878
 30
0.0
  0
VERTEX
  5
56A
100
AcDbEntity
  8
1
390
0
 62
     7
100
AcDbVertex
100
AcDb2dVertex
 10
244.575357
 20
70.790717
 30
0.0
  0
VERTEX
  5
56B
100
AcDbEntity
  8
1
390
0
 62
     7
100
AcDbVertex
100
AcDb2dVertex
 10
244.592748
 20
70.776344
 30
0.0
  0
VERTEX
  5
56C
100
AcDbEntity
  8
1
390
0
 62
     7
100
AcDbVertex
100
AcDb2dVertex
 10
244.609552
 20
70.761256
 30
0.0
  0
VERTEX
  5
56D
100
AcDbEntity
  8
1
390
0
 62
     7
100
AcDbVertex
100
AcDb2dVertex
 10
244.625725
 20
70.745492
 30
0.0
  0
VERTEX
  5
56E
100
AcDbEntity
  8
1
390
0
 62
     7
100
AcDbVertex
100
AcDb2dVertex
 10
244.641223
 20
70.729092
 30
0.0
  0
VERTEX
  5
56F
100
AcDbEntity
  8
1
390
0
 62
     7
100
AcDbVertex
100
AcDb2dVertex
 10
244.656456
 20
70.711561
 30
0.0
  0
VERTEX
  5
570
100
AcDbEntity
  8
1
390
0
 62
     7
100
AcDbVertex
100
AcDb2dVertex
 10
244.670946
 20
70.693389
 30
0.0
  0
VERTEX
  5
571
100
AcDbEntity
  8
1
390
0
 62
     7
100
AcDbVertex
100
AcDb2dVertex
 10
244.684655
 20
70.674626
 30
0.0
  0
VERTEX
  5
572
100
AcDbEntity
  8
1
390
0
 62
     7
100
AcDbVertex
100
AcDb2dVertex
 10
244.697546
 20
70.655324
 30
0.0
  0
VERTEX
  5
573
100
AcDbEntity
  8
1
390
0
 62
     7
100
AcDbVertex
100
AcDb2dVertex
 10
244.709227
 20
70.636147
 30
0.0
  0
VERTEX
  5
574
100
AcDbEntity
  8
1
390
0
 62
     7
100
AcDbVertex
100
AcDb2dVertex
 10
244.720122
 20
70.616499
 30
0.0
  0
VERTEX
  5
575
100
AcDbEntity
  8
1
390
0
 62
     7
100
AcDbVertex
100
AcDb2dVertex
 10
244.730204
 20
70.596432
 30
0.0
  0
VERTEX
  5
576
100
AcDbEntity
  8
1
390
0
 62
     7
100
AcDbVertex
100
AcDb2dVertex
 10
244.739447
 20
70.575997
 30
0.0
  0
VERTEX
  5
577
100
AcDbEntity
  8
1
390
0
 62
     7
100
AcDbVertex
100
AcDb2dVertex
 10
244.748071
 20
70.55461
 30
0.0
  0
VERTEX
  5
578
100
AcDbEntity
  8
1
390
0
 62
     7
100
AcDbVertex
100
AcDb2dVertex
 10
244.755793
 20
70.532873
 30
0.0
  0
VERTEX
  5
579
100
AcDbEntity
  8
1
390
0
 62
     7
100
AcDbVertex
100
AcDb2dVertex
 10
244.762596
 20
70.510845
 30
0.0
  0
VERTEX
  5
57A
100
AcDbEntity
  8
1
390
0
 62
     7
100
AcDbVertex
100
AcDb2dVertex
 10
244.768462
 20
70.488585
 30
0.0
  0
VERTEX
  5
57B
100
AcDbEntity
  8
1
390
0
 62
     7
100
AcDbVertex
100
AcDb2dVertex
 10
244.773961
 20
70.463131
 30
0.0
  0
VERTEX
  5
57C
100
AcDbEntity
  8
1
390
0
 62
     7
100
AcDbVertex
100
AcDb2dVertex
 10
244.778251
 20
70.437422
 30
0.0
  0
VERTEX
  5
57D
100
AcDbEntity
  8
1
390
0
 62
     7
100
AcDbVertex
100
AcDb2dVertex
 10
244.781325
 20
70.411544
 30
0.0
  0
VERTEX
  5
57E
100
AcDbEntity
  8
1
390
0
 62
     7
100
AcDbVertex
100
AcDb2dVertex
 10
244.783175
 20
70.385585
 30
0.0
  0
VERTEX
  5
57F
100
AcDbEntity
  8
1
390
0
 62
     7
100
AcDbVertex
100
AcDb2dVertex
 10
244.783793
 20
70.359633
 30
0.0
  0
SEQEND
  5
580
100
AcDbEntity
  8
0
390
0
  0
POLYLINE
  5
581
100
AcDbEntity
  8
1
390
0
  6
Continuous
 62
     7
100
AcDb2dPolyline
 66
     1
 10
0.0
 20
0.0
 30
0.0
 40
3.0
 41
3.0
  0
VERTEX
  5
582
100
AcDbEntity
  8
1
390
0
 62
     7
100
AcDbVertex
100
AcDb2dVertex
 10
246.067126
 20
71.642966
 30
0.0
  0
VERTEX
  5
583
100
AcDbEntity
  8
1
390
0
 62
     7
100
AcDbVertex
100
AcDb2dVertex
 10
246.044547
 20
71.643431
 30
0.0
  0
VERTEX
  5
584
100
AcDbEntity
  8
1
390
0
 62
     7
100
AcDbVertex
100
AcDb2dVertex
 10
246.021971
 20
71.644826
 30
0.0
  0
VERTEX
  5
585
100
AcDbEntity
  8
1
390
0
 62
     7
100
AcDbVertex
100
AcDb2dVertex
 10
245.999455
 20
71.647147
 30
0.0
  0
VERTEX
  5
586
100
AcDbEntity
  8
1
390
0
 62
     7
100
AcDbVertex
100
AcDb2dVertex
 10
245.977058
 20
71.650391
 30
0.0
  0
VERTEX
  5
587
100
AcDbEntity
  8
1
390
0
 62
     7
100
AcDbVertex
100
AcDb2dVertex
 10
245.954161
 20
71.654694
 30
0.0
  0
VERTEX
  5
588
100
AcDbEntity
  8
1
390
0
 62
     7
100
AcDbVertex
100
AcDb2dVertex
 10
245.93143
 20
71.659972
 30
0.0
  0
VERTEX
  5
589
100
AcDbEntity
  8
1
390
0
 62
     7
100
AcDbVertex
100
AcDb2dVertex
 10
245.908929
 20
71.66621
 30
0.0
  0
VERTEX
  5
58A
100
AcDbEntity
  8
1
390
0
 62
     7
100
AcDbVertex
100
AcDb2dVertex
 10
245.88672
 20
71.673395
 30
0.0
  0
VERTEX
  5
58B
100
AcDbEntity
  8
1
390
0
 62
     7
100
AcDbVertex
100
AcDb2dVertex
 10
245.865428
 20
71.681286
 30
0.0
  0
VERTEX
  5
58C
100
AcDbEntity
  8
1
390
0
 62
     7
100
AcDbVertex
100
AcDb2dVertex
 10
245.844452
 20
71.690062
 30
0.0
  0
VERTEX
  5
58D
100
AcDbEntity
  8
1
390
0
 62
     7
100
AcDbVertex
100
AcDb2dVertex
 10
245.823845
 20
71.699699
 30
0.0
  0
VERTEX
  5
58E
100
AcDbEntity
  8
1
390
0
 62
     7
100
AcDbVertex
100
AcDb2dVertex
 10
245.803662
 20
71.710175
 30
0.0
  0
VERTEX
  5
58F
100
AcDbEntity
  8
1
390
0
 62
     7
100
AcDbVertex
100
AcDb2dVertex
 10
245.783348
 20
71.721832
 30
0.0
  0
VERTEX
  5
590
100
AcDbEntity
  8
1
390
0
 62
     7
100
AcDbVertex
100
AcDb2dVertex
 10
245.763523
 20
71.734359
 30
0.0
  0
VERTEX
  5
591
100
AcDbEntity
  8
1
390
0
 62
     7
100
AcDbVertex
100
AcDb2dVertex
 10
245.744242
 20
71.747721
 30
0.0
  0
VERTEX
  5
592
100
AcDbEntity
  8
1
390
0
 62
     7
100
AcDbVertex
100
AcDb2dVertex
 10
245.725562
 20
71.761882
 30
0.0
  0
VERTEX
  5
593
100
AcDbEntity
  8
1
390
0
 62
     7
100
AcDbVertex
100
AcDb2dVertex
 10
245.70817
 20
71.776254
 30
0.0
  0
VERTEX
  5
594
100
AcDbEntity
  8
1
390
0
 62
     7
100
AcDbVertex
100
AcDb2dVertex
 10
245.691367
 20
71.791343
 30
0.0
  0
VERTEX
  5
595
100
AcDbEntity
  8
1
390
0
 62
     7
100
AcDbVertex
100
AcDb2dVertex
 10
245.675194
 20
71.807107
 30
0.0
  0
VERTEX
  5
596
100
AcDbEntity
  8
1
390
0
 62
     7
100
AcDbVertex
100
AcDb2dVertex
 10
245.659696
 20
71.823506
 30
0.0
  0
VERTEX
  5
597
100
AcDbEntity
  8
1
390
0
 62
     7
100
AcDbVertex
100
AcDb2dVertex
 10
245.644463
 20
71.841037
 30
0.0
  0
VERTEX
  5
598
100
AcDbEntity
  8
1
390
0
 62
     7
100
AcDbVertex
100
AcDb2dVertex
 10
245.629973
 20
71.85921
 30
0.0
  0
VERTEX
  5
599
100
AcDbEntity
  8
1
390
0
 62
     7
100
AcDbVertex
100
AcDb2dVertex
 10
245.616264
 20
71.877973
 30
0.0
  0
VERTEX
  5
59A
100
AcDbEntity
  8
1
390
0
 62
     7
100
AcDbVertex
100
AcDb2dVertex
 10
245.603373
 20
71.897275
 30
0.0
  0
VERTEX
  5
59B
100
AcDbEntity
  8
1
390
0
 62
     7
100
AcDbVertex
100
AcDb2dVertex
 10
245.591692
 20
71.916452
 30
0.0
  0
VERTEX
  5
59C
100
AcDbEntity
  8
1
390
0
 62
     7
100
AcDbVertex
100
AcDb2dVertex
 10
245.580797
 20
71.9361
 30
0.0
  0
VERTEX
  5
59D
100
AcDbEntity
  8
1
390
0
 62
     7
100
AcDbVertex
100
AcDb2dVertex
 10
245.570715
 20
71.956167
 30
0.0
  0
VERTEX
  5
59E
100
AcDbEntity
  8
1
390
0
 62
     7
100
AcDbVertex
100
AcDb2dVertex
 10
245.561472
 20
71.976602
 30
0.0
  0
VERTEX
  5
59F
100
AcDbEntity
  8
1
390
0
 62
     7
100
AcDbVertex
100
AcDb2dVertex
 10
245.552848
 20
71.997988
 30
0.0
  0
VERTEX
  5
5A0
100
AcDbEntity
  8
1
390
0
 62
     7
100
AcDbVertex
100
AcDb2dVertex
 10
245.545126
 20
72.019725
 30
0.0
  0
VERTEX
  5
5A1
100
AcDbEntity
  8
1
390
0
 62
     7
100
AcDbVertex
100
AcDb2dVertex
 10
245.538323
 20
72.041753
 30
0.0
  0
VERTEX
  5
5A2
100
AcDbEntity
  8
1
390
0
 62
     7
100
AcDbVertex
100
AcDb2dVertex
 10
245.532457
 20
72.064013
 30
0.0
  0
VERTEX
  5
5A3
100
AcDbEntity
  8
1
390
0
 62
     7
100
AcDbVertex
100
AcDb2dVertex
 10
245.526958
 20
72.089467
 30
0.0
  0
VERTEX
  5
5A4
100
AcDbEntity
  8
1
390
0
 62
     7
100
AcDbVertex
100
AcDb2dVertex
 10
245.522668
 20
72.115177
 30
0.0
  0
VERTEX
  5
5A5
100
AcDbEntity
  8
1
390
0
 62
     7
100
AcDbVertex
100
AcDb2dVertex
 10
245.519594
 20
72.141055
 30
0.0
  0
VERTEX
  5
5A6
100
AcDbEntity
  8
1
390
0
 62
     7
100
AcDbVertex
100
AcDb2dVertex
 10
245.517744
 20
72.167014
 30
0.0
  0
VERTEX
  5
5A7
100
AcDbEntity
  8
1
390
0
 62
     7
100
AcDbVertex
100
AcDb2dVertex
 10
245.517126
 20
72.192966
 30
0.0
  0
SEQEND
  5
5A8
100
AcDbEntity
  8
0
390
0
  0
CIRCLE
  5
5A9
100
AcDbEntity
  8
1
390
0
  6
Continuous
 62
     7
100
AcDbCircle
 10
204.150459
 20
78.276299
 30
0.0
 40
3.8
210
0.0
220
0.0
230
1.0
  0
CIRCLE
  5
5AA
100
AcDbEntity
  8
1
390
0
  6
Continuous
 62
     7
100
AcDbCircle
 10
204.150459
 20
78.276299
 30
0.0
 40
4.0
210
0.0
220
0.0
230
1.0
  0
LINE
  5
5AB
100
AcDbEntity
  8
1
390
0
  6
Continuous
 62
     7
100
AcDbLine
 10
217.850459
 20
80.758234
 30
0.0
 11
217.850459
 21
81.009887
 31
0.0
  0
ARC
  5
5AC
100
AcDbEntity
  8
1
390
0
  6
Continuous
 62
     7
100
AcDbCircle
 10
218.150459
 20
78.276299
 30
0.0
 40
2.5
210
0.0
220
0.0
230
1.0
100
AcDbArc
 50
96.892103
 51
83.107897
  0
CIRCLE
  5
5AD
100
AcDbEntity
  8
1
390
0
  6
Continuous
 62
     7
100
AcDbCircle
 10
218.150459
 20
78.276299
 30
0.0
 40
3.8
210
0.0
220
0.0
230
1.0
  0
ARC
  5
5AE
100
AcDbEntity
  8
1
390
0
  6
Continuous
 62
     7
100
AcDbCircle
 10
218.150459
 20
78.276299
 30
0.0
 40
2.75
210
0.0
220
0.0
230
1.0
100
AcDbArc
 50
83.737087
 51
96.262913
  0
LINE
  5
5AF
100
AcDbEntity
  8
1
390
0
  6
Continuous
 62
     7
100
AcDbLine
 10
218.450459
 20
81.009887
 30
0.0
 11
218.450459
 21
80.758234
 31
0.0
  0
ARC
  5
5B0
100
AcDbEntity
  8
1
390
0
  6
Continuous
 62
     7
100
AcDbCircle
 10
252.150459
 20
78.276299
 30
0.0
 40
2.75
210
0.0
220
0.0
230
1.0
100
AcDbArc
 50
83.737087
 51
96.262913
  0
ARC
  5
5B1
100
AcDbEntity
  8
1
390
0
  6
Continuous
 62
     7
100
AcDbCircle
 10
252.150459
 20
78.276299
 30
0.0
 40
2.5
210
0.0
220
0.0
230
1.0
100
AcDbArc
 50
96.892103
 51
83.107897
  0
CIRCLE
  5
5B2
100
AcDbEntity
  8
1
390
0
  6
Continuous
 62
     7
100
AcDbCircle
 10
252.150459
 20
78.276299
 30
0.0
 40
3.8
210
0.0
220
0.0
230
0.9999999999999999
  0
LINE
  5
5B3
100
AcDbEntity
  8
1
390
0
  6
Continuous
 62
     7
100
AcDbLine
 10
252.450459
 20
81.009887
 30
0.0
 11
252.450459
 21
80.758234
 31
0.0
  0
LINE
  5
5B4
100
AcDbEntity
  8
1
390
0
  6
Continuous
 62
     7
100
AcDbLine
 10
251.850459
 20
80.758234
 30
0.0
 11
251.850459
 21
81.009887
 31
0.0
  0
LINE
  5
5B5
100
AcDbEntity
  8
1
390
0
  6
Continuous
 62
     7
100
AcDbLine
 10
238.450459
 20
81.009887
 30
0.0
 11
238.450459
 21
80.758234
 31
0.0
  0
ARC
  5
5B6
100
AcDbEntity
  8
1
390
0
  6
Continuous
 62
     7
100
AcDbCircle
 10
238.150459
 20
78.276299
 30
0.0
 40
2.75
210
0.0
220
0.0
230
1.0
100
AcDbArc
 50
83.737087
 51
96.262913
  0
LINE
  5
5B7
100
AcDbEntity
  8
1
390
0
  6
Continuous
 62
     7
100
AcDbLine
 10
237.850459
 20
80.758234
 30
0.0
 11
237.850459
 21
81.009887
 31
0.0
  0
ARC
  5
5B8
100
AcDbEntity
  8
1
390
0
  6
Continuous
 62
     7
100
AcDbCircle
 10
238.150459
 20
78.276299
 30
0.0
 40
2.5
210
0.0
220
0.0
230
1.0
100
AcDbArc
 50
96.892103
 51
83.107897
  0
CIRCLE
  5
5B9
100
AcDbEntity
  8
1
390
0
  6
Continuous
 62
     7
100
AcDbCircle
 10
238.150459
 20
78.276299
 30
0.0
 40
3.8
210
0.0
220
0.0
230
1.0
  0
CIRCLE
  5
5BA
100
AcDbEntity
  8
1
390
0
  6
Continuous
 62
     7
100
AcDbCircle
 10
238.150459
 20
78.276299
 30
0.0
 40
4.0
210
0.0
220
0.0
230
1.0
  0
LINE
  5
5BB
100
AcDbEntity
  8
1
390
0
  6
Continuous
 62
     7
100
AcDbLine
 10
204.450459
 20
81.009887
 30
0.0
 11
204.450459
 21
80.758234
 31
0.0
  0
ARC
  5
5BC
100
AcDbEntity
  8
1
390
0
  6
Continuous
 62
     7
100
AcDbCircle
 10
204.150459
 20
78.276299
 30
0.0
 40
2.75
210
0.0
220
0.0
230
1.0
100
AcDbArc
 50
83.737087
 51
96.262913
  0
ARC
  5
5BD
100
AcDbEntity
  8
1
390
0
  6
Continuous
 62
     7
100
AcDbCircle
 10
204.150459
 20
78.276299
 30
0.0
 40
2.5
210
0.0
220
0.0
230
1.0
100
AcDbArc
 50
96.892103
 51
83.107897
  0
LINE
  5
5BE
100
AcDbEntity
  8
1
390
0
  6
Continuous
 62
     7
100
AcDbLine
 10
203.850459
 20
80.758234
 30
0.0
 11
203.850459
 21
81.009887
 31
0.0
  0
CIRCLE
  5
5BF
100
AcDbEntity
  8
1
390
0
  6
Continuous
 62
     7
100
AcDbCircle
 10
252.150459
 20
78.276299
 30
0.0
 40
4.0
210
0.0
220
0.0
230
1.0
  0
CIRCLE
  5
5C0
100
AcDbEntity
  8
1
390
0
  6
Continuous
 62
     7
100
AcDbCircle
 10
218.150459
 20
78.276299
 30
0.0
 40
4.0
210
0.0
220
0.0
230
1.0
  0
CIRCLE
  5
5C1
100
AcDbEntity
  8
1
390
0
  6
Continuous
 62
     7
100
AcDbCircle
 10
265.650459
 20
76.276299
 30
0.0
 40
2.75
210
0.0
220
0.0
230
1.0
  0
CIRCLE
  5
5C2
100
AcDbEntity
  8
1
390
0
  6
Continuous
 62
     7
100
AcDbCircle
 10
211.150459
 20
71.276299
 30
0.0
 40
2.75
210
0.0
220
0.0
230
1.0
  0
CIRCLE
  5
5C3
100
AcDbEntity
  8
1
390
0
  6
Continuous
 62
     7
100
AcDbCircle
 10
190.650459
 20
76.276299
 30
0.0
 40
2.75
210
0.0
220
0.0
230
1.0
  0
CIRCLE
  5
5C4
100
AcDbEntity
  8
1
390
0
  6
Continuous
 62
     7
100
AcDbCircle
 10
245.150459
 20
71.276299
 30
0.0
 40
2.75
210
0.0
220
0.0
230
1.0
  0
CIRCLE
  5
5C5
100
AcDbEntity
  8
1
390
0
  6
Continuous
 62
     7
100
AcDbCircle
 10
218.150459
 20
78.276299
 30
0.0
 40
1.5
210
0.0
220
0.0
230
1.0
  0
CIRCLE
  5
5C6
100
AcDbEntity
  8
1
390
0
  6
Continuous
 62
     7
100
AcDbCircle
 10
218.150459
 20
78.276299
 30
0.0
 40
1.3
210
0.0
220
0.0
230
1.0
  0
CIRCLE
  5
5C7
100
AcDbEntity
  8
1
390
0
  6
Continuous
 62
     7
100
AcDbCircle
 10
204.150459
 20
78.276299
 30
0.0
 40
1.3
210
0.0
220
0.0
230
1.0
  0
CIRCLE
  5
5C8
100
AcDbEntity
  8
1
390
0
  6
Continuous
 62
     7
100
AcDbCircle
 10
204.150459
 20
79.076299
 30
0.0
 40
0.3
210
0.0
220
0.0
230
1.0
  0
CIRCLE
  5
5C9
100
AcDbEntity
  8
1
390
0
  6
Continuous
 62
     7
100
AcDbCircle
 10
203.457639
 20
77.876299
 30
0.0
 40
0.3
210
0.0
220
0.0
230
1.0
  0
CIRCLE
  5
5CA
100
AcDbEntity
  8
1
390
0
  6
Continuous
 62
     7
100
AcDbCircle
 10
204.84328
 20
77.876299
 30
0.0
 40
0.3
210
0.0
220
0.0
230
1.0
  0
CIRCLE
  5
5CB
100
AcDbEntity
  8
1
390
0
  6
Continuous
 62
     7
100
AcDbCircle
 10
252.150459
 20
78.276299
 30
0.0
 40
1.3
210
0.0
220
0.0
230
0.9999999999999999
  0
CIRCLE
  5
5CC
100
AcDbEntity
  8
1
390
0
  6
Continuous
 62
     7
100
AcDbCircle
 10
252.150459
 20
79.076299
 30
0.0
 40
0.3
210
0.0
220
0.0
230
1.0
  0
CIRCLE
  5
5CD
100
AcDbEntity
  8
1
390
0
  6
Continuous
 62
     7
100
AcDbCircle
 10
251.457639
 20
77.876299
 30
0.0
 40
0.3
210
0.0
220
0.0
230
1.0
  0
CIRCLE
  5
5CE
100
AcDbEntity
  8
1
390
0
  6
Continuous
 62
     7
100
AcDbCircle
 10
252.84328
 20
77.876299
 30
0.0
 40
0.3
210
0.0
220
0.0
230
1.0
  0
CIRCLE
  5
5CF
100
AcDbEntity
  8
1
390
0
  6
Continuous
 62
     7
100
AcDbCircle
 10
252.150459
 20
78.276299
 30
0.0
 40
1.5
210
0.0
220
0.0
230
1.0
  0
LINE
  5
5D0
100
AcDbEntity
  8
1
390
0
  6
Continuous
 62
     7
100
AcDbLine
 10
188.150459
 20
86.276299
 30
0.0
 11
268.150459
 21
86.276299
 31
0.0
  0
ARC
  5
5D1
100
AcDbEntity
  8
1
390
0
  6
Continuous
 62
     7
100
AcDbCircle
 10
268.150459
 20
85.276299
 30
0.0
 40
1.0
210
0.0
220
0.0
230
1.0
100
AcDbArc
 50
0.0
 51
90.0
  0
LINE
  5
5D2
100
AcDbEntity
  8
1
390
0
  6
Continuous
 62
     7
100
AcDbLine
 10
268.150459
 20
66.276299
 30
0.0
 11
188.150459
 21
66.276299
 31
0.0
  0
ARC
  5
5D3
100
AcDbEntity
  8
1
390
0
  6
Continuous
 62
     7
100
AcDbCircle
 10
188.150459
 20
67.276299
 30
0.0
 40
1.0
210
0.0
220
0.0
230
1.0
100
AcDbArc
 50
180.0
 51
270.0
  0
ARC
  5
5D4
100
AcDbEntity
  8
1
390
0
  6
Continuous
 62
     7
100
AcDbCircle
 10
188.150459
 20
85.276299
 30
0.0
 40
1.0
210
0.0
220
0.0
230
1.0
100
AcDbArc
 50
90.0
 51
180.0
  0
LINE
  5
5D5
100
AcDbEntity
  8
1
390
0
  6
Continuous
 62
     7
100
AcDbLine
 10
187.150459
 20
67.276299
 30
0.0
 11
187.150459
 21
85.276299
 31
0.0
  0
LINE
  5
5D6
100
AcDbEntity
  8
1
390
0
  6
Continuous
 62
     7
100
AcDbLine
 10
269.150459
 20
85.276299
 30
0.0
 11
269.150459
 21
67.276299
 31
0.0
  0
ARC
  5
5D7
100
AcDbEntity
  8
1
390
0
  6
Continuous
 62
     7
100
AcDbCircle
 10
268.150459
 20
67.276299
 30
0.0
 40
1.0
210
0.0
220
0.0
230
1.0
100
AcDbArc
 50
270.0
 51
360.0
  0
CIRCLE
  5
5D8
100
AcDbEntity
  8
1
390
0
  6
Continuous
 62
     7
100
AcDbCircle
 10
238.150459
 20
78.276299
 30
0.0
 40
1.5
210
0.0
220
0.0
230
1.0
  0
CIRCLE
  5
5D9
100
AcDbEntity
  8
1
390
0
  6
Continuous
 62
     7
100
AcDbCircle
 10
238.150459
 20
78.276299
 30
0.0
 40
1.3
210
0.0
220
0.0
230
1.0
  0
CIRCLE
  5
5DA
100
AcDbEntity
  8
1
390
0
  6
Continuous
 62
     7
100
AcDbCircle
 10
238.150459
 20
79.076299
 30
0.0
 40
0.3
210
0.0
220
0.0
230
1.0
  0
CIRCLE
  5
5DB
100
AcDbEntity
  8
1
390
0
  6
Continuous
 62
     7
100
AcDbCircle
 10
237.457639
 20
77.876299
 30
0.0
 40
0.3
210
0.0
220
0.0
230
1.0
  0
CIRCLE
  5
5DC
100
AcDbEntity
  8
1
390
0
  6
Continuous
 62
     7
100
AcDbCircle
 10
238.84328
 20
77.876299
 30
0.0
 40
0.3
210
0.0
220
0.0
230
1.0
  0
CIRCLE
  5
5DD
100
AcDbEntity
  8
1
390
0
  6
Continuous
 62
     7
100
AcDbCircle
 10
204.150459
 20
78.276299
 30
0.0
 40
1.5
210
0.0
220
0.0
230
1.0
  0
CIRCLE
  5
5DE
100
AcDbEntity
  8
1
390
0
  6
Continuous
 62
     7
100
AcDbCircle
 10
218.150459
 20
79.076299
 30
0.0
 40
0.3
210
0.0
220
0.0
230
1.0
  0
CIRCLE
  5
5DF
100
AcDbEntity
  8
1
390
0
  6
Continuous
 62
     7
100
AcDbCircle
 10
217.457639
 20
77.876299
 30
0.0
 40
0.3
210
0.0
220
0.0
230
1.0
  0
CIRCLE
  5
5E0
100
AcDbEntity
  8
1
390
0
  6
Continuous
 62
     7
100
AcDbCircle
 10
218.84328
 20
77.876299
 30
0.0
 40
0.3
210
0.0
220
0.0
230
1.0
  0
LINE
  5
5E1
100
AcDbEntity
  8
1
390
0
  6
Continuous
 62
     7
100
AcDbLine
 10
170.650459
 20
62.776299
 30
0.0
 11
168.650459
 21
62.776299
 31
0.0
  0
LINE
  5
5E2
100
AcDbEntity
  8
1
390
0
  6
Continuous
 62
     7
100
AcDbLine
 10
168.650459
 20
62.776299
 30
0.0
 11
168.650459
 21
64.276299
 31
0.0
  0
LINE
  5
5E3
100
AcDbEntity
  8
1
390
0
  6
Continuous
 62
     7
100
AcDbLine
 10
170.650459
 20
64.276299
 30
0.0
 11
168.650459
 21
64.276299
 31
0.0
  0
LINE
  5
5E4
100
AcDbEntity
  8
1
390
0
  6
Continuous
 62
     7
100
AcDbLine
 10
285.650459
 20
62.776299
 30
0.0
 11
170.650459
 21
62.776299
 31
0.0
  0
LINE
  5
5E5
100
AcDbEntity
  8
1
390
0
  6
Continuous
 62
     7
100
AcDbLine
 10
285.650459
 20
64.276299
 30
0.0
 11
170.650459
 21
64.276299
 31
0.0
  0
LINE
  5
5E6
100
AcDbEntity
  8
1
390
0
  6
Continuous
 62
     7
100
AcDbLine
 10
287.650459
 20
62.776299
 30
0.0
 11
287.650459
 21
64.276299
 31
0.0
  0
LINE
  5
5E7
100
AcDbEntity
  8
1
390
0
  6
Continuous
 62
     7
100
AcDbLine
 10
287.650459
 20
62.776299
 30
0.0
 11
285.650459
 21
62.776299
 31
0.0
  0
LINE
  5
5E8
100
AcDbEntity
  8
1
390
0
  6
Continuous
 62
     7
100
AcDbLine
 10
287.650459
 20
64.276299
 30
0.0
 11
285.650459
 21
64.276299
 31
0.0
  0
LINE
  5
5E9
100
AcDbEntity
  8
1
390
0
  6
Continuous
 62
     7
100
AcDbLine
 10
183.150459
 20
64.476299
 30
0.0
 11
273.150459
 21
64.476299
 31
0.0
  0
ARC
  5
5EA
100
AcDbEntity
  8
1
390
0
  6
Continuous
 62
     7
100
AcDbCircle
 10
273.150459
 20
63.476299
 30
0.0
 40
1.0
210
0.0
220
0.0
230
0.9999999999999999
100
AcDbArc
 50
53.130102
 51
90.0
  0
LINE
  5
5EB
100
AcDbEntity
  8
1
390
0
  6
Continuous
 62
     7
100
AcDbLine
 10
274.150459
 20
87.276299
 30
0.0
 11
274.150459
 21
64.476299
 31
0.0
  0
LINE
  5
5EC
100
AcDbEntity
  8
1
390
0
  6
Continuous
 62
     7
100
AcDbLine
 10
274.150459
 20
64.476299
 30
0.0
 11
273.950459
 21
64.276299
 31
0.0
  0
LINE
  5
5ED
100
AcDbEntity
  8
1
390
0
  6
Continuous
 62
     7
100
AcDbLine
 10
183.150459
 20
88.276299
 30
0.0
 11
273.150459
 21
88.276299
 31
0.0
  0
ARC
  5
5EE
100
AcDbEntity
  8
1
390
0
  6
Continuous
 62
     7
100
AcDbCircle
 10
183.150459
 20
87.276299
 30
0.0
 40
1.0
210
0.0
220
0.0
230
1.0
100
AcDbArc
 50
90.0
 51
180.0
  0
ARC
  5
5EF
100
AcDbEntity
  8
1
390
0
  6
Continuous
 62
     7
100
AcDbCircle
 10
183.150459
 20
63.476299
 30
0.0
 40
1.0
210
0.0
220
0.0
230
1.0
100
AcDbArc
 50
90.0
 51
126.869898
  0
LINE
  5
5F0
100
AcDbEntity
  8
1
390
0
  6
Continuous
 62
     7
100
AcDbLine
 10
182.350459
 20
64.276299
 30
0.0
 11
182.150459
 21
64.476299
 31
0.0
  0
LINE
  5
5F1
100
AcDbEntity
  8
1
390
0
  6
Continuous
 62
     7
100
AcDbLine
 10
182.150459
 20
64.476299
 30
0.0
 11
182.150459
 21
87.276299
 31
0.0
  0
ARC
  5
5F2
100
AcDbEntity
  8
1
390
0
  6
Continuous
 62
     7
100
AcDbCircle
 10
273.150459
 20
87.276299
 30
0.0
 40
1.0
210
0.0
220
0.0
230
1.0
100
AcDbArc
 50
0.0
 51
90.0
  0
LINE
  5
5F3
100
AcDbEntity
  8
1
390
0
  6
Continuous
 62
     7
100
AcDbLine
 10
275.150459
 20
69.076299
 30
0.0
 11
275.150459
 21
71.476299
 31
0.0
  0
LINE
  5
5F4
100
AcDbEntity
  8
1
390
0
  6
Continuous
 62
     7
100
AcDbLine
 10
274.350459
 20
68.276299
 30
0.0
 11
274.350459
 21
72.276299
 31
0.0
  0
LINE
  5
5F5
100
AcDbEntity
  8
1
390
0
  6
Continuous
 62
     7
100
AcDbLine
 10
181.950459
 20
68.276299
 30
0.0
 11
181.950459
 21
72.276299
 31
0.0
  0
LINE
  5
5F6
100
AcDbEntity
  8
1
390
0
  6
Continuous
 62
     7
100
AcDbLine
 10
181.150459
 20
69.076299
 30
0.0
 11
181.150459
 21
71.476299
 31
0.0
  0
LINE
  5
5F7
100
AcDbEntity
  8
1
390
0
  6
Continuous
 62
     7
100
AcDbLine
 10
270.650459
 20
88.376299
 30
0.0
 11
270.650459
 21
88.276299
 31
0.0
  0
LINE
  5
5F8
100
AcDbEntity
  8
1
390
0
  6
Continuous
 62
     7
100
AcDbLine
 10
185.650459
 20
88.376299
 30
0.0
 11
185.650459
 21
88.276299
 31
0.0
  0
LINE
  5
5F9
100
AcDbEntity
  8
1
390
0
  6
Continuous
 62
     7
100
AcDbLine
 10
270.650459
 20
88.376299
 30
0.0
 11
185.650459
 21
88.376299
 31
0.0
  0
LINE
  5
5FA
100
AcDbEntity
  8
1
390
0
  6
DOT
 62
     9
100
AcDbLine
 10
275.150459
 20
70.576299
 30
0.0
 11
274.650459
 21
70.576299
 31
0.0
  0
LINE
  5
5FB
100
AcDbEntity
  8
1
390
0
  6
DOT
 62
     9
100
AcDbLine
 10
275.150459
 20
69.976299
 30
0.0
 11
274.650459
 21
69.976299
 31
0.0
  0
LINE
  5
5FC
100
AcDbEntity
  8
1
390
0
  6
DOT
 62
     9
100
AcDbLine
 10
274.650459
 20
70.576299
 30
0.0
 11
274.650459
 21
69.976299
 31
0.0
  0
LINE
  5
5FD
100
AcDbEntity
  8
1
390
0
  6
DOT
 62
     9
100
AcDbLine
 10
181.150459
 20
70.576299
 30
0.0
 11
181.650459
 21
70.576299
 31
0.0
  0
LINE
  5
5FE
100
AcDbEntity
  8
1
390
0
  6
DOT
 62
     9
100
AcDbLine
 10
181.650459
 20
70.576299
 30
0.0
 11
181.650459
 21
69.976299
 31
0.0
  0
LINE
  5
5FF
100
AcDbEntity
  8
1
390
0
  6
DOT
 62
     9
100
AcDbLine
 10
181.150459
 20
69.976299
 30
0.0
 11
181.650459
 21
69.976299
 31
0.0
  0
LINE
  5
600
100
AcDbEntity
  8
1
390
0
  6
DOT
 62
     9
100
AcDbLine
 10
274.650459
 20
70.576299
 30
0.0
 11
274.650459
 21
70.776299
 31
0.0
  0
LINE
  5
601
100
AcDbEntity
  8
1
390
0
  6
DOT
 62
     9
100
AcDbLine
 10
274.650459
 20
69.776299
 30
0.0
 11
274.650459
 21
69.976299
 31
0.0
  0
LINE
  5
602
100
AcDbEntity
  8
1
390
0
  6
DOT
 62
     9
100
AcDbLine
 10
181.650459
 20
69.776299
 30
0.0
 11
181.650459
 21
69.976299
 31
0.0
  0
LINE
  5
603
100
AcDbEntity
  8
1
390
0
  6
DOT
 62
     9
100
AcDbLine
 10
181.650459
 20
70.576299
 30
0.0
 11
181.650459
 21
70.776299
 31
0.0
  0
LINE
  5
604
100
AcDbEntity
  8
1
390
0
  6
DOT
 62
     9
100
AcDbLine
 10
274.650459
 20
69.776299
 30
0.0
 11
274.650459
 21
69.276299
 31
0.0
  0
LINE
  5
605
100
AcDbEntity
  8
1
390
0
  6
DOT
 62
     9
100
AcDbLine
 10
274.650459
 20
71.276299
 30
0.0
 11
274.650459
 21
70.776299
 31
0.0
  0
LINE
  5
606
100
AcDbEntity
  8
1
390
0
  6
DOT
 62
     9
100
AcDbLine
 10
275.150459
 20
69.276299
 30
0.0
 11
274.650459
 21
69.276299
 31
0.0
  0
LINE
  5
607
100
AcDbEntity
  8
1
390
0
  6
DOT
 62
     9
100
AcDbLine
 10
181.650459
 20
71.276299
 30
0.0
 11
181.650459
 21
70.776299
 31
0.0
  0
LINE
  5
608
100
AcDbEntity
  8
1
390
0
  6
DOT
 62
     9
100
AcDbLine
 10
181.150459
 20
71.276299
 30
0.0
 11
181.650459
 21
71.276299
 31
0.0
  0
LINE
  5
609
100
AcDbEntity
  8
1
390
0
  6
DOT
 62
     9
100
AcDbLine
 10
181.150459
 20
69.276299
 30
0.0
 11
181.650459
 21
69.276299
 31
0.0
  0
LINE
  5
60A
100
AcDbEntity
  8
1
390
0
  6
DOT
 62
     9
100
AcDbLine
 10
181.650459
 20
69.776299
 30
0.0
 11
181.650459
 21
69.276299
 31
0.0
  0
LINE
  5
60B
100
AcDbEntity
  8
1
390
0
  6
DOT
 62
     9
100
AcDbLine
 10
275.150459
 20
71.276299
 30
0.0
 11
274.650459
 21
71.276299
 31
0.0
  0
LINE
  5
60C
100
AcDbEntity
  8
1
390
0
  6
Continuous
 62
     7
100
AcDbLine
 10
178.150459
 20
68.729483
 30
0.0
 11
178.150459
 21
83.823116
 31
0.0
  0
LINE
  5
60D
100
AcDbEntity
  8
1
390
0
  6
Continuous
 62
     7
100
AcDbLine
 10
177.150459
 20
69.726299
 30
0.0
 11
177.150459
 21
82.826299
 31
0.0
  0
LINE
  5
60E
100
AcDbEntity
  8
1
390
0
  6
DOT
 62
     9
100
AcDbLine
 10
177.150459
 20
81.117528
 30
0.0
 11
182.150459
 21
81.117528
 31
0.0
  0
LINE
  5
60F
100
AcDbEntity
  8
1
390
0
  6
DOT
 62
     9
100
AcDbLine
 10
178.350459
 20
79.276299
 30
0.0
 11
178.350459
 21
73.276299
 31
0.0
  0
LINE
  5
610
100
AcDbEntity
  8
1
390
0
  6
DOT
 62
     9
100
AcDbLine
 10
177.150459
 20
82.276299
 30
0.0
 11
182.150459
 21
82.276299
 31
0.0
  0
LINE
  5
611
100
AcDbEntity
  8
1
390
0
  6
Continuous
 62
     7
100
AcDbLine
 10
274.350459
 20
68.276299
 30
0.0
 11
275.150459
 21
69.076299
 31
0.0
  0
LINE
  5
612
100
AcDbEntity
  8
1
390
0
  6
Continuous
 62
     7
100
AcDbLine
 10
275.150459
 20
71.476299
 30
0.0
 11
274.350459
 21
72.276299
 31
0.0
  0
LINE
  5
613
100
AcDbEntity
  8
1
390
0
  6
Continuous
 62
     7
100
AcDbLine
 10
182.150459
 20
72.276299
 30
0.0
 11
181.950459
 21
72.276299
 31
0.0
  0
LINE
  5
614
100
AcDbEntity
  8
1
390
0
  6
Continuous
 62
     7
100
AcDbLine
 10
181.950459
 20
68.276299
 30
0.0
 11
182.150459
 21
68.276299
 31
0.0
  0
LINE
  5
615
100
AcDbEntity
  8
1
390
0
  6
Continuous
 62
     7
100
AcDbLine
 10
181.950459
 20
72.276299
 30
0.0
 11
181.150459
 21
71.476299
 31
0.0
  0
LINE
  5
616
100
AcDbEntity
  8
1
390
0
  6
Continuous
 62
     7
100
AcDbLine
 10
181.150459
 20
69.076299
 30
0.0
 11
181.950459
 21
68.276299
 31
0.0
  0
LINE
  5
617
100
AcDbEntity
  8
1
390
0
  6
Continuous
 62
     7
100
AcDbLine
 10
274.150459
 20
68.276299
 30
0.0
 11
274.350459
 21
68.276299
 31
0.0
  0
LINE
  5
618
100
AcDbEntity
  8
1
390
0
  6
Continuous
 62
     7
100
AcDbLine
 10
274.350459
 20
72.276299
 30
0.0
 11
274.150459
 21
72.276299
 31
0.0
  0
LINE
  5
619
100
AcDbEntity
  8
1
390
0
  6
DOT
 62
     9
100
AcDbLine
 10
284.750459
 20
62.776299
 30
0.0
 11
284.750459
 21
64.276299
 31
0.0
  0
LINE
  5
61A
100
AcDbEntity
  8
1
390
0
  6
DOT
 62
     9
100
AcDbLine
 10
280.550459
 20
64.276299
 30
0.0
 11
280.550459
 21
62.776299
 31
0.0
  0
LINE
  5
61B
100
AcDbEntity
  8
1
390
0
  6
DOT
 62
     9
100
AcDbLine
 10
175.750459
 20
62.776299
 30
0.0
 11
175.750459
 21
64.276299
 31
0.0
  0
LINE
  5
61C
100
AcDbEntity
  8
1
390
0
  6
DOT
 62
     9
100
AcDbLine
 10
171.550459
 20
64.276299
 30
0.0
 11
171.550459
 21
62.776299
 31
0.0
  0
LINE
  5
61D
100
AcDbEntity
  8
1
390
0
  6
Continuous
 62
     7
100
AcDbLine
 10
180.954049
 20
67.026299
 30
0.0
 11
182.150459
 21
67.026299
 31
0.0
  0
LINE
  5
61E
100
AcDbEntity
  8
1
390
0
  6
Continuous
 62
     7
100
AcDbLine
 10
182.150459
 20
85.526299
 30
0.0
 11
180.954049
 21
85.526299
 31
0.0
  0
LINE
  5
61F
100
AcDbEntity
  8
1
390
0
  6
Continuous
 62
     7
100
AcDbLine
 10
180.854049
 20
85.499504
 30
0.0
 11
178.250459
 21
83.996321
 31
0.0
  0
LINE
  5
620
100
AcDbEntity
  8
1
390
0
  6
Continuous
 62
     7
100
AcDbLine
 10
178.250459
 20
68.556278
 30
0.0
 11
180.854049
 21
67.053094
 31
0.0
  0
ARC
  5
621
100
AcDbEntity
  8
1
390
0
  6
Continuous
 62
     7
100
AcDbCircle
 10
178.350459
 20
83.823116
 30
0.0
 40
0.2
210
0.0
220
0.0
230
1.0
100
AcDbArc
 50
120.0
 51
180.0
  0
ARC
  5
622
100
AcDbEntity
  8
1
390
0
  6
Continuous
 62
     7
100
AcDbCircle
 10
178.350459
 20
68.729483
 30
0.0
 40
0.2
210
0.0
220
0.0
230
1.0
100
AcDbArc
 50
180.0
 51
240.0
  0
LINE
  5
623
100
AcDbEntity
  8
1
390
0
  6
Continuous
 62
     7
100
AcDbLine
 10
177.350459
 20
69.526299
 30
0.0
 11
178.150459
 21
69.526299
 31
0.0
  0
LINE
  5
624
100
AcDbEntity
  8
1
390
0
  6
Continuous
 62
     7
100
AcDbLine
 10
178.150459
 20
83.026299
 30
0.0
 11
177.350459
 21
83.026299
 31
0.0
  0
ARC
  5
625
100
AcDbEntity
  8
1
390
0
  6
Continuous
 62
     7
100
AcDbCircle
 10
177.350459
 20
82.826299
 30
0.0
 40
0.2
210
0.0
220
0.0
230
1.0
100
AcDbArc
 50
90.0
 51
180.0
  0
ARC
  5
626
100
AcDbEntity
  8
1
390
0
  6
Continuous
 62
     7
100
AcDbCircle
 10
177.350459
 20
69.726299
 30
0.0
 40
0.2
210
0.0
220
0.0
230
1.0
100
AcDbArc
 50
180.0
 51
270.0
  0
LINE
  5
627
100
AcDbEntity
  8
1
390
0
  6
DOT
 62
     9
100
AcDbLine
 10
177.150459
 20
71.276299
 30
0.0
 11
181.150459
 21
71.276299
 31
0.0
  0
LINE
  5
628
100
AcDbEntity
  8
1
390
0
  6
DOT
 62
     9
100
AcDbLine
 10
181.650459
 20
71.276299
 30
0.0
 11
182.150459
 21
71.276299
 31
0.0
  0
LINE
  5
629
100
AcDbEntity
  8
1
390
0
  6
DOT
 62
     9
100
AcDbLine
 10
178.350459
 20
73.276299
 30
0.0
 11
182.150459
 21
73.276299
 31
0.0
  0
LINE
  5
62A
100
AcDbEntity
  8
1
390
0
  6
DOT
 62
     9
100
AcDbLine
 10
182.150459
 20
79.276299
 30
0.0
 11
178.350459
 21
79.276299
 31
0.0
  0
LINE
  5
62B
100
AcDbEntity
  8
1
390
0
  6
DOT
 62
     9
100
AcDbLine
 10
178.350459
 20
79.276299
 30
0.0
 11
178.150459
 21
79.076299
 31
0.0
  0
LINE
  5
62C
100
AcDbEntity
  8
1
390
0
  6
DOT
 62
     9
100
AcDbLine
 10
178.150459
 20
73.476299
 30
0.0
 11
178.350459
 21
73.276299
 31
0.0
  0
LINE
  5
62D
100
AcDbEntity
  8
1
390
0
  6
DOT
 62
     9
100
AcDbLine
 10
178.150459
 20
75.776299
 30
0.0
 11
182.150459
 21
75.776299
 31
0.0
  0
LINE
  5
62E
100
AcDbEntity
  8
1
390
0
  6
DOT
 62
     9
100
AcDbLine
 10
182.150459
 20
76.776299
 30
0.0
 11
178.150459
 21
76.776299
 31
0.0
  0
LINE
  5
62F
100
AcDbEntity
  8
1
390
0
  6
DOT
 62
     9
100
AcDbLine
 10
178.150459
 20
77.098816
 30
0.0
 11
182.150459
 21
77.098816
 31
0.0
  0
LINE
  5
630
100
AcDbEntity
  8
1
390
0
  6
DOT
 62
     9
100
AcDbLine
 10
182.150459
 20
78.098816
 30
0.0
 11
178.150459
 21
78.098816
 31
0.0
  0
LINE
  5
631
100
AcDbEntity
  8
1
390
0
  6
DOT
 62
     9
100
AcDbLine
 10
178.150459
 20
74.453782
 30
0.0
 11
182.150459
 21
74.453782
 31
0.0
  0
LINE
  5
632
100
AcDbEntity
  8
1
390
0
  6
DOT
 62
     9
100
AcDbLine
 10
182.150459
 20
75.453782
 30
0.0
 11
178.150459
 21
75.453782
 31
0.0
  0
LINE
  5
633
100
AcDbEntity
  8
1
390
0
  6
DOT
 62
     9
100
AcDbLine
 10
178.150459
 20
77.916176
 30
0.0
 11
182.150459
 21
77.916176
 31
0.0
  0
LINE
  5
634
100
AcDbEntity
  8
1
390
0
  6
DOT
 62
     9
100
AcDbLine
 10
182.150459
 20
78.916176
 30
0.0
 11
178.150459
 21
78.916176
 31
0.0
  0
LINE
  5
635
100
AcDbEntity
  8
1
390
0
  6
DOT
 62
     9
100
AcDbLine
 10
178.150459
 20
73.636422
 30
0.0
 11
182.150459
 21
73.636422
 31
0.0
  0
LINE
  5
636
100
AcDbEntity
  8
1
390
0
  6
DOT
 62
     9
100
AcDbLine
 10
182.150459
 20
74.636422
 30
0.0
 11
178.150459
 21
74.636422
 31
0.0
  0
LINE
  5
637
100
AcDbEntity
  8
1
390
0
  6
DOT
 62
     9
100
AcDbLine
 10
182.150459
 20
77.776299
 30
0.0
 11
178.150459
 21
77.776299
 31
0.0
  0
LINE
  5
638
100
AcDbEntity
  8
1
390
0
  6
DOT
 62
     9
100
AcDbLine
 10
178.150459
 20
74.776299
 30
0.0
 11
182.150459
 21
74.776299
 31
0.0
  0
LINE
  5
639
100
AcDbEntity
  8
1
390
0
  6
Continuous
 62
     7
100
AcDbLine
 10
71.997283
 20
140.758809
 30
0.0
 11
71.997283
 21
171.758809
 31
0.0
  0
LINE
  5
63A
100
AcDbEntity
  8
1
390
0
  6
Continuous
 62
     7
100
AcDbLine
 10
70.497283
 20
140.758809
 30
0.0
 11
70.497283
 21
171.758809
 31
0.0
  0
LINE
  5
63B
100
AcDbEntity
  8
1
390
0
  6
Continuous
 62
     7
100
AcDbLine
 10
70.497283
 20
138.758809
 30
0.0
 11
71.997283
 21
138.758809
 31
0.0
  0
LINE
  5
63C
100
AcDbEntity
  8
1
390
0
  6
Continuous
 62
     7
100
AcDbLine
 10
71.997283
 20
138.758809
 30
0.0
 11
71.997283
 21
140.758809
 31
0.0
  0
LINE
  5
63D
100
AcDbEntity
  8
1
390
0
  6
Continuous
 62
     7
100
AcDbLine
 10
70.497283
 20
138.758809
 30
0.0
 11
70.497283
 21
140.758809
 31
0.0
  0
LINE
  5
63E
100
AcDbEntity
  8
1
390
0
  6
Continuous
 62
     7
100
AcDbLine
 10
70.497283
 20
173.758809
 30
0.0
 11
71.997283
 21
173.758809
 31
0.0
  0
LINE
  5
63F
100
AcDbEntity
  8
1
390
0
  6
Continuous
 62
     7
100
AcDbLine
 10
71.997283
 20
171.758809
 30
0.0
 11
71.997283
 21
173.758809
 31
0.0
  0
LINE
  5
640
100
AcDbEntity
  8
1
390
0
  6
Continuous
 62
     7
100
AcDbLine
 10
70.497283
 20
171.758809
 30
0.0
 11
70.497283
 21
173.758809
 31
0.0
  0
LINE
  5
641
100
AcDbEntity
  8
1
390
0
  6
Continuous
 62
     7
100
AcDbLine
 10
89.997283
 20
155.008809
 30
0.0
 11
89.997283
 21
157.508809
 31
0.0
  0
ARC
  5
642
100
AcDbEntity
  8
1
390
0
  6
Continuous
 62
     7
100
AcDbCircle
 10
83.997283
 20
156.258809
 30
0.0
 40
5.0
210
0.0
220
0.0
230
1.0
100
AcDbArc
 50
14.477512
 51
345.522488
  0
LINE
  5
643
100
AcDbEntity
  8
1
390
0
  6
Continuous
 62
     7
100
AcDbLine
 10
88.838513
 20
155.008809
 30
0.0
 11
89.997283
 21
155.008809
 31
0.0
  0
LINE
  5
644
100
AcDbEntity
  8
1
390
0
  6
Continuous
 62
     7
100
AcDbLine
 10
89.997283
 20
157.508809
 30
0.0
 11
88.838513
 21
157.508809
 31
0.0
  0
ARC
  5
645
100
AcDbEntity
  8
1
390
0
  6
Continuous
 62
     7
100
AcDbCircle
 10
83.997283
 20
156.258809
 30
0.0
 40
6.75
210
0.0
220
0.0
230
1.0
100
AcDbArc
 50
180.0
 51
360.0
  0
ARC
  5
646
100
AcDbEntity
  8
1
390
0
  6
Continuous
 62
     7
100
AcDbCircle
 10
83.997283
 20
156.258809
 30
0.0
 40
6.75
210
0.0
220
0.0
230
1.0
100
AcDbArc
 50
0.0
 51
180.0
  0
CIRCLE
  5
647
100
AcDbEntity
  8
1
390
0
  6
Continuous
 62
     7
100
AcDbCircle
 10
83.997283
 20
156.258809
 30
0.0
 40
3.0
210
0.0
220
0.0
230
1.0
  0
CIRCLE
  5
648
100
AcDbEntity
  8
1
390
0
  6
Continuous
 62
     7
100
AcDbCircle
 10
83.997283
 20
156.258809
 30
0.0
 40
2.8
210
0.0
220
0.0
230
1.0
  0
CIRCLE
  5
649
100
AcDbEntity
  8
1
390
0
  6
Continuous
 62
     7
100
AcDbCircle
 10
81.857406
 20
156.954097
 30
0.0
 40
0.5
210
0.0
220
0.0
230
1.0
  0
CIRCLE
  5
64A
100
AcDbEntity
  8
1
390
0
  6
Continuous
 62
     7
100
AcDbCircle
 10
82.674767
 20
158.079097
 30
0.0
 40
0.5
210
0.0
220
0.0
230
1.0
  0
CIRCLE
  5
64B
100
AcDbEntity
  8
1
390
0
  6
Continuous
 62
     7
100
AcDbCircle
 10
83.997283
 20
158.508809
 30
0.0
 40
0.5
210
0.0
220
0.0
230
1.0
  0
CIRCLE
  5
64C
100
AcDbEntity
  8
1
390
0
  6
Continuous
 62
     7
100
AcDbCircle
 10
85.3198
 20
158.079097
 30
0.0
 40
0.5
210
0.0
220
0.0
230
1.0
  0
CIRCLE
  5
64D
100
AcDbEntity
  8
1
390
0
  6
Continuous
 62
     7
100
AcDbCircle
 10
86.137161
 20
156.954097
 30
0.0
 40
0.5
210
0.0
220
0.0
230
1.0
  0
CIRCLE
  5
64E
100
AcDbEntity
  8
1
390
0
  6
Continuous
 62
     7
100
AcDbCircle
 10
86.137161
 20
155.56352
 30
0.0
 40
0.5
210
0.0
220
0.0
230
1.0
  0
CIRCLE
  5
64F
100
AcDbEntity
  8
1
390
0
  6
Continuous
 62
     7
100
AcDbCircle
 10
85.3198
 20
154.43852
 30
0.0
 40
0.5
210
0.0
220
0.0
230
1.0
  0
CIRCLE
  5
650
100
AcDbEntity
  8
1
390
0
  6
Continuous
 62
     7
100
AcDbCircle
 10
83.997283
 20
157.258809
 30
0.0
 40
0.5
210
0.0
220
0.0
230
1.0
  0
CIRCLE
  5
651
100
AcDbEntity
  8
1
390
0
  6
Continuous
 62
     7
100
AcDbCircle
 10
83.997283
 20
155.258809
 30
0.0
 40
0.5
210
0.0
220
0.0
230
1.0
  0
CIRCLE
  5
652
100
AcDbEntity
  8
1
390
0
  6
Continuous
 62
     7
100
AcDbCircle
 10
82.997283
 20
156.258809
 30
0.0
 40
0.5
210
0.0
220
0.0
230
1.0
  0
CIRCLE
  5
653
100
AcDbEntity
  8
1
390
0
  6
Continuous
 62
     7
100
AcDbCircle
 10
81.857406
 20
155.56352
 30
0.0
 40
0.5
210
0.0
220
0.0
230
1.0
  0
CIRCLE
  5
654
100
AcDbEntity
  8
1
390
0
  6
Continuous
 62
     7
100
AcDbCircle
 10
82.674767
 20
154.43852
 30
0.0
 40
0.5
210
0.0
220
0.0
230
1.0
  0
CIRCLE
  5
655
100
AcDbEntity
  8
1
390
0
  6
Continuous
 62
     7
100
AcDbCircle
 10
83.997283
 20
154.008809
 30
0.0
 40
0.5
210
0.0
220
0.0
230
1.0
  0
CIRCLE
  5
656
100
AcDbEntity
  8
1
390
0
  6
Continuous
 62
     7
100
AcDbCircle
 10
84.997283
 20
156.258809
 30
0.0
 40
0.5
210
0.0
220
0.0
230
1.0
  0
ARC
  5
657
100
AcDbEntity
  8
1
390
0
  6
Continuous
 62
     7
100
AcDbCircle
 10
83.997283
 20
156.258809
 30
0.0
 40
9.25
210
0.0
220
0.0
230
1.0
100
AcDbArc
 50
180.0
 51
360.0
  0
ARC
  5
658
100
AcDbEntity
  8
1
390
0
  6
Continuous
 62
     7
100
AcDbCircle
 10
83.997283
 20
156.258809
 30
0.0
 40
9.25
210
0.0
220
0.0
230
1.0
100
AcDbArc
 50
0.0
 51
180.0
  0
CIRCLE
  5
659
100
AcDbEntity
  8
1
390
0
  6
Continuous
 62
     7
100
AcDbCircle
 10
77.997283
 20
142.758809
 30
0.0
 40
1.2
210
0.0
220
0.0
230
1.0
  0
CIRCLE
  5
65A
100
AcDbEntity
  8
1
390
0
  6
Continuous
 62
     7
100
AcDbCircle
 10
77.997283
 20
142.758809
 30
0.0
 40
2.0
210
0.0
220
0.0
230
1.0
  0
LINE
  5
65B
100
AcDbEntity
  8
1
390
0
  6
Continuous
 62
     7
100
AcDbLine
 10
77.697283
 20
170.758809
 30
0.0
 11
77.697283
 21
170.258809
 31
0.0
  0
ARC
  5
65C
100
AcDbEntity
  8
1
390
0
  6
Continuous
 62
     7
100
AcDbCircle
 10
77.497283
 20
170.258809
 30
0.0
 40
0.2
210
0.0
220
0.0
230
1.0
100
AcDbArc
 50
270.0
 51
360.0
  0
LINE
  5
65D
100
AcDbEntity
  8
1
390
0
  6
Continuous
 62
     7
100
AcDbLine
 10
77.497283
 20
170.058809
 30
0.0
 11
76.997283
 21
170.058809
 31
0.0
  0
LINE
  5
65E
100
AcDbEntity
  8
1
390
0
  6
Continuous
 62
     7
100
AcDbLine
 10
76.997283
 20
170.058809
 30
0.0
 11
76.997283
 21
169.458809
 31
0.0
  0
LINE
  5
65F
100
AcDbEntity
  8
1
390
0
  6
Continuous
 62
     7
100
AcDbLine
 10
76.997283
 20
169.458809
 30
0.0
 11
77.497283
 21
169.458809
 31
0.0
  0
ARC
  5
660
100
AcDbEntity
  8
1
390
0
  6
Continuous
 62
     7
100
AcDbCircle
 10
77.497283
 20
169.258809
 30
0.0
 40
0.2
210
0.0
220
0.0
230
1.0
100
AcDbArc
 50
0.0
 51
90.0
  0
LINE
  5
661
100
AcDbEntity
  8
1
390
0
  6
Continuous
 62
     7
100
AcDbLine
 10
77.697283
 20
169.258809
 30
0.0
 11
77.697283
 21
168.758809
 31
0.0
  0
LINE
  5
662
100
AcDbEntity
  8
1
390
0
  6
Continuous
 62
     7
100
AcDbLine
 10
78.297283
 20
168.758809
 30
0.0
 11
78.297283
 21
169.258809
 31
0.0
  0
LINE
  5
663
100
AcDbEntity
  8
1
390
0
  6
Continuous
 62
     7
100
AcDbLine
 10
78.497283
 20
169.458809
 30
0.0
 11
78.997283
 21
169.458809
 31
0.0
  0
LINE
  5
664
100
AcDbEntity
  8
1
390
0
  6
Continuous
 62
     7
100
AcDbLine
 10
78.997283
 20
169.458809
 30
0.0
 11
78.997283
 21
170.058809
 31
0.0
  0
LINE
  5
665
100
AcDbEntity
  8
1
390
0
  6
Continuous
 62
     7
100
AcDbLine
 10
78.997283
 20
170.058809
 30
0.0
 11
78.497283
 21
170.058809
 31
0.0
  0
ARC
  5
666
100
AcDbEntity
  8
1
390
0
  6
Continuous
 62
     7
100
AcDbCircle
 10
78.497283
 20
170.258809
 30
0.0
 40
0.2
210
0.0
220
0.0
230
1.0
100
AcDbArc
 50
180.0
 51
270.0
  0
LINE
  5
667
100
AcDbEntity
  8
1
390
0
  6
Continuous
 62
     7
100
AcDbLine
 10
78.297283
 20
170.258809
 30
0.0
 11
78.297283
 21
170.758809
 31
0.0
  0
LINE
  5
668
100
AcDbEntity
  8
1
390
0
  6
Continuous
 62
     7
100
AcDbLine
 10
78.297283
 20
170.758809
 30
0.0
 11
77.697283
 21
170.758809
 31
0.0
  0
CIRCLE
  5
669
100
AcDbEntity
  8
1
390
0
  6
Continuous
 62
     7
100
AcDbCircle
 10
77.997283
 20
169.758809
 30
0.0
 40
1.2
210
0.0
220
0.0
230
1.0
  0
ARC
  5
66A
100
AcDbEntity
  8
1
390
0
  6
Continuous
 62
     7
100
AcDbCircle
 10
78.497283
 20
169.258809
 30
0.0
 40
0.2
210
0.0
220
0.0
230
1.0
100
AcDbArc
 50
90.0
 51
180.0
  0
LINE
  5
66B
100
AcDbEntity
  8
1
390
0
  6
Continuous
 62
     7
100
AcDbLine
 10
77.697283
 20
168.758809
 30
0.0
 11
78.297283
 21
168.758809
 31
0.0
  0
LINE
  5
66C
100
AcDbEntity
  8
1
390
0
  6
Continuous
 62
     7
100
AcDbLine
 10
78.297283
 20
142.258809
 30
0.0
 11
78.297283
 21
141.758809
 31
0.0
  0
ARC
  5
66D
100
AcDbEntity
  8
1
390
0
  6
Continuous
 62
     7
100
AcDbCircle
 10
78.497283
 20
142.258809
 30
0.0
 40
0.2
210
0.0
220
0.0
230
1.0
100
AcDbArc
 50
90.0
 51
180.0
  0
LINE
  5
66E
100
AcDbEntity
  8
1
390
0
  6
Continuous
 62
     7
100
AcDbLine
 10
76.997283
 20
143.058809
 30
0.0
 11
77.497283
 21
143.058809
 31
0.0
  0
LINE
  5
66F
100
AcDbEntity
  8
1
390
0
  6
Continuous
 62
     7
100
AcDbLine
 10
76.997283
 20
142.458809
 30
0.0
 11
76.997283
 21
143.058809
 31
0.0
  0
LINE
  5
670
100
AcDbEntity
  8
1
390
0
  6
Continuous
 62
     7
100
AcDbLine
 10
78.997283
 20
142.458809
 30
0.0
 11
78.497283
 21
142.458809
 31
0.0
  0
LINE
  5
671
100
AcDbEntity
  8
1
390
0
  6
Continuous
 62
     7
100
AcDbLine
 10
78.997283
 20
143.058809
 30
0.0
 11
78.997283
 21
142.458809
 31
0.0
  0
LINE
  5
672
100
AcDbEntity
  8
1
390
0
  6
Continuous
 62
     7
100
AcDbLine
 10
78.497283
 20
143.058809
 30
0.0
 11
78.997283
 21
143.058809
 31
0.0
  0
ARC
  5
673
100
AcDbEntity
  8
1
390
0
  6
Continuous
 62
     7
100
AcDbCircle
 10
78.497283
 20
143.258809
 30
0.0
 40
0.2
210
0.0
220
0.0
230
1.0
100
AcDbArc
 50
180.0
 51
270.0
  0
LINE
  5
674
100
AcDbEntity
  8
1
390
0
  6
Continuous
 62
     7
100
AcDbLine
 10
78.297283
 20
143.758809
 30
0.0
 11
78.297283
 21
143.258809
 31
0.0
  0
LINE
  5
675
100
AcDbEntity
  8
1
390
0
  6
Continuous
 62
     7
100
AcDbLine
 10
77.697283
 20
143.758809
 30
0.0
 11
78.297283
 21
143.758809
 31
0.0
  0
LINE
  5
676
100
AcDbEntity
  8
1
390
0
  6
Continuous
 62
     7
100
AcDbLine
 10
77.697283
 20
143.258809
 30
0.0
 11
77.697283
 21
143.758809
 31
0.0
  0
LINE
  5
677
100
AcDbEntity
  8
1
390
0
  6
Continuous
 62
     7
100
AcDbLine
 10
78.297283
 20
141.758809
 30
0.0
 11
77.697283
 21
141.758809
 31
0.0
  0
LINE
  5
678
100
AcDbEntity
  8
1
390
0
  6
Continuous
 62
     7
100
AcDbLine
 10
77.497283
 20
142.458809
 30
0.0
 11
76.997283
 21
142.458809
 31
0.0
  0
ARC
  5
679
100
AcDbEntity
  8
1
390
0
  6
Continuous
 62
     7
100
AcDbCircle
 10
77.497283
 20
142.258809
 30
0.0
 40
0.2
210
0.0
220
0.0
230
1.0
100
AcDbArc
 50
0.0
 51
90.0
  0
LINE
  5
67A
100
AcDbEntity
  8
1
390
0
  6
Continuous
 62
     7
100
AcDbLine
 10
77.697283
 20
141.758809
 30
0.0
 11
77.697283
 21
142.258809
 31
0.0
  0
ARC
  5
67B
100
AcDbEntity
  8
1
390
0
  6
Continuous
 62
     7
100
AcDbCircle
 10
77.497283
 20
143.258809
 30
0.0
 40
0.2
210
0.0
220
0.0
230
1.0
100
AcDbArc
 50
270.0
 51
360.0
  0
CIRCLE
  5
67C
100
AcDbEntity
  8
1
390
0
  6
Continuous
 62
     7
100
AcDbCircle
 10
77.997283
 20
169.758809
 30
0.0
 40
2.0
210
0.0
220
0.0
230
1.0
  0
LINE
  5
67D
100
AcDbEntity
  8
1
390
0
  6
Continuous
 62
     7
100
AcDbLine
 10
72.197283
 20
172.758809
 30
0.0
 11
72.197283
 21
139.758809
 31
0.0
  0
ARC
  5
67E
100
AcDbEntity
  8
1
390
0
  6
Continuous
 62
     7
100
AcDbCircle
 10
94.997283
 20
139.758809
 30
0.0
 40
1.0
210
0.0
220
0.0
230
1.0
100
AcDbArc
 50
270.0
 51
360.0
  0
ARC
  5
67F
100
AcDbEntity
  8
1
390
0
  6
Continuous
 62
     7
100
AcDbCircle
 10
71.197283
 20
139.758809
 30
0.0
 40
1.0
210
0.0
220
0.0
230
1.0
100
AcDbArc
 50
323.130102
 51
360.0
  0
LINE
  5
680
100
AcDbEntity
  8
1
390
0
  6
Continuous
 62
     7
100
AcDbLine
 10
94.997283
 20
138.758809
 30
0.0
 11
72.197283
 21
138.758809
 31
0.0
  0
LINE
  5
681
100
AcDbEntity
  8
1
390
0
  6
Continuous
 62
     7
100
AcDbLine
 10
72.197283
 20
138.758809
 30
0.0
 11
71.997283
 21
138.958809
 31
0.0
  0
ARC
  5
682
100
AcDbEntity
  8
1
390
0
  6
Continuous
 62
     7
100
AcDbCircle
 10
94.997283
 20
172.758809
 30
0.0
 40
1.0
210
0.0
220
0.0
230
1.0
100
AcDbArc
 50
0.0
 51
90.0
  0
LINE
  5
683
100
AcDbEntity
  8
1
390
0
  6
Continuous
 62
     7
100
AcDbLine
 10
71.997283
 20
173.558809
 30
0.0
 11
72.197283
 21
173.758809
 31
0.0
  0
LINE
  5
684
100
AcDbEntity
  8
1
390
0
  6
Continuous
 62
     7
100
AcDbLine
 10
72.197283
 20
173.758809
 30
0.0
 11
94.997283
 21
173.758809
 31
0.0
  0
ARC
  5
685
100
AcDbEntity
  8
1
390
0
  6
Continuous
 62
     7
100
AcDbCircle
 10
71.197283
 20
172.758809
 30
0.0
 40
1.0
210
0.0
220
0.0
230
1.0
100
AcDbArc
 50
0.0
 51
36.869898
  0
LINE
  5
686
100
AcDbEntity
  8
1
390
0
  6
Continuous
 62
     7
100
AcDbLine
 10
95.997283
 20
172.758809
 30
0.0
 11
95.997283
 21
139.758809
 31
0.0
  0
LINE
  5
687
100
AcDbEntity
  8
1
390
0
  6
Continuous
 62
     7
100
AcDbLine
 10
96.097283
 20
141.258809
 30
0.0
 11
96.097283
 21
171.258809
 31
0.0
  0
LINE
  5
688
100
AcDbEntity
  8
1
390
0
  6
Continuous
 62
     7
100
AcDbLine
 10
96.097283
 20
141.258809
 30
0.0
 11
95.997283
 21
141.258809
 31
0.0
  0
LINE
  5
689
100
AcDbEntity
  8
1
390
0
  6
Continuous
 62
     7
100
AcDbLine
 10
96.097283
 20
171.258809
 30
0.0
 11
95.997283
 21
171.258809
 31
0.0
  0
LINE
  5
68A
100
AcDbEntity
  8
1
390
0
  6
Continuous
 62
     7
100
AcDbLine
 10
74.997283
 20
137.158809
 30
0.0
 11
92.997283
 21
137.158809
 31
0.0
  0
LINE
  5
68B
100
AcDbEntity
  8
1
390
0
  6
Continuous
 62
     7
100
AcDbLine
 10
73.997283
 20
137.158809
 30
0.0
 11
74.997283
 21
137.158809
 31
0.0
  0
LINE
  5
68C
100
AcDbEntity
  8
1
390
0
  6
Continuous
 62
     7
100
AcDbLine
 10
73.997283
 20
137.158809
 30
0.0
 11
73.997283
 21
138.758809
 31
0.0
  0
LINE
  5
68D
100
AcDbEntity
  8
1
390
0
  6
Continuous
 62
     7
100
AcDbLine
 10
93.997283
 20
137.158809
 30
0.0
 11
93.997283
 21
138.758809
 31
0.0
  0
LINE
  5
68E
100
AcDbEntity
  8
1
390
0
  6
Continuous
 62
     7
100
AcDbLine
 10
92.997283
 20
137.158809
 30
0.0
 11
93.997283
 21
137.158809
 31
0.0
  0
LINE
  5
68F
100
AcDbEntity
  8
1
390
0
  6
Continuous
 62
     7
100
AcDbLine
 10
82.197283
 20
135.394195
 30
0.0
 11
82.197283
 21
135.404139
 31
0.0
  0
POLYLINE
  5
690
100
AcDbEntity
  8
1
390
0
  6
Continuous
 62
     7
100
AcDb2dPolyline
 66
     1
 10
0.0
 20
0.0
 30
0.0
 40
3.0
 41
3.0
  0
VERTEX
  5
691
100
AcDbEntity
  8
1
390
0
 62
     7
100
AcDbVertex
100
AcDb2dVertex
 10
84.91395
 20
135.228781
 30
0.0
 42
-0.040268
  0
VERTEX
  5
692
100
AcDbEntity
  8
1
390
0
 62
     7
100
AcDbVertex
100
AcDb2dVertex
 10
84.463088
 20
135.200288
 30
0.0
  0
VERTEX
  5
693
100
AcDbEntity
  8
1
390
0
 62
     7
100
AcDbVertex
100
AcDb2dVertex
 10
84.364568
 20
135.225431
 30
0.0
  0
VERTEX
  5
694
100
AcDbEntity
  8
1
390
0
 62
     7
100
AcDbVertex
100
AcDb2dVertex
 10
84.36395
 20
135.228781
 30
0.0
  0
SEQEND
  5
695
100
AcDbEntity
  8
0
390
0
  0
LINE
  5
696
100
AcDbEntity
  8
1
390
0
  6
Continuous
 62
     7
100
AcDbLine
 10
84.36395
 20
135.404139
 30
0.0
 11
84.36395
 21
135.228781
 31
0.0
  0
ARC
  5
697
100
AcDbEntity
  8
1
390
0
  6
Continuous
 62
     7
100
AcDbCircle
 10
83.997283
 20
142.158809
 30
0.0
 40
6.764614
210
0.0
220
0.0
230
1.0
100
AcDbArc
 50
266.892838
 51
273.107162
  0
LINE
  5
698
100
AcDbEntity
  8
1
390
0
  6
Continuous
 62
     7
100
AcDbLine
 10
83.630617
 20
135.228781
 30
0.0
 11
83.630617
 21
135.404139
 31
0.0
  0
POLYLINE
  5
699
100
AcDbEntity
  8
1
390
0
  6
Continuous
 62
     7
100
AcDb2dPolyline
 66
     1
 10
0.0
 20
0.0
 30
0.0
 40
3.0
 41
3.0
  0
VERTEX
  5
69A
100
AcDbEntity
  8
1
390
0
 62
     7
100
AcDbVertex
100
AcDb2dVertex
 10
83.630617
 20
135.228781
 30
0.0
  0
VERTEX
  5
69B
100
AcDbEntity
  8
1
390
0
 62
     7
100
AcDbVertex
100
AcDb2dVertex
 10
83.525862
 20
135.199988
 30
0.0
 42
-0.039052
  0
VERTEX
  5
69C
100
AcDbEntity
  8
1
390
0
 62
     7
100
AcDbVertex
100
AcDb2dVertex
 10
83.080617
 20
135.228781
 30
0.0
  0
SEQEND
  5
69D
100
AcDbEntity
  8
0
390
0
  0
ARC
  5
69E
100
AcDbEntity
  8
1
390
0
  6
Continuous
 62
     7
100
AcDbCircle
 10
83.997283
 20
142.158809
 30
0.0
 40
6.99039
210
0.0
220
0.0
230
1.0
100
AcDbArc
 50
255.078444
 51
262.464966
  0
LINE
  5
69F
100
AcDbEntity
  8
1
390
0
  6
DOT
 62
     9
100
AcDbLine
 10
83.630071
 20
135.225615
 30
0.0
 11
83.630617
 21
135.228781
 31
0.0
  0
LINE
  5
6A0
100
AcDbEntity
  8
1
390
0
  6
Continuous
 62
     7
100
AcDbLine
 10
85.797283
 20
135.404139
 30
0.0
 11
85.797283
 21
135.394195
 31
0.0
  0
ARC
  5
6A1
100
AcDbEntity
  8
1
390
0
  6
Continuous
 62
     7
100
AcDbCircle
 10
83.997283
 20
142.158809
 30
0.0
 40
6.99039
210
0.0
220
0.0
230
1.0
100
AcDbArc
 50
277.535034
 51
284.921556
  0
LINE
  5
6A2
100
AcDbEntity
  8
1
390
0
  6
DOT
 62
     9
100
AcDbLine
 10
84.36395
 20
136.158809
 30
0.0
 11
84.36395
 21
135.404139
 31
0.0
  0
LINE
  5
6A3
100
AcDbEntity
  8
1
390
0
  6
DOT
 62
     9
100
AcDbLine
 10
83.630617
 20
136.158809
 30
0.0
 11
83.630617
 21
135.404139
 31
0.0
  0
LINE
  5
6A4
100
AcDbEntity
  8
1
390
0
  6
DOT
 62
     9
100
AcDbLine
 10
83.630617
 20
136.158809
 30
0.0
 11
84.36395
 21
136.158809
 31
0.0
  0
LINE
  5
6A5
100
AcDbEntity
  8
1
390
0
  6
DOT
 62
     9
100
AcDbLine
 10
84.36395
 20
136.158809
 30
0.0
 11
84.91395
 21
136.158809
 31
0.0
  0
LINE
  5
6A6
100
AcDbEntity
  8
1
390
0
  6
DOT
 62
     9
100
AcDbLine
 10
83.080617
 20
136.158809
 30
0.0
 11
83.630617
 21
136.158809
 31
0.0
  0
LINE
  5
6A7
100
AcDbEntity
  8
1
390
0
  6
DOT
 62
     9
100
AcDbLine
 10
84.91395
 20
136.158809
 30
0.0
 11
85.797283
 21
136.158809
 31
0.0
  0
LINE
  5
6A8
100
AcDbEntity
  8
1
390
0
  6
DOT
 62
     9
100
AcDbLine
 10
85.797283
 20
136.158809
 30
0.0
 11
85.797283
 21
135.404139
 31
0.0
  0
LINE
  5
6A9
100
AcDbEntity
  8
1
390
0
  6
DOT
 62
     9
100
AcDbLine
 10
82.197283
 20
136.158809
 30
0.0
 11
82.197283
 21
135.404139
 31
0.0
  0
LINE
  5
6AA
100
AcDbEntity
  8
1
390
0
  6
DOT
 62
     9
100
AcDbLine
 10
82.197283
 20
136.158809
 30
0.0
 11
83.080617
 21
136.158809
 31
0.0
  0
LINE
  5
6AB
100
AcDbEntity
  8
1
390
0
  6
DOT
 62
     9
100
AcDbLine
 10
81.997283
 20
136.358809
 30
0.0
 11
86.677292
 21
136.358809
 31
0.0
  0
LINE
  5
6AC
100
AcDbEntity
  8
1
390
0
  6
Continuous
 62
     7
100
AcDbLine
 10
86.677292
 20
136.358809
 30
0.0
 11
89.997283
 21
136.358809
 31
0.0
  0
LINE
  5
6AD
100
AcDbEntity
  8
1
390
0
  6
Continuous
 62
     7
100
AcDbLine
 10
89.797283
 20
136.158809
 30
0.0
 11
86.64776
 21
136.158809
 31
0.0
  0
LINE
  5
6AE
100
AcDbEntity
  8
1
390
0
  6
DOT
 62
     9
100
AcDbLine
 10
86.64776
 20
136.158809
 30
0.0
 11
85.797283
 21
136.158809
 31
0.0
  0
LINE
  5
6AF
100
AcDbEntity
  8
1
390
0
  6
DOT
 62
     9
100
AcDbLine
 10
88.479218
 20
142.158809
 30
0.0
 11
88.479218
 21
138.758809
 31
0.0
  0
LINE
  5
6B0
100
AcDbEntity
  8
1
390
0
  6
DOT
 62
     9
100
AcDbLine
 10
88.479218
 20
138.758809
 30
0.0
 11
88.479218
 21
137.158809
 31
0.0
  0
LINE
  5
6B1
100
AcDbEntity
  8
1
390
0
  6
DOT
 62
     9
100
AcDbLine
 10
88.479218
 20
137.158809
 30
0.0
 11
88.479218
 21
136.158809
 31
0.0
  0
LINE
  5
6B2
100
AcDbEntity
  8
1
390
0
  6
DOT
 62
     9
100
AcDbLine
 10
88.479218
 20
136.158809
 30
0.0
 11
88.479218
 21
142.158809
 31
0.0
  0
LINE
  5
6B3
100
AcDbEntity
  8
1
390
0
  6
DOT
 62
     9
100
AcDbLine
 10
88.479218
 20
142.158809
 30
0.0
 11
83.497283
 21
142.158809
 31
0.0
  0
LINE
  5
6B4
100
AcDbEntity
  8
1
390
0
  6
DOT
 62
     9
100
AcDbLine
 10
84.497283
 20
137.358809
 30
0.0
 11
87.497283
 21
137.358809
 31
0.0
  0
LINE
  5
6B5
100
AcDbEntity
  8
1
390
0
  6
DOT
 62
     9
100
AcDbLine
 10
88.730871
 20
142.158809
 30
0.0
 11
88.730871
 21
138.758809
 31
0.0
  0
LINE
  5
6B6
100
AcDbEntity
  8
1
390
0
  6
DOT
 62
     9
100
AcDbLine
 10
88.730871
 20
138.758809
 30
0.0
 11
88.730871
 21
137.158809
 31
0.0
  0
LINE
  5
6B7
100
AcDbEntity
  8
1
390
0
  6
DOT
 62
     9
100
AcDbLine
 10
88.730871
 20
137.158809
 30
0.0
 11
88.730871
 21
136.158809
 31
0.0
  0
LINE
  5
6B8
100
AcDbEntity
  8
1
390
0
  6
DOT
 62
     9
100
AcDbLine
 10
88.730871
 20
142.158809
 30
0.0
 11
88.730871
 21
136.158809
 31
0.0
  0
LINE
  5
6B9
100
AcDbEntity
  8
1
390
0
  6
DOT
 62
     9
100
AcDbLine
 10
88.730871
 20
142.158809
 30
0.0
 11
88.747283
 21
142.158809
 31
0.0
  0
LINE
  5
6BA
100
AcDbEntity
  8
1
390
0
  6
DOT
 62
     9
100
AcDbLine
 10
88.479218
 20
142.158809
 30
0.0
 11
88.730871
 21
142.158809
 31
0.0
  0
LINE
  5
6BB
100
AcDbEntity
  8
1
390
0
  6
Continuous
 62
     7
100
AcDbLine
 10
77.197283
 20
135.394195
 30
0.0
 11
77.197283
 21
135.404139
 31
0.0
  0
POLYLINE
  5
6BC
100
AcDbEntity
  8
1
390
0
  6
Continuous
 62
     7
100
AcDb2dPolyline
 66
     1
 10
0.0
 20
0.0
 30
0.0
 40
3.0
 41
3.0
  0
VERTEX
  5
6BD
100
AcDbEntity
  8
1
390
0
 62
     7
100
AcDbVertex
100
AcDb2dVertex
 10
79.91395
 20
135.228781
 30
0.0
 42
-0.040268
  0
VERTEX
  5
6BE
100
AcDbEntity
  8
1
390
0
 62
     7
100
AcDbVertex
100
AcDb2dVertex
 10
79.463088
 20
135.200288
 30
0.0
  0
VERTEX
  5
6BF
100
AcDbEntity
  8
1
390
0
 62
     7
100
AcDbVertex
100
AcDb2dVertex
 10
79.364568
 20
135.225431
 30
0.0
  0
VERTEX
  5
6C0
100
AcDbEntity
  8
1
390
0
 62
     7
100
AcDbVertex
100
AcDb2dVertex
 10
79.36395
 20
135.228781
 30
0.0
  0
SEQEND
  5
6C1
100
AcDbEntity
  8
0
390
0
  0
LINE
  5
6C2
100
AcDbEntity
  8
1
390
0
  6
Continuous
 62
     7
100
AcDbLine
 10
79.36395
 20
135.404139
 30
0.0
 11
79.36395
 21
135.228781
 31
0.0
  0
ARC
  5
6C3
100
AcDbEntity
  8
1
390
0
  6
Continuous
 62
     7
100
AcDbCircle
 10
78.997283
 20
142.158809
 30
0.0
 40
6.764614
210
0.0
220
0.0
230
1.0
100
AcDbArc
 50
266.892838
 51
273.107162
  0
LINE
  5
6C4
100
AcDbEntity
  8
1
390
0
  6
Continuous
 62
     7
100
AcDbLine
 10
78.630617
 20
135.228781
 30
0.0
 11
78.630617
 21
135.404139
 31
0.0
  0
POLYLINE
  5
6C5
100
AcDbEntity
  8
1
390
0
  6
Continuous
 62
     7
100
AcDb2dPolyline
 66
     1
 10
0.0
 20
0.0
 30
0.0
 40
3.0
 41
3.0
  0
VERTEX
  5
6C6
100
AcDbEntity
  8
1
390
0
 62
     7
100
AcDbVertex
100
AcDb2dVertex
 10
78.630617
 20
135.228781
 30
0.0
  0
VERTEX
  5
6C7
100
AcDbEntity
  8
1
390
0
 62
     7
100
AcDbVertex
100
AcDb2dVertex
 10
78.525862
 20
135.199988
 30
0.0
 42
-0.039052
  0
VERTEX
  5
6C8
100
AcDbEntity
  8
1
390
0
 62
     7
100
AcDbVertex
100
AcDb2dVertex
 10
78.080617
 20
135.228781
 30
0.0
  0
SEQEND
  5
6C9
100
AcDbEntity
  8
0
390
0
  0
ARC
  5
6CA
100
AcDbEntity
  8
1
390
0
  6
Continuous
 62
     7
100
AcDbCircle
 10
78.997283
 20
142.158809
 30
0.0
 40
6.99039
210
0.0
220
0.0
230
1.0
100
AcDbArc
 50
255.078444
 51
262.464966
  0
LINE
  5
6CB
100
AcDbEntity
  8
1
390
0
  6
Continuous
 62
     7
100
AcDbLine
 10
80.797283
 20
135.404139
 30
0.0
 11
80.797283
 21
135.394195
 31
0.0
  0
ARC
  5
6CC
100
AcDbEntity
  8
1
390
0
  6
Continuous
 62
     7
100
AcDbCircle
 10
78.997283
 20
142.158809
 30
0.0
 40
6.99039
210
0.0
220
0.0
230
1.0
100
AcDbArc
 50
277.535034
 51
284.921556
  0
LINE
  5
6CD
100
AcDbEntity
  8
1
390
0
  6
DOT
 62
     9
100
AcDbLine
 10
79.36395
 20
136.158809
 30
0.0
 11
79.36395
 21
135.404139
 31
0.0
  0
LINE
  5
6CE
100
AcDbEntity
  8
1
390
0
  6
DOT
 62
     9
100
AcDbLine
 10
78.630617
 20
136.158809
 30
0.0
 11
78.630617
 21
135.404139
 31
0.0
  0
LINE
  5
6CF
100
AcDbEntity
  8
1
390
0
  6
DOT
 62
     9
100
AcDbLine
 10
78.630617
 20
136.158809
 30
0.0
 11
79.36395
 21
136.158809
 31
0.0
  0
LINE
  5
6D0
100
AcDbEntity
  8
1
390
0
  6
DOT
 62
     9
100
AcDbLine
 10
79.36395
 20
136.158809
 30
0.0
 11
79.91395
 21
136.158809
 31
0.0
  0
LINE
  5
6D1
100
AcDbEntity
  8
1
390
0
  6
DOT
 62
     9
100
AcDbLine
 10
78.080617
 20
136.158809
 30
0.0
 11
78.630617
 21
136.158809
 31
0.0
  0
LINE
  5
6D2
100
AcDbEntity
  8
1
390
0
  6
DOT
 62
     9
100
AcDbLine
 10
79.91395
 20
136.158809
 30
0.0
 11
80.797283
 21
136.158809
 31
0.0
  0
LINE
  5
6D3
100
AcDbEntity
  8
1
390
0
  6
DOT
 62
     9
100
AcDbLine
 10
80.797283
 20
136.158809
 30
0.0
 11
80.797283
 21
135.404139
 31
0.0
  0
LINE
  5
6D4
100
AcDbEntity
  8
1
390
0
  6
DOT
 62
     9
100
AcDbLine
 10
77.197283
 20
136.158809
 30
0.0
 11
78.080617
 21
136.158809
 31
0.0
  0
LINE
  5
6D5
100
AcDbEntity
  8
1
390
0
  6
DOT
 62
     9
100
AcDbLine
 10
77.197283
 20
136.158809
 30
0.0
 11
77.197283
 21
135.404139
 31
0.0
  0
LINE
  5
6D6
100
AcDbEntity
  8
1
390
0
  6
DOT
 62
     9
100
AcDbLine
 10
70.497283
 20
154.158809
 30
0.0
 11
71.997283
 21
154.158809
 31
0.0
  0
LINE
  5
6D7
100
AcDbEntity
  8
1
390
0
  6
DOT
 62
     9
100
AcDbLine
 10
71.997283
 20
158.358809
 30
0.0
 11
70.497283
 21
158.358809
 31
0.0
  0
LINE
  5
6D8
100
AcDbEntity
  8
1
390
0
  6
DOT
 62
     9
100
AcDbLine
 10
70.497283
 20
166.658809
 30
0.0
 11
71.997283
 21
166.658809
 31
0.0
  0
LINE
  5
6D9
100
AcDbEntity
  8
1
390
0
  6
DOT
 62
     9
100
AcDbLine
 10
71.997283
 20
170.858809
 30
0.0
 11
70.497283
 21
170.858809
 31
0.0
  0
LINE
  5
6DA
100
AcDbEntity
  8
1
390
0
  6
DOT
 62
     9
100
AcDbLine
 10
70.497283
 20
141.658809
 30
0.0
 11
71.997283
 21
141.658809
 31
0.0
  0
LINE
  5
6DB
100
AcDbEntity
  8
1
390
0
  6
DOT
 62
     9
100
AcDbLine
 10
71.997283
 20
145.858809
 30
0.0
 11
70.497283
 21
145.858809
 31
0.0
  0
LINE
  5
6DC
100
AcDbEntity
  8
1
390
0
  6
Continuous
 62
     7
100
AcDbLine
 10
81.247283
 20
137.158809
 30
0.0
 11
81.321408
 21
136.31156
 31
0.0
  0
LINE
  5
6DD
100
AcDbEntity
  8
1
390
0
  6
Continuous
 62
     7
100
AcDbLine
 10
86.673159
 20
136.31156
 30
0.0
 11
86.747283
 21
137.158809
 31
0.0
  0
ARC
  5
6DE
100
AcDbEntity
  8
1
390
0
  6
Continuous
 62
     7
100
AcDbCircle
 10
82.317603
 20
136.398715
 30
0.0
 40
1.0
210
0.0
220
0.0
230
1.0
100
AcDbArc
 50
185.0
 51
253.742972
  0
ARC
  5
6DF
100
AcDbEntity
  8
1
390
0
  6
Continuous
 62
     7
100
AcDbCircle
 10
85.676964
 20
136.398715
 30
0.0
 40
1.0
210
0.0
220
0.0
230
1.0
100
AcDbArc
 50
286.257028
 51
355.0
  0
LINE
  5
6E0
100
AcDbEntity
  8
1
390
0
  6
DOT
 62
     9
100
AcDbLine
 10
81.997283
 20
137.158809
 30
0.0
 11
81.997283
 21
136.358809
 31
0.0
  0
LINE
  5
6E1
100
AcDbEntity
  8
1
390
0
  6
Continuous
 62
     7
100
AcDbLine
 10
89.997283
 20
136.358809
 30
0.0
 11
89.997283
 21
137.158809
 31
0.0
  0
LINE
  5
6E2
100
AcDbEntity
  8
1
390
0
  6
DOT
 62
     9
100
AcDbLine
 10
81.997283
 20
136.358809
 30
0.0
 11
82.197283
 21
136.158809
 31
0.0
  0
LINE
  5
6E3
100
AcDbEntity
  8
1
390
0
  6
Continuous
 62
     7
100
AcDbLine
 10
89.797283
 20
136.158809
 30
0.0
 11
89.997283
 21
136.358809
 31
0.0
  0
LINE
  5
6E4
100
AcDbEntity
  8
1
390
0
  6
DOT
 62
     9
100
AcDbLine
 10
83.497283
 20
142.158809
 30
0.0
 11
83.497283
 21
136.158809
 31
0.0
  0
LINE
  5
6E5
100
AcDbEntity
  8
1
390
0
  6
DOT
 62
     9
100
AcDbLine
 10
84.497283
 20
137.358809
 30
0.0
 11
84.697283
 21
137.158809
 31
0.0
  0
LINE
  5
6E6
100
AcDbEntity
  8
1
390
0
  6
DOT
 62
     9
100
AcDbLine
 10
87.297283
 20
137.158809
 30
0.0
 11
87.497283
 21
137.358809
 31
0.0
  0
LINE
  5
6E7
100
AcDbEntity
  8
1
390
0
  6
DOT
 62
     9
100
AcDbLine
 10
87.497283
 20
137.358809
 30
0.0
 11
87.497283
 21
138.758809
 31
0.0
  0
LINE
  5
6E8
100
AcDbEntity
  8
1
390
0
  6
DOT
 62
     9
100
AcDbLine
 10
87.497283
 20
138.758809
 30
0.0
 11
87.497283
 21
142.158809
 31
0.0
  0
LINE
  5
6E9
100
AcDbEntity
  8
1
390
0
  6
DOT
 62
     9
100
AcDbLine
 10
84.497283
 20
142.158809
 30
0.0
 11
84.497283
 21
138.758809
 31
0.0
  0
LINE
  5
6EA
100
AcDbEntity
  8
1
390
0
  6
DOT
 62
     9
100
AcDbLine
 10
84.497283
 20
138.758809
 30
0.0
 11
84.497283
 21
137.358809
 31
0.0
  0
LINE
  5
6EB
100
AcDbEntity
  8
1
390
0
  6
DOT
 62
     9
100
AcDbLine
 10
85.897283
 20
137.158809
 30
0.0
 11
85.897283
 21
142.158809
 31
0.0
  0
LINE
  5
6EC
100
AcDbEntity
  8
1
390
0
  6
DOT
 62
     9
100
AcDbLine
 10
85.297283
 20
142.158809
 30
0.0
 11
85.297283
 21
137.158809
 31
0.0
  0
LINE
  5
6ED
100
AcDbEntity
  8
1
390
0
  6
DOT
 62
     9
100
AcDbLine
 10
87.097283
 20
137.158809
 30
0.0
 11
87.097283
 21
142.158809
 31
0.0
  0
LINE
  5
6EE
100
AcDbEntity
  8
1
390
0
  6
DOT
 62
     9
100
AcDbLine
 10
86.497283
 20
142.158809
 30
0.0
 11
86.497283
 21
137.158809
 31
0.0
  0
LINE
  5
6EF
100
AcDbEntity
  8
1
390
0
  6
DOT
 62
     9
100
AcDbLine
 10
88.747283
 20
136.158809
 30
0.0
 11
88.747283
 21
142.158809
 31
0.0
  0
LINE
  5
6F0
100
AcDbEntity
  8
1
390
0
  6
Continuous
 62
     7
100
AcDbLine
 10
76.247283
 20
137.158809
 30
0.0
 11
76.321408
 21
136.31156
 31
0.0
  0
LINE
  5
6F1
100
AcDbEntity
  8
1
390
0
  6
DOT
 62
     9
100
AcDbLine
 10
81.673159
 20
136.31156
 30
0.0
 11
81.747283
 21
137.158809
 31
0.0
  0
ARC
  5
6F2
100
AcDbEntity
  8
1
390
0
  6
Continuous
 62
     7
100
AcDbCircle
 10
77.317603
 20
136.398715
 30
0.0
 40
1.0
210
0.0
220
0.0
230
1.0
100
AcDbArc
 50
185.0
 51
253.742972
  0
ARC
  5
6F3
100
AcDbEntity
  8
1
390
0
  6
Continuous
 62
     7
100
AcDbCircle
 10
80.676964
 20
136.398715
 30
0.0
 40
1.0
210
0.0
220
0.0
230
1.0
100
AcDbArc
 50
286.257028
 51
325.116777
  0
ARC
  5
6F4
100
AcDbEntity
  8
1
390
0
  6
DOT
 62
     9
100
AcDbCircle
 10
80.676964
 20
136.398715
 30
0.0
 40
1.0
210
0.0
220
0.0
230
1.0
100
AcDbArc
 50
325.116777
 51
355.0
  0
LINE
  5
6F6
100
AcDbEntity
  8
1
390
0
  6
CENTER
 62
     1
100
AcDbLine
 10
228.150459
 20
139.758809
 30
0.0
 11
228.150459
 21
172.758809
 31
0.0
  0
LINE
  5
6F7
100
AcDbEntity
  8
1
390
0
  6
CENTER
 62
     1
100
AcDbLine
 10
288.650459
 20
156.258809
 30
0.0
 11
167.650459
 21
156.258809
 31
0.0
  0
LINE
  5
6F8
100
AcDbEntity
  8
1
390
0
  6
CENTER
 62
     1
100
AcDbLine
 10
173.650459
 20
171.858809
 30
0.0
 11
173.650459
 21
140.658809
 31
0.0
  0
LINE
  5
6F9
100
AcDbEntity
  8
1
390
0
  6
CENTER
 62
     1
100
AcDbLine
 10
170.550459
 20
168.758809
 30
0.0
 11
176.750459
 21
168.758809
 31
0.0
  0
LINE
  5
6FA
100
AcDbEntity
  8
1
390
0
  6
CENTER
 62
     1
100
AcDbLine
 10
170.550459
 20
143.758809
 30
0.0
 11
176.750459
 21
143.758809
 31
0.0
  0
LINE
  5
6FB
100
AcDbEntity
  8
1
390
0
  6
CENTER
 62
     1
100
AcDbLine
 10
282.650459
 20
171.858809
 30
0.0
 11
282.650459
 21
140.658809
 31
0.0
  0
LINE
  5
6FC
100
AcDbEntity
  8
1
390
0
  6
CENTER
 62
     1
100
AcDbLine
 10
279.550459
 20
168.758809
 30
0.0
 11
285.750459
 21
168.758809
 31
0.0
  0
LINE
  5
6FD
100
AcDbEntity
  8
1
390
0
  6
CENTER
 62
     1
100
AcDbLine
 10
279.550459
 20
143.758809
 30
0.0
 11
285.750459
 21
143.758809
 31
0.0
  0
LINE
  5
6FE
100
AcDbEntity
  8
1
390
0
  6
CENTER
 62
     1
100
AcDbLine
 10
228.150459
 20
63.476299
 30
0.0
 11
228.150459
 21
88.276299
 31
0.0
  0
LINE
  5
6FF
100
AcDbEntity
  8
1
390
0
  6
CENTER
 62
     1
100
AcDbLine
 10
228.150459
 20
219.290527
 30
0.0
 11
228.150459
 21
244.090527
 31
0.0
  0
LINE
  5
700
100
AcDbEntity
  8
1
390
0
  6
CENTER
 62
     1
100
AcDbLine
 10
71.197283
 20
156.258809
 30
0.0
 11
95.997283
 21
156.258809
 31
0.0
  0
INSERT
  5
712
100
AcDbEntity
  8
1
390
0
100
AcDbBlockReference
  2
AID2137
 10
0.0
 20
0.0
 30
0.0
  0
INSERT
  5
724
100
AcDbEntity
  8
1
390
0
100
AcDbBlockReference
  2
AID2150
 10
0.0
 20
0.0
 30
0.0
  0
INSERT
  5
736
100
AcDbEntity
  8
1
390
0
100
AcDbBlockReference
  2
AID2163
 10
0.0
 20
0.0
 30
0.0
  0
INSERT
  5
748
100
AcDbEntity
  8
1
390
0
100
AcDbBlockReference
  2
AID2176
 10
0.0
 20
0.0
 30
0.0
  0
INSERT
  5
75A
100
AcDbEntity
  8
1
390
0
100
AcDbBlockReference
  2
AID2189
 10
0.0
 20
0.0
 30
0.0
  0
INSERT
  5
768
100
AcDbEntity
  8
1
390
0
100
AcDbBlockReference
  2
AID2202
 10
0.0
 20
0.0
 30
0.0
  0
INSERT
  5
77A
100
AcDbEntity
  8
1
390
0
100
AcDbBlockReference
  2
AID2215
 10
0.0
 20
0.0
 30
0.0
  0
INSERT
  5
77F
100
AcDbEntity
  8
1
390
0
100
AcDbBlockReference
  2
AID2228
 10
0.0
 20
0.0
 30
0.0
  0
INSERT
  5
784
100
AcDbEntity
  8
1
390
0
100
AcDbBlockReference
  2
AID2231
 10
0.0
 20
0.0
 30
0.0
  0
INSERT
  5
789
100
AcDbEntity
  8
1
390
0
100
AcDbBlockReference
  2
AID2234
 10
0.0
 20
0.0
 30
0.0
  0
ENDSEC
  0
SECTION
  2
OBJECTS
  0
DICTIONARY
  5
19
100
AcDbDictionary
280
     0
281
     1
  3
ACAD_GROUP
350
1A
  3
ACAD_MLINESTYLE
350
1B
  3
ACAD_LAYOUT
350
1E
  3
ACAD_PLOTSETTINGS
350
22
  3
ACAD_PLOTSTYLENAME
350
1F
  3
ACAD_WIPEOUT_VARS
350
23
  0
DICTIONARY
  5
1A
102
{ACAD_REACTORS
330
19
102
}
100
AcDbDictionary
280
     0
281
     1
  0
DICTIONARY
  5
1B
102
{ACAD_REACTORS
330
19
102
}
100
AcDbDictionary
280
     0
281
     1
  3
Standard
350
1C
  0
MLINESTYLE
  5
1C
102
{ACAD_REACTORS
330
1B
102
}
100
AcDbMlineStyle
  2
Standard
 70
     0
  3

 62
     0
 51
90.0
 52
90.0
 71
     2
 49
0.5
 62
   256
  6
ByLayer
 49
-0.5
 62
   256
  6
ByLayer
  0
ACDBDICTIONARYWDFLT
  5
1F
102
{ACAD_REACTORS
330
19
102
}
100
AcDbDictionary
281
     1
  3
Normal
350
1D
100
AcDbDictionaryWithDefault
340
1D
  0
ACDBPLACEHOLDER
  5
1D
102
{ACAD_REACTORS
330
1F
102
}
  0
LAYOUT
  5
20
102
{ACAD_REACTORS
330
1E
102
}
100
AcDbPlotSettings
  1

  2

  4

  6

 40
0.0
 41
0.0
 42
0.0
 43
0.0
 44
0.0
 45
0.0
 46
0.0
 47
0.0
 48
0.0
 49
0.0
140
0.0
141
0.0
142
1.0
143
1.0
 70
  1024
 72
     0
 73
     0
 74
     0
  7

 75
     0
147
1.0
148
0.0
149
0.0
100
AcDbLayout
  1
Model
 70
     0
 71
     0
 10
0.0
 20
0.0
 11
0.0
 21
0.0
 12
0.0
 22
0.0
 32
0.0
 14
0.0
 24
0.0
 34
0.0
 15
0.0
 25
0.0
 35
0.0
146
0.0
 13
0.0
 23
0.0
 33
0.0
 16
0.0
 26
0.0
 36
0.0
 17
0.0
 27
0.0
 37
0.0
 76
     0
330
A
331
0
345
0
346
0
  0
LAYOUT
  5
21
102
{ACAD_REACTORS
330
1E
102
}
100
AcDbPlotSettings
  1

  2

  4

  6

 40
0.0
 41
0.0
 42
0.0
 43
0.0
 44
0.0
 45
0.0
 46
0.0
 47
0.0
 48
0.0
 49
0.0
140
0.0
141
0.0
142
1.0
143
1.0
 70
     0
 72
     0
 73
     0
 74
     0
  7

 75
     0
147
1.0
148
0.0
149
0.0
100
AcDbLayout
  1
Layout1
 70
     0
 71
     0
 10
0.0
 20
0.0
 11
0.0
 21
0.0
 12
0.0
 22
0.0
 32
0.0
 14
0.0
 24
0.0
 34
0.0
 15
0.0
 25
0.0
 35
0.0
146
0.0
 13
0.0
 23
0.0
 33
0.0
 16
0.0
 26
0.0
 36
0.0
 17
0.0
 27
0.0
 37
0.0
 76
     0
330
B
331
0
345
0
346
0
  0
DICTIONARY
  5
1E
102
{ACAD_REACTORS
330
19
102
}
100
AcDbDictionary
280
     0
281
     1
  3
Layout1
350
21
  3
Model
350
20
  0
DICTIONARY
  5
22
102
{ACAD_REACTORS
330
19
102
}
100
AcDbDictionary
280
     0
281
     1
  0
WIPEOUTVARIABLES
  5
23
100
AcDbWipeoutVariables
 70
     1
  0
ENDSEC
  0
EOF
