  0
SECTION
  2
HEADER
  9
$ACADVER
  1
AC1015
  9
$ACADMAINTVER
 70
     6
  9
$DWGCODEPAGE
  3
DOS932
  9
$INSBASE
 10
0.0
 20
0.0
 30
0.0
  9
$EXTMIN
 10
0.0
 20
0.0
 30
0.0
  9
$EXTMAX
 10
410.0
 20
287.0
 30
10.0
  9
$LIMMIN
 10
0.0
 20
0.0
  9
$LIMMAX
 10
410.0
 20
287.0
  9
$ORTHOMODE
 70
     0
  9
$REGENMODE
 70
     1
  9
$FILLMODE
 70
     1
  9
$QTEXTMODE
 70
     0
  9
$MIRRTEXT
 70
     1
  9
$LTSCALE
 40
10.0
  9
$ATTMODE
 70
     1
  9
$TEXTSIZE
 40
0.2
  9
$TRACEWID
 40
0.05
  9
$TEXTSTYLE
  7
Standard
  9
$CLAYER
  8
0
  9
$CELTYPE
  6
Continuous
  9
$CECOLOR
 62
   256
  9
$CELTSCALE
 40
1.0
  9
$DISPSILH
 70
     0
  9
$DIMSCALE
 40
1.0
  9
$DIMASZ
 40
3.2
  9
$DIMEXO
 40
3.2
  9
$DIMDLI
 40
0.38
  9
$DIMRND
 40
0.0
  9
$DIMDLE
 40
0.0
  9
$DIMEXE
 40
2.4
  9
$DIMTP
 40
0.0
  9
$DIMTM
 40
0.0
  9
$DIMTXT
 40
8.0
  9
$DIMCEN
 40
0.09
  9
$DIMTSZ
 40
0.0
  9
$DIMTOL
 70
     0
  9
$DIMLIM
 70
     0
  9
$DIMTIH
 70
     0
  9
$DIMTOH
 70
     0
  9
$DIMSE1
 70
     0
  9
$DIMSE2
 70
     0
  9
$DIMTAD
 70
     1
  9
$DIMZIN
 70
     0
  9
$DIMBLK
  1

  9
$DIMASO
 70
     1
  9
$DIMSHO
 70
     1
  9
$DIMPOST
  1

  9
$DIMAPOST
  1

  9
$DIMALT
 70
     0
  9
$DIMALTD
 70
     2
  9
$DIMALTF
 40
25.4
  9
$DIMLFAC
 40
1.0
  9
$DIMTOFL
 70
     0
  9
$DIMTVP
 40
0.0
  9
$DIMTIX
 70
     0
  9
$DIMSOXD
 70
     0
  9
$DIMSAH
 70
     0
  9
$DIMBLK1
  1

  9
$DIMBLK2
  1

  9
$DIMSTYLE
  2
Standard
  9
$DIMCLRD
 70
     7
  9
$DIMCLRE
 70
     7
  9
$DIMCLRT
 70
     7
  9
$DIMTFAC
 40
0.6
  9
$DIMGAP
 40
4.0
  9
$DIMJUST
 70
     0
  9
$DIMSD1
 70
     0
  9
$DIMSD2
 70
     0
  9
$DIMTOLJ
 70
     1
  9
$DIMTZIN
 70
     0
  9
$DIMALTZ
 70
     0
  9
$DIMALTTZ
 70
     0
  9
$DIMUPT
 70
     0
  9
$DIMDEC
 70
     6
  9
$DIMTDEC
 70
     4
  9
$DIMALTU
 70
     2
  9
$DIMALTTD
 70
     2
  9
$DIMTXSTY
  7
Standard
  9
$DIMAUNIT
 70
     0
  9
$DIMADEC
 70
     0
  9
$DIMALTRND
 40
0.0
  9
$DIMAZIN
 70
     0
  9
$DIMDSEP
 70
     0
  9
$DIMATFIT
 70
     3
  9
$DIMFRAC
 70
     0
  9
$DIMLDRBLK
  1

  9
$DIMLUNIT
 70
     2
  9
$DIMLWD
 70
     0
  9
$DIMLWE
 70
     0
  9
$DIMTMOVE
 70
     0
  9
$LUNITS
 70
     2
  9
$LUPREC
 70
     4
  9
$SKETCHINC
 40
0.1
  9
$FILLETRAD
 40
0.0
  9
$AUNITS
 70
     0
  9
$AUPREC
 70
     0
  9
$MENU
  1
acad
  9
$ELEVATION
 40
0.0
  9
$PELEVATION
 40
0.0
  9
$THICKNESS
 40
0.0
  9
$LIMCHECK
 70
     0
  9
$CHAMFERA
 40
0.0
  9
$CHAMFERB
 40
0.0
  9
$CHAMFERC
 40
0.0
  9
$CHAMFERD
 40
0.0
  9
$SKPOLY
 70
     0
  9
$TDCREATE
 40
2458421.490347222
  9
$TDUCREATE
 40
0.000000000
  9
$TDUPDATE
 40
2458421.115289352
  9
$TDUUPDATE
 40
0.000000000
  9
$TDINDWG
 40
0.0000000000
  9
$TDUSRTIMER
 40
0.0000000000
  9
$USRTIMER
 70
     1
  9
$ANGBASE
 50
0.0
  9
$ANGDIR
 70
     0
  9
$PDMODE
 70
     0
  9
$PDSIZE
 40
0.0
  9
$PLINEWID
 40
0.0
  9
$SPLFRAME
 70
     0
  9
$SPLINETYPE
 70
     6
  9
$SPLINESEGS
 70
     8
  9
$HANDSEED
  5
79E
  9
$SURFTAB1
 70
     6
  9
$SURFTAB2
 70
     6
  9
$SURFTYPE
 70
     6
  9
$SURFU
 70
     6
  9
$SURFV
 70
     6
  9
$UCSBASE
  2

  9
$UCSNAME
  2

  9
$UCSORG
 10
0.0
 20
0.0
 30
0.0
  9
$UCSXDIR
 10
1.0
 20
0.0
 30
0.0
  9
$UCSYDIR
 10
0.0
 20
1.0
 30
0.0
  9
$UCSORTHOREF
  2

  9
$UCSORTHOVIEW
 70
     0
  9
$UCSORGTOP
 10
0.0
 20
0.0
 30
0.0
  9
$UCSORGBOTTOM
 10
0.0
 20
0.0
 30
0.0
  9
$UCSORGLEFT
 10
0.0
 20
0.0
 30
0.0
  9
$UCSORGRIGHT
 10
0.0
 20
0.0
 30
0.0
  9
$UCSORGFRONT
 10
0.0
 20
0.0
 30
0.0
  9
$UCSORGBACK
 10
0.0
 20
0.0
 30
0.0
  9
$PUCSBASE
  2

  9
$PUCSNAME
  2

  9
$PUCSORG
 10
0.0
 20
0.0
 30
0.0
  9
$PUCSXDIR
 10
1.0
 20
0.0
 30
0.0
  9
$PUCSYDIR
 10
0.0
 20
1.0
 30
0.0
  9
$PUCSORTHOREF
  2

  9
$PUCSORTHOVIEW
 70
     0
  9
$PUCSORGTOP
 10
0.0
 20
0.0
 30
0.0
  9
$PUCSORGBOTTOM
 10
0.0
 20
0.0
 30
0.0
  9
$PUCSORGLEFT
 10
0.0
 20
0.0
 30
0.0
  9
$PUCSORGRIGHT
 10
0.0
 20
0.0
 30
0.0
  9
$PUCSORGFRONT
 10
0.0
 20
0.0
 30
0.0
  9
$PUCSORGBACK
 10
0.0
 20
0.0
 30
0.0
  9
$USERI1
 70
     0
  9
$USERI2
 70
     0
  9
$USERI3
 70
     0
  9
$USERI4
 70
     0
  9
$USERI5
 70
     0
  9
$USERR1
 40
0.0
  9
$USERR2
 40
0.0
  9
$USERR3
 40
0.0
  9
$USERR4
 40
0.0
  9
$USERR5
 40
0.0
  9
$WORLDVIEW
 70
     1
  9
$SHADEDGE
 70
     3
  9
$SHADEDIF
 70
    70
  9
$TILEMODE
 70
     1
  9
$MAXACTVP
 70
    16
  9
$PINSBASE
 10
0.0
 20
0.0
 30
0.0
  9
$PLIMCHECK
 70
     0
  9
$PEXTMIN
 10
1.000000E+20
 20
1.000000E+20
 30
1.000000E+20
  9
$PEXTMAX
 10
-1.000000E+20
 20
-1.000000E+20
 30
-1.000000E+20
  9
$PLIMMIN
 10
0.0
 20
0.0
  9
$PLIMMAX
 10
12.0
 20
9.0
  9
$UNITMODE
 70
     0
  9
$VISRETAIN
 70
     0
  9
$PLINEGEN
 70
     1
  9
$PSLTSCALE
 70
     0
  9
$TREEDEPTH
 70
  3020
  9
$CMLSTYLE
  2
Standard
  9
$CMLJUST
 70
     0
  9
$CMLSCALE
 40
1.0
  9
$PROXYGRAPHICS
 70
     0
  9
$MEASUREMENT
 70
     0
  9
$CELWEIGHT
370
     0
  9
$ENDCAPS
280
     0
  9
$JOINSTYLE
280
     0
  9
$LWDISPLAY
290
     0
  9
$INSUNITS
 70
     0
  9
$HYPERLINKBASE
  1

  9
$STYLESHEET
  1

  9
$XEDIT
290
     1
  9
$CEPSNTYPE
380
     0
  9
$PSTYLEMODE
290
     1
  9
$FINGERPRINTGUID
  2

  9
$VERSIONGUID
  2

  9
$EXTNAMES
290
     1
  9
$PSVPSCALE
 40
0.0
  0
ENDSEC
  0
SECTION
  2
CLASSES
  0
CLASS
  1
LWPOLYLINE
  2
AcDbPolyline
  3
AutoCAD 2000
 90
        0
280
     0
281
     1
  0
CLASS
  1
IMAGE
  2
AcDbRasterImage
  3
ISM
 90
      127
280
     0
281
     1
  0
CLASS
  1
OLE2FRAME
  2
AcDbOle2Frame
  3
AutoCAD 2000
 90
        0
280
     0
281
     1
  0
CLASS
  1
HATCH
  2
AcDbHatch
  3
AutoCAD 2000
 90
        0
280
     0
281
     1
  0
CLASS
  1
DICTIONARYVAR
  2
AcDbDictionaryVar
  3
AutoCAD 2000
 90
        0
280
     0
281
     0
  0
CLASS
  1
RASTERVARIABLES
  2
AcDbRasterVariables
  3
ISM
 90
        0
280
     0
281
     0
  0
CLASS
  1
IMAGEDEF
  2
AcDbRasterImageDef
  3
ISM
 90
        0
280
     0
281
     0
  0
CLASS
  1
IMAGEDEF_REACTOR
  2
AcDbRasterImageDefReactor
  3
ISM
 90
        1
280
     0
281
     0
  0
CLASS
  1
IDBUFFER
  2
AcDbIdBuffer
  3
AutoCAD 2000
 90
        0
280
     0
281
     0
  0
CLASS
  1
SPATIAL_FILTER
  2
AcDbSpatialFilter
  3
AutoCAD 2000
 90
        0
280
     0
281
     0
  0
CLASS
  1
XRECORD
  2
AcDbXrecord
  3
AutoCAD 2000
 90
        0
280
     0
281
     0
  0
CLASS
  1
SORTENTSTABLE
  2
AcDbSortentsTable
  3
AutoCAD 2000
 90
        0
280
     0
281
     0
  0
CLASS
  1
LAYER_INDEX
  2
AcDbLayerIndex
  3
AutoCAD 2000
 90
        0
280
     0
281
     0
  0
CLASS
  1
SPATIAL_INDEX
  2
AcDbSpatialIndex
  3
AutoCAD 2000
 90
        0
280
     0
281
     0
  0
CLASS
  1
OBJECT_PTR
  2
CAseDLPNTableRecord
  3
"ASE-LPNTableRecord"
 90
        1
280
     0
281
     0
  0
CLASS
  1
LAYOUT
  2
AcDbLayout
  3
AutoCAD 2000
 90
        0
280
     0
281
     0
  0
CLASS
  1
PLOTSETTINGS
  2
AcDbPlotSettings
  3
AutoCAD 2000
 90
        0
280
     0
281
     0
  0
CLASS
  1
ACDBDICTIONARYWDFLT
  2
AcDbDictionaryWithDefault
  3
AutoCAD 2000
 90
        0
280
     0
281
     0
  0
CLASS
  1
ACDBPLACEHOLDER
  2
AcDbPlaceHolder
  3
AutoCAD 2000
 90
        0
280
     0
281
     0
  0
CLASS
  1
VBA_PROJECT
  2
AcDbVbaProject
  3
acadvba
 90
        0
280
     0
281
     0
  0
CLASS
  1
WIPEOUT
  2
AcDbWipeout
  3
WipeOut|AutoCAD Express Tool|expresstools@autodesk.com
 90
      127
280
     0
281
     1
  0
CLASS
  1
WIPEOUTVARIABLES
  2
AcDbWipeoutVariables
  3
WipeOut|AutoCAD Express Tool|expresstools@autodesk.com
 90
        0
280
     0
281
     0
  0
CLASS
  1
RTEXT
  2
RText
  3
RText|AutoCAD Express Tool|expresstools@autodesk.com
 90
        0
280
     0
281
     1
  0
CLASS
  1
ARCALIGNEDTEXT
  2
AcDbArcAlignedText
  3
ATEXT|AutoCAD Express Tool|expresstools@autodesk.com
 90
        0
280
     0
281
     1
  0
ENDSEC
  0
SECTION
  2
TABLES
  0
TABLE
  2
VPORT
  5
7
100
AcDbSymbolTable
 70
     1
  0
VPORT
  5
15
100
AcDbSymbolTableRecord
100
AcDbViewportTableRecord
  2
*ACTIVE
 70
     0
 10
0.0
 20
0.0
 11
1.0
 21
1.0
 12
6.591288
 22
4.579184
 13
0.0
 23
0.0
 14
1.0
 24
1.0
 15
0.0
 25
0.0
 16
0.0
 26
0.0
 36
1.0
 17
0.0
 27
0.0
 37
0.0
 40
9.158369
 41
0.688564
 42
50.0
 43
0.0
 44
0.0
 50
0.0
 51
0.0
 71
     0
 72
   100
 73
     1
 74
     1
 75
     0
 76
     0
 77
     0
 78
     0
281
     0
 65
     0
110
0.0
120
0.0
130
0.0
111
1.0
121
0.0
131
0.0
112
0.0
122
1.0
132
0.0
345
0
346
0
 79
     0
146
0.0
  0
ENDTAB
  0
TABLE
  2
LTYPE
  5
4
100
AcDbSymbolTable
 70
     5
  0
LTYPE
  5
11
100
AcDbSymbolTableRecord
100
AcDbLinetypeTableRecord
  2
ByBlock
 70
    64
  3

 72
    65
 73
     0
 40
0.0
  0
LTYPE
  5
12
100
AcDbSymbolTableRecord
100
AcDbLinetypeTableRecord
  2
ByLayer
 70
    64
  3

 72
    65
 73
     0
 40
0.0
  0
LTYPE
  5
13
100
AcDbSymbolTableRecord
100
AcDbLinetypeTableRecord
  2
Continuous
 70
    64
  3
Solid line
 72
    65
 73
     0
 40
0.0
  0
LTYPE
  5
D4
100
AcDbSymbolTableRecord
100
AcDbLinetypeTableRecord
  2
DOT
 70
    64
  3
..............................................
 72
    65
 73
     2
 40
0.5
 49
0.25
 74
     0
 49
-0.25
 74
     0
  0
LTYPE
  5
709
100
AcDbSymbolTableRecord
100
AcDbLinetypeTableRecord
  2
CENTER
 70
    64
  3
____ _ ____ _ ____ _ ____ _ ____ _ ____ _ ____
 72
    65
 73
     4
 40
2.0
 49
1.25
 74
     0
 49
-0.25
 74
     0
 49
0.25
 74
     0
 49
-0.25
 74
     0
  0
ENDTAB
  0
TABLE
  2
LAYER
  5
2
100
AcDbSymbolTable
 70
     3
  0
LAYER
  5
14
100
AcDbSymbolTableRecord
100
AcDbLayerTableRecord
  2
0
 70
     0
 62
     7
  6
Continuous
290
     1
370
    -3
390
1D
  0
LAYER
  5
27
100
AcDbSymbolTableRecord
100
AcDbLayerTableRecord
  2
256
 70
     0
 62
     7
  6
Continuous
290
     1
370
    -3
390
1D
  0
LAYER
  5
B8
100
AcDbSymbolTableRecord
100
AcDbLayerTableRecord
  2
1
 70
     0
 62
     7
  6
Continuous
290
     1
370
    -3
390
1D
  0
ENDTAB
  0
TABLE
  2
STYLE
  5
3
100
AcDbSymbolTable
 70
     1
  0
STYLE
  5
17
100
AcDbSymbolTableRecord
100
AcDbTextStyleTableRecord
  2
Standard
 70
     0
 40
0.0
 41
1.0
 50
0.0
 71
     0
 42
0.0
  3
ＭＳ Ｐゴシック
  4

1001
ACAD
1000
ＭＳ Ｐゴシック
1071
        0
  0
ENDTAB
  0
TABLE
  2
VIEW
  5
5
100
AcDbSymbolTable
 70
     0
  0
ENDTAB
  0
TABLE
  2
UCS
  5
6
100
AcDbSymbolTable
 70
     0
  0
ENDTAB
  0
TABLE
  2
APPID
  5
8
100
AcDbSymbolTable
 70
     2
  0
APPID
  5
16
100
AcDbSymbolTableRecord
100
AcDbRegAppTableRecord
  2
ACAD
 70
     0
  0
APPID
  5
26
100
AcDbSymbolTableRecord
100
AcDbRegAppTableRecord
  2
TOPsolid_Design
 70
     0
  0
ENDTAB
  0
TABLE
  2
DIMSTYLE
  5
9
100
AcDbSymbolTable
 70
     1
100
AcDbDimStyleTable
 71
     0
  0
DIMSTYLE
105
18
100
AcDbSymbolTableRecord
100
AcDbDimStyleTableRecord
  2
Standard
 70
     0
  3

  4

 40
1.0
 41
3.2
 42
3.2
 43
0.38
 44
2.4
 45
0.0
 46
0.0
 47
0.0
 48
0.0
 71
     0
 72
     0
 73
     0
 74
     0
 75
     0
 76
     0
 77
     1
 78
     0
 79
     0
140
8.0
141
0.09
142
0.0
143
25.4
144
1.0
145
0.0
146
0.6
147
4.0
148
0.0
170
     0
171
     2
172
     0
173
     0
174
     0
175
     0
176
     7
177
     7
178
     7
179
     0
271
     6
272
     4
273
     2
274
     2
275
     0
276
     0
277
     2
278
    46
279
     0
280
     0
281
     0
282
     0
283
     1
284
     0
285
     0
286
     0
288
     0
289
     3
340
17
341
0
342
0
343
0
344
0
371
    -2
372
    -2
  0
ENDTAB
  0
TABLE
  2
BLOCK_RECORD
  5
1
100
AcDbSymbolTable
 70
    11
  0
BLOCK_RECORD
  5
A
100
AcDbSymbolTableRecord
100
AcDbBlockTableRecord
  2
*MODEL_SPACE
340
20
  0
BLOCK_RECORD
  5
B
100
AcDbSymbolTableRecord
100
AcDbBlockTableRecord
  2
*PAPER_SPACE
340
21
  0
BLOCK_RECORD
  5
B3
100
AcDbSymbolTableRecord
100
AcDbBlockTableRecord
  2
AID278
340
0
102
{BLKREFS
331
B7
102
}
  0
BLOCK_RECORD
  5
715
100
AcDbSymbolTableRecord
100
AcDbBlockTableRecord
  2
AID2105
340
0
102
{BLKREFS
331
726
102
}
  0
BLOCK_RECORD
  5
727
100
AcDbSymbolTableRecord
100
AcDbBlockTableRecord
  2
AID2118
340
0
102
{BLKREFS
331
738
102
}
  0
BLOCK_RECORD
  5
739
100
AcDbSymbolTableRecord
100
AcDbBlockTableRecord
  2
AID2131
340
0
102
{BLKREFS
331
74A
102
}
  0
BLOCK_RECORD
  5
74B
100
AcDbSymbolTableRecord
100
AcDbBlockTableRecord
  2
AID2144
340
0
102
{BLKREFS
331
75C
102
}
  0
BLOCK_RECORD
  5
75D
100
AcDbSymbolTableRecord
100
AcDbBlockTableRecord
  2
AID2157
340
0
102
{BLKREFS
331
76E
102
}
  0
BLOCK_RECORD
  5
76F
100
AcDbSymbolTableRecord
100
AcDbBlockTableRecord
  2
AID2170
340
0
102
{BLKREFS
331
77C
102
}
  0
BLOCK_RECORD
  5
77D
100
AcDbSymbolTableRecord
100
AcDbBlockTableRecord
  2
AID2183
340
0
102
{BLKREFS
331
78E
102
}
  0
BLOCK_RECORD
  5
78F
100
AcDbSymbolTableRecord
100
AcDbBlockTableRecord
  2
AID2196
340
0
102
{BLKREFS
331
793
102
}
  0
BLOCK_RECORD
  5
794
100
AcDbSymbolTableRecord
100
AcDbBlockTableRecord
  2
AID2199
340
0
102
{BLKREFS
331
798
102
}
  0
BLOCK_RECORD
  5
799
100
AcDbSymbolTableRecord
100
AcDbBlockTableRecord
  2
AID2202
340
0
102
{BLKREFS
331
79D
102
}
  0
ENDTAB
  0
ENDSEC
  0
SECTION
  2
BLOCKS
  0
BLOCK
  5
D
100
AcDbEntity
  8
0
390
0
100
AcDbBlockBegin
  2
*MODEL_SPACE
 70
     0
 10
0.0
 20
0.0
 30
0.0
  3
*MODEL_SPACE
  1

  0
ENDBLK
  5
E
100
AcDbEntity
  8
0
390
0
100
AcDbBlockEnd
  0
BLOCK
  5
F
100
AcDbEntity
 67
     1
  8
0
390
0
100
AcDbBlockBegin
  2
*PAPER_SPACE
 70
     0
 10
0.0
 20
0.0
 30
0.0
  3
*PAPER_SPACE
  1

  0
ENDBLK
  5
10
100
AcDbEntity
 67
     1
  8
0
390
0
100
AcDbBlockEnd
  0
BLOCK
  5
B4
100
AcDbEntity
  8
0
390
0
100
AcDbBlockBegin
  2
AID278
 70
     0
 10
0.0
 20
0.0
 30
0.0
  3
D_GROUP
  1

  0
MTEXT
  5
B5
100
AcDbEntity
  8
256
390
0
 62
     7
100
AcDbMText
 10
406.171318
 20
6.951938
 30
0.0
 40
3.0
 41
7.472727
 71
     7
 72
     1
  1
A3
210
0.0
220
0.0
230
1.0
 73
     1
 44
1.0
  0
ENDBLK
  5
B6
100
AcDbEntity
  8
0
390
0
100
AcDbBlockEnd
  0
BLOCK
  5
716
100
AcDbEntity
  8
0
390
0
100
AcDbBlockBegin
  2
AID2105
 70
     0
 10
0.0
 20
0.0
 30
0.0
  3
D_GROUP
  1

  0
MTEXT
  5
717
100
AcDbEntity
  8
1
390
0
 62
     2
100
AcDbMText
 10
119.107507
 20
129.613329
 30
0.0
 40
6.0
 41
12.490909
 71
     7
 72
     1
  1
92
210
0.0
220
0.0
230
1.0
 73
     1
 44
1.0
  0
LINE
  5
718
100
AcDbEntity
  8
1
390
0
  6
Continuous
 62
    11
100
AcDbLine
 10
168.612052
 20
128.440601
 30
0.0
 11
76.612052
 21
128.440601
 31
0.0
  0
LINE
  5
719
100
AcDbEntity
  8
1
390
0
  6
Continuous
 62
    11
100
AcDbLine
 10
168.612052
 20
141.579365
 30
0.0
 11
168.612052
 21
126.640601
 31
0.0
  0
LINE
  5
71A
100
AcDbEntity
  8
1
390
0
  6
Continuous
 62
    11
100
AcDbLine
 10
76.612052
 20
141.579365
 30
0.0
 11
76.612052
 21
126.640601
 31
0.0
  0
POLYLINE
  5
71B
100
AcDbEntity
  8
1
390
0
  6
Continuous
 62
    11
100
AcDb2dPolyline
 66
     1
 10
0.0
 20
0.0
 30
0.0
 40
3.0
 41
3.0
  0
VERTEX
  5
71C
100
AcDbEntity
  8
1
390
0
 62
    11
100
AcDbVertex
100
AcDb2dVertex
 10
164.112052
 20
129.340601
 30
0.0
  0
VERTEX
  5
71D
100
AcDbEntity
  8
1
390
0
 62
    11
100
AcDbVertex
100
AcDb2dVertex
 10
168.612052
 20
128.440601
 30
0.0
  0
VERTEX
  5
71E
100
AcDbEntity
  8
1
390
0
 62
    11
100
AcDbVertex
100
AcDb2dVertex
 10
164.112052
 20
127.540601
 30
0.0
  0
SEQEND
  5
71F
100
AcDbEntity
  8
0
390
0
  0
POLYLINE
  5
720
100
AcDbEntity
  8
1
390
0
  6
Continuous
 62
    11
100
AcDb2dPolyline
 66
     1
 10
0.0
 20
0.0
 30
0.0
 40
3.0
 41
3.0
  0
VERTEX
  5
721
100
AcDbEntity
  8
1
390
0
 62
    11
100
AcDbVertex
100
AcDb2dVertex
 10
81.112052
 20
127.540601
 30
0.0
  0
VERTEX
  5
722
100
AcDbEntity
  8
1
390
0
 62
    11
100
AcDbVertex
100
AcDb2dVertex
 10
76.612052
 20
128.440601
 30
0.0
  0
VERTEX
  5
723
100
AcDbEntity
  8
1
390
0
 62
    11
100
AcDbVertex
100
AcDb2dVertex
 10
81.112052
 20
129.340601
 30
0.0
  0
SEQEND
  5
724
100
AcDbEntity
  8
0
390
0
  0
ENDBLK
  5
725
100
AcDbEntity
  8
0
390
0
100
AcDbBlockEnd
  0
BLOCK
  5
728
100
AcDbEntity
  8
0
390
0
100
AcDbBlockBegin
  2
AID2118
 70
     0
 10
0.0
 20
0.0
 30
0.0
  3
D_GROUP
  1

  0
MTEXT
  5
729
100
AcDbEntity
  8
1
390
0
 62
     2
100
AcDbMText
 10
117.198416
 20
118.67738
 30
0.0
 40
6.0
 41
18.709091
 71
     7
 72
     1
  1
109
210
0.0
220
0.0
230
1.0
 73
     1
 44
1.0
  0
LINE
  5
72A
100
AcDbEntity
  8
1
390
0
  6
Continuous
 62
    11
100
AcDbLine
 10
177.112052
 20
117.504652
 30
0.0
 11
68.112052
 21
117.504652
 31
0.0
  0
LINE
  5
72B
100
AcDbEntity
  8
1
390
0
  6
Continuous
 62
    11
100
AcDbLine
 10
177.112052
 20
142.479365
 30
0.0
 11
177.112052
 21
115.704652
 31
0.0
  0
LINE
  5
72C
100
AcDbEntity
  8
1
390
0
  6
Continuous
 62
    11
100
AcDbLine
 10
68.112052
 20
142.479365
 30
0.0
 11
68.112052
 21
115.704652
 31
0.0
  0
POLYLINE
  5
72D
100
AcDbEntity
  8
1
390
0
  6
Continuous
 62
    11
100
AcDb2dPolyline
 66
     1
 10
0.0
 20
0.0
 30
0.0
 40
3.0
 41
3.0
  0
VERTEX
  5
72E
100
AcDbEntity
  8
1
390
0
 62
    11
100
AcDbVertex
100
AcDb2dVertex
 10
172.612052
 20
118.404652
 30
0.0
  0
VERTEX
  5
72F
100
AcDbEntity
  8
1
390
0
 62
    11
100
AcDbVertex
100
AcDb2dVertex
 10
177.112052
 20
117.504652
 30
0.0
  0
VERTEX
  5
730
100
AcDbEntity
  8
1
390
0
 62
    11
100
AcDbVertex
100
AcDb2dVertex
 10
172.612052
 20
116.604652
 30
0.0
  0
SEQEND
  5
731
100
AcDbEntity
  8
0
390
0
  0
POLYLINE
  5
732
100
AcDbEntity
  8
1
390
0
  6
Continuous
 62
    11
100
AcDb2dPolyline
 66
     1
 10
0.0
 20
0.0
 30
0.0
 40
3.0
 41
3.0
  0
VERTEX
  5
733
100
AcDbEntity
  8
1
390
0
 62
    11
100
AcDbVertex
100
AcDb2dVertex
 10
72.612052
 20
116.604652
 30
0.0
  0
VERTEX
  5
734
100
AcDbEntity
  8
1
390
0
 62
    11
100
AcDbVertex
100
AcDb2dVertex
 10
68.112052
 20
117.504652
 30
0.0
  0
VERTEX
  5
735
100
AcDbEntity
  8
1
390
0
 62
    11
100
AcDbVertex
100
AcDb2dVertex
 10
72.612052
 20
118.404652
 30
0.0
  0
SEQEND
  5
736
100
AcDbEntity
  8
0
390
0
  0
ENDBLK
  5
737
100
AcDbEntity
  8
0
390
0
100
AcDbBlockEnd
  0
BLOCK
  5
73A
100
AcDbEntity
  8
0
390
0
100
AcDbBlockBegin
  2
AID2131
 70
     0
 10
0.0
 20
0.0
 30
0.0
  3
D_GROUP
  1

  0
MTEXT
  5
73B
100
AcDbEntity
  8
1
390
0
 62
     2
100
AcDbMText
 10
117.198416
 20
107.177722
 30
0.0
 40
6.0
 41
18.709091
 71
     7
 72
     1
  1
119
210
0.0
220
0.0
230
1.0
 73
     1
 44
1.0
  0
LINE
  5
73C
100
AcDbEntity
  8
1
390
0
  6
Continuous
 62
    11
100
AcDbLine
 10
182.112052
 20
106.004994
 30
0.0
 11
63.112052
 21
106.004994
 31
0.0
  0
LINE
  5
73D
100
AcDbEntity
  8
1
390
0
  6
Continuous
 62
    11
100
AcDbLine
 10
182.112052
 20
142.579365
 30
0.0
 11
182.112052
 21
104.204994
 31
0.0
  0
LINE
  5
73E
100
AcDbEntity
  8
1
390
0
  6
Continuous
 62
    11
100
AcDbLine
 10
63.112052
 20
142.579365
 30
0.0
 11
63.112052
 21
104.204994
 31
0.0
  0
POLYLINE
  5
73F
100
AcDbEntity
  8
1
390
0
  6
Continuous
 62
    11
100
AcDb2dPolyline
 66
     1
 10
0.0
 20
0.0
 30
0.0
 40
3.0
 41
3.0
  0
VERTEX
  5
740
100
AcDbEntity
  8
1
390
0
 62
    11
100
AcDbVertex
100
AcDb2dVertex
 10
177.612052
 20
106.904994
 30
0.0
  0
VERTEX
  5
741
100
AcDbEntity
  8
1
390
0
 62
    11
100
AcDbVertex
100
AcDb2dVertex
 10
182.112052
 20
106.004994
 30
0.0
  0
VERTEX
  5
742
100
AcDbEntity
  8
1
390
0
 62
    11
100
AcDbVertex
100
AcDb2dVertex
 10
177.612052
 20
105.104994
 30
0.0
  0
SEQEND
  5
743
100
AcDbEntity
  8
0
390
0
  0
POLYLINE
  5
744
100
AcDbEntity
  8
1
390
0
  6
Continuous
 62
    11
100
AcDb2dPolyline
 66
     1
 10
0.0
 20
0.0
 30
0.0
 40
3.0
 41
3.0
  0
VERTEX
  5
745
100
AcDbEntity
  8
1
390
0
 62
    11
100
AcDbVertex
100
AcDb2dVertex
 10
67.612052
 20
105.104994
 30
0.0
  0
VERTEX
  5
746
100
AcDbEntity
  8
1
390
0
 62
    11
100
AcDbVertex
100
AcDb2dVertex
 10
63.112052
 20
106.004994
 30
0.0
  0
VERTEX
  5
747
100
AcDbEntity
  8
1
390
0
 62
    11
100
AcDbVertex
100
AcDb2dVertex
 10
67.612052
 20
106.904994
 30
0.0
  0
SEQEND
  5
748
100
AcDbEntity
  8
0
390
0
  0
ENDBLK
  5
749
100
AcDbEntity
  8
0
390
0
100
AcDbBlockEnd
  0
BLOCK
  5
74C
100
AcDbEntity
  8
0
390
0
100
AcDbBlockBegin
  2
AID2144
 70
     0
 10
0.0
 20
0.0
 30
0.0
  3
D_GROUP
  1

  0
MTEXT
  5
74D
100
AcDbEntity
  8
1
390
0
 62
     2
100
AcDbMText
 10
192.282196
 20
156.388456
 30
0.0
 40
6.0
 41
12.545455
 71
     7
 72
     1
  1
25
210
0.0
220
0.0
230
1.0
 11
0.0
 21
1.0
 31
0.0
 73
     1
 44
1.0
  0
LINE
  5
74E
100
AcDbEntity
  8
1
390
0
  6
Continuous
 62
    11
100
AcDbLine
 10
193.454923
 20
172.379365
 30
0.0
 11
193.454923
 21
147.379365
 31
0.0
  0
LINE
  5
74F
100
AcDbEntity
  8
1
390
0
  6
Continuous
 62
    11
100
AcDbLine
 10
182.012052
 20
172.379365
 30
0.0
 11
195.254923
 21
172.379365
 31
0.0
  0
LINE
  5
750
100
AcDbEntity
  8
1
390
0
  6
Continuous
 62
    11
100
AcDbLine
 10
182.012052
 20
147.379365
 30
0.0
 11
195.254923
 21
147.379365
 31
0.0
  0
POLYLINE
  5
751
100
AcDbEntity
  8
1
390
0
  6
Continuous
 62
    11
100
AcDb2dPolyline
 66
     1
 10
0.0
 20
0.0
 30
0.0
 40
3.0
 41
3.0
  0
VERTEX
  5
752
100
AcDbEntity
  8
1
390
0
 62
    11
100
AcDbVertex
100
AcDb2dVertex
 10
192.554923
 20
167.879365
 30
0.0
  0
VERTEX
  5
753
100
AcDbEntity
  8
1
390
0
 62
    11
100
AcDbVertex
100
AcDb2dVertex
 10
193.454923
 20
172.379365
 30
0.0
  0
VERTEX
  5
754
100
AcDbEntity
  8
1
390
0
 62
    11
100
AcDbVertex
100
AcDb2dVertex
 10
194.354923
 20
167.879365
 30
0.0
  0
SEQEND
  5
755
100
AcDbEntity
  8
0
390
0
  0
POLYLINE
  5
756
100
AcDbEntity
  8
1
390
0
  6
Continuous
 62
    11
100
AcDb2dPolyline
 66
     1
 10
0.0
 20
0.0
 30
0.0
 40
3.0
 41
3.0
  0
VERTEX
  5
757
100
AcDbEntity
  8
1
390
0
 62
    11
100
AcDbVertex
100
AcDb2dVertex
 10
194.354923
 20
151.879365
 30
0.0
  0
VERTEX
  5
758
100
AcDbEntity
  8
1
390
0
 62
    11
100
AcDbVertex
100
AcDb2dVertex
 10
193.454923
 20
147.379365
 30
0.0
  0
VERTEX
  5
759
100
AcDbEntity
  8
1
390
0
 62
    11
100
AcDbVertex
100
AcDb2dVertex
 10
192.554923
 20
151.879365
 30
0.0
  0
SEQEND
  5
75A
100
AcDbEntity
  8
0
390
0
  0
ENDBLK
  5
75B
100
AcDbEntity
  8
0
390
0
100
AcDbBlockEnd
  0
BLOCK
  5
75E
100
AcDbEntity
  8
0
390
0
100
AcDbBlockBegin
  2
AID2157
 70
     0
 10
0.0
 20
0.0
 30
0.0
  3
D_GROUP
  1

  0
MTEXT
  5
75F
100
AcDbEntity
  8
1
390
0
 62
     2
100
AcDbMText
 10
202.992661
 20
156.388456
 30
0.0
 40
6.0
 41
12.545455
 71
     7
 72
     1
  1
35
210
0.0
220
0.0
230
1.0
 11
0.0
 21
1.0
 31
0.0
 73
     1
 44
1.0
  0
LINE
  5
760
100
AcDbEntity
  8
1
390
0
  6
Continuous
 62
    11
100
AcDbLine
 10
204.165388
 20
177.379365
 30
0.0
 11
204.165388
 21
142.379365
 31
0.0
  0
LINE
  5
761
100
AcDbEntity
  8
1
390
0
  6
Continuous
 62
    11
100
AcDbLine
 10
181.912052
 20
177.379365
 30
0.0
 11
205.965388
 21
177.379365
 31
0.0
  0
LINE
  5
762
100
AcDbEntity
  8
1
390
0
  6
Continuous
 62
    11
100
AcDbLine
 10
181.912052
 20
142.379365
 30
0.0
 11
205.965388
 21
142.379365
 31
0.0
  0
POLYLINE
  5
763
100
AcDbEntity
  8
1
390
0
  6
Continuous
 62
    11
100
AcDb2dPolyline
 66
     1
 10
0.0
 20
0.0
 30
0.0
 40
3.0
 41
3.0
  0
VERTEX
  5
764
100
AcDbEntity
  8
1
390
0
 62
    11
100
AcDbVertex
100
AcDb2dVertex
 10
203.265388
 20
172.879365
 30
0.0
  0
VERTEX
  5
765
100
AcDbEntity
  8
1
390
0
 62
    11
100
AcDbVertex
100
AcDb2dVertex
 10
204.165388
 20
177.379365
 30
0.0
  0
VERTEX
  5
766
100
AcDbEntity
  8
1
390
0
 62
    11
100
AcDbVertex
100
AcDb2dVertex
 10
205.065388
 20
172.879365
 30
0.0
  0
SEQEND
  5
767
100
AcDbEntity
  8
0
390
0
  0
POLYLINE
  5
768
100
AcDbEntity
  8
1
390
0
  6
Continuous
 62
    11
100
AcDb2dPolyline
 66
     1
 10
0.0
 20
0.0
 30
0.0
 40
3.0
 41
3.0
  0
VERTEX
  5
769
100
AcDbEntity
  8
1
390
0
 62
    11
100
AcDbVertex
100
AcDb2dVertex
 10
205.065388
 20
146.879365
 30
0.0
  0
VERTEX
  5
76A
100
AcDbEntity
  8
1
390
0
 62
    11
100
AcDbVertex
100
AcDb2dVertex
 10
204.165388
 20
142.379365
 30
0.0
  0
VERTEX
  5
76B
100
AcDbEntity
  8
1
390
0
 62
    11
100
AcDbVertex
100
AcDb2dVertex
 10
203.265388
 20
146.879365
 30
0.0
  0
SEQEND
  5
76C
100
AcDbEntity
  8
0
390
0
  0
ENDBLK
  5
76D
100
AcDbEntity
  8
0
390
0
100
AcDbBlockEnd
  0
BLOCK
  5
770
100
AcDbEntity
  8
0
390
0
100
AcDbBlockBegin
  2
AID2170
 70
     0
 10
0.0
 20
0.0
 30
0.0
  3
D_GROUP
  1

  0
MTEXT
  5
771
100
AcDbEntity
  8
1
390
0
 62
     2
100
AcDbMText
 10
190.635097
 20
186.10309
 30
0.0
 40
6.0
 41
12.818182
 71
     7
 72
     1
  1
6-
210
0.0
220
0.0
230
1.0
 73
     1
 44
1.0
  0
MTEXT
  5
772
100
AcDbEntity
  8
1
390
0
 62
     2
100
AcDbMText
 10
198.626007
 20
186.10309
 30
0.0
 40
6.0
 41
9.490909
 71
     7
 72
     1
  1
Φ
210
0.0
220
0.0
230
1.0
 73
     1
 44
1.0
  0
MTEXT
  5
773
100
AcDbEntity
  8
1
390
0
 62
     2
100
AcDbMText
 10
204.571461
 20
186.10309
 30
0.0
 40
6.0
 41
15.6
 71
     7
 72
     1
  1
4.2
210
0.0
220
0.0
230
1.0
 73
     1
 44
1.0
  0
POLYLINE
  5
774
100
AcDbEntity
  8
1
390
0
  6
Continuous
 62
    11
100
AcDb2dPolyline
 66
     1
 10
0.0
 20
0.0
 30
0.0
 40
3.0
 41
3.0
  0
VERTEX
  5
775
100
AcDbEntity
  8
1
390
0
 62
    11
100
AcDbVertex
100
AcDb2dVertex
 10
181.045956
 20
177.754716
 30
0.0
  0
VERTEX
  5
776
100
AcDbEntity
  8
1
390
0
 62
    11
100
AcDbVertex
100
AcDb2dVertex
 10
178.569869
 20
173.890911
 30
0.0
  0
VERTEX
  5
777
100
AcDbEntity
  8
1
390
0
 62
    11
100
AcDbVertex
100
AcDb2dVertex
 10
182.341567
 20
176.505159
 30
0.0
  0
SEQEND
  5
778
100
AcDbEntity
  8
0
390
0
  0
LINE
  5
779
100
AcDbEntity
  8
1
390
0
  6
Continuous
 62
    11
100
AcDbLine
 10
178.569869
 20
173.890911
 30
0.0
 11
189.216916
 21
184.930363
 31
0.0
  0
LINE
  5
77A
100
AcDbEntity
  8
1
390
0
  6
Continuous
 62
    11
100
AcDbLine
 10
189.216916
 20
184.930363
 30
0.0
 11
213.216916
 21
184.930363
 31
0.0
  0
ENDBLK
  5
77B
100
AcDbEntity
  8
0
390
0
100
AcDbBlockEnd
  0
BLOCK
  5
77E
100
AcDbEntity
  8
0
390
0
100
AcDbBlockBegin
  2
AID2183
 70
     0
 10
0.0
 20
0.0
 30
0.0
  3
D_GROUP
  1

  0
MTEXT
  5
77F
100
AcDbEntity
  8
1
390
0
 62
     2
100
AcDbMText
 10
282.651691
 20
126.959417
 30
0.0
 40
6.0
 41
22.363636
 71
     7
 72
     1
  1
25.5
210
0.0
220
0.0
230
1.0
 73
     1
 44
1.0
  0
LINE
  5
780
100
AcDbEntity
  8
1
390
0
  6
Continuous
 62
    11
100
AcDbLine
 10
275.847146
 20
125.78669
 30
0.0
 11
301.347146
 21
125.78669
 31
0.0
  0
LINE
  5
781
100
AcDbEntity
  8
1
390
0
  6
Continuous
 62
    11
100
AcDbLine
 10
275.847146
 20
141.579365
 30
0.0
 11
275.847146
 21
123.98669
 31
0.0
  0
LINE
  5
782
100
AcDbEntity
  8
1
390
0
  6
Continuous
 62
    11
100
AcDbLine
 10
301.347146
 20
140.579365
 30
0.0
 11
301.347146
 21
123.98669
 31
0.0
  0
POLYLINE
  5
783
100
AcDbEntity
  8
1
390
0
  6
Continuous
 62
    11
100
AcDb2dPolyline
 66
     1
 10
0.0
 20
0.0
 30
0.0
 40
3.0
 41
3.0
  0
VERTEX
  5
784
100
AcDbEntity
  8
1
390
0
 62
    11
100
AcDbVertex
100
AcDb2dVertex
 10
280.347146
 20
124.88669
 30
0.0
  0
VERTEX
  5
785
100
AcDbEntity
  8
1
390
0
 62
    11
100
AcDbVertex
100
AcDb2dVertex
 10
275.847146
 20
125.78669
 30
0.0
  0
VERTEX
  5
786
100
AcDbEntity
  8
1
390
0
 62
    11
100
AcDbVertex
100
AcDb2dVertex
 10
280.347146
 20
126.68669
 30
0.0
  0
SEQEND
  5
787
100
AcDbEntity
  8
0
390
0
  0
POLYLINE
  5
788
100
AcDbEntity
  8
1
390
0
  6
Continuous
 62
    11
100
AcDb2dPolyline
 66
     1
 10
0.0
 20
0.0
 30
0.0
 40
3.0
 41
3.0
  0
VERTEX
  5
789
100
AcDbEntity
  8
1
390
0
 62
    11
100
AcDbVertex
100
AcDb2dVertex
 10
296.847146
 20
126.68669
 30
0.0
  0
VERTEX
  5
78A
100
AcDbEntity
  8
1
390
0
 62
    11
100
AcDbVertex
100
AcDb2dVertex
 10
301.347146
 20
125.78669
 30
0.0
  0
VERTEX
  5
78B
100
AcDbEntity
  8
1
390
0
 62
    11
100
AcDbVertex
100
AcDb2dVertex
 10
296.847146
 20
124.88669
 30
0.0
  0
SEQEND
  5
78C
100
AcDbEntity
  8
0
390
0
  0
ENDBLK
  5
78D
100
AcDbEntity
  8
0
390
0
100
AcDbBlockEnd
  0
BLOCK
  5
790
100
AcDbEntity
  8
0
390
0
100
AcDbBlockBegin
  2
AID2196
 70
     0
 10
0.0
 20
0.0
 30
0.0
  3
D_GROUP
  1

  0
MTEXT
  5
791
100
AcDbEntity
  8
1
390
0
 62
     7
100
AcDbMText
 10
323.464896
 20
32.006515
 30
0.0
 40
5.0
 41
14.045455
 71
     7
 72
     1
  1
1：1
210
0.0
220
0.0
230
1.0
 73
     1
 44
1.0
  0
ENDBLK
  5
792
100
AcDbEntity
  8
0
390
0
100
AcDbBlockEnd
  0
BLOCK
  5
795
100
AcDbEntity
  8
0
390
0
100
AcDbBlockBegin
  2
AID2199
 70
     0
 10
0.0
 20
0.0
 30
0.0
  3
D_GROUP
  1

  0
MTEXT
  5
796
100
AcDbEntity
  8
1
390
0
 62
     7
100
AcDbMText
 10
356.35247
 20
39.580247
 30
0.0
 40
4.0
 41
95.890909
 71
     7
 72
     1
  1
圧力センサ耐熱中継Box
210
0.0
220
0.0
230
1.0
 73
     1
 44
1.0
  0
ENDBLK
  5
797
100
AcDbEntity
  8
0
390
0
100
AcDbBlockEnd
  0
BLOCK
  5
79A
100
AcDbEntity
  8
0
390
0
100
AcDbBlockBegin
  2
AID2202
 70
     0
 10
0.0
 20
0.0
 30
0.0
  3
D_GROUP
  1

  0
MTEXT
  5
79B
100
AcDbEntity
  8
1
390
0
 62
     7
100
AcDbMText
 10
368.990604
 20
29.039792
 30
0.0
 40
4.0
 41
41.745455
 71
     7
 72
     1
  1
UJP04H-C
210
0.0
220
0.0
230
1.0
 73
     1
 44
1.0
  0
ENDBLK
  5
79C
100
AcDbEntity
  8
0
390
0
100
AcDbBlockEnd
  0
ENDSEC
  0
SECTION
  2
ENTITIES
  0
LINE
  5
28
100
AcDbEntity
  8
256
390
0
  6
Continuous
 62
     8
100
AcDbLine
 10
222.0
 20
34.5
 30
0.0
 11
271.0
 21
34.5
 31
0.0
  0
LINE
  5
29
100
AcDbEntity
  8
256
390
0
  6
Continuous
 62
     8
100
AcDbLine
 10
390.25
 20
277.0
 30
0.0
 11
390.25
 21
287.0
 31
0.0
  0
LINE
  5
2A
100
AcDbEntity
  8
256
390
0
  6
Continuous
 62
     8
100
AcDbLine
 10
229.511017
 20
262.368011
 30
0.0
 11
234.511017
 21
262.368011
 31
0.0
  0
LINE
  5
2B
100
AcDbEntity
  8
256
390
0
  6
Continuous
 62
     8
100
AcDbLine
 10
222.0
 20
38.0
 30
0.0
 11
271.0
 21
38.0
 31
0.0
  0
LINE
  5
2C
100
AcDbEntity
  8
256
390
0
  6
Continuous
 62
     8
100
AcDbLine
 10
237.0
 20
287.0
 30
0.0
 11
237.0
 21
257.0
 31
0.0
  0
LINE
  5
2D
100
AcDbEntity
  8
256
390
0
  6
Continuous
 62
     8
100
AcDbLine
 10
303.8
 20
48.0
 30
0.0
 11
303.8
 21
10.0
 31
0.0
  0
LINE
  5
2E
100
AcDbEntity
  8
256
390
0
  6
Continuous
 62
     8
100
AcDbLine
 10
385.25
 20
277.0
 30
0.0
 11
385.25
 21
287.0
 31
0.0
  0
LINE
  5
2F
100
AcDbEntity
  8
256
390
0
  6
Continuous
 62
     8
100
AcDbLine
 10
287.4
 20
31.0
 30
0.0
 11
287.4
 21
10.0
 31
0.0
  0
LINE
  5
30
100
AcDbEntity
  8
256
390
0
  6
Continuous
 62
     8
100
AcDbLine
 10
253.750031
 20
44.0
 30
0.0
 11
253.750031
 21
10.0
 31
0.0
  0
LINE
  5
31
100
AcDbEntity
  8
256
390
0
  6
Continuous
 62
     8
100
AcDbLine
 10
410.0
 20
10.0
 30
0.0
 11
410.0
 21
287.0
 31
0.0
  0
LINE
  5
32
100
AcDbEntity
  8
256
390
0
  6
Continuous
 62
     8
100
AcDbLine
 10
335.25
 20
15.666667
 30
0.0
 11
335.25
 21
48.0
 31
0.0
  0
LINE
  5
33
100
AcDbEntity
  8
256
390
0
  6
Continuous
 62
     8
100
AcDbLine
 10
410.0
 20
287.0
 30
0.0
 11
10.0
 21
287.0
 31
0.0
  0
LINE
  5
34
100
AcDbEntity
  8
256
390
0
  6
Continuous
 62
     8
100
AcDbLine
 10
362.0
 20
287.0
 30
0.0
 11
362.0
 21
257.0
 31
0.0
  0
LINE
  5
35
100
AcDbEntity
  8
256
390
0
  6
Continuous
 62
     8
100
AcDbLine
 10
410.0
 20
267.0
 30
0.0
 11
227.0
 21
267.0
 31
0.0
  0
LINE
  5
36
100
AcDbEntity
  8
256
390
0
  6
Continuous
 62
     8
100
AcDbLine
 10
410.0
 20
277.0
 30
0.0
 11
227.0
 21
277.0
 31
0.0
  0
LINE
  5
37
100
AcDbEntity
  8
256
390
0
  6
Continuous
 62
     8
100
AcDbLine
 10
271.0
 20
41.0
 30
0.0
 11
335.25
 21
41.0
 31
0.0
  0
LINE
  5
38
100
AcDbEntity
  8
256
390
0
  6
Continuous
 62
     8
100
AcDbLine
 10
222.0
 20
44.0
 30
0.0
 11
271.0
 21
44.0
 31
0.0
  0
LINE
  5
39
100
AcDbEntity
  8
256
390
0
  6
Continuous
 62
     8
100
AcDbLine
 10
232.011017
 20
261.664886
 30
0.0
 11
229.511017
 21
257.368011
 31
0.0
  0
LINE
  5
3A
100
AcDbEntity
  8
256
390
0
  6
Continuous
 62
     8
100
AcDbLine
 10
248.000031
 20
38.0
 30
0.0
 11
222.0
 21
44.0
 31
0.0
  0
LINE
  5
3B
100
AcDbEntity
  8
256
390
0
  6
Continuous
 62
     8
100
AcDbLine
 10
357.0
 20
262.0
 30
0.0
 11
227.0
 21
262.0
 31
0.0
  0
LINE
  5
3C
100
AcDbEntity
  8
256
390
0
  6
Continuous
 62
     8
100
AcDbLine
 10
222.0
 20
31.0
 30
0.0
 11
320.25
 21
31.0
 31
0.0
  0
LINE
  5
3D
100
AcDbEntity
  8
256
390
0
  6
Continuous
 62
     8
100
AcDbLine
 10
234.511017
 20
267.368011
 30
0.0
 11
232.011017
 21
271.664886
 31
0.0
  0
LINE
  5
3E
100
AcDbEntity
  8
256
390
0
  6
Continuous
 62
     8
100
AcDbLine
 10
385.25
 20
282.0
 30
0.0
 11
362.0
 21
282.0
 31
0.0
  0
LINE
  5
3F
100
AcDbEntity
  8
256
390
0
  6
Continuous
 62
     8
100
AcDbLine
 10
10.0
 20
10.0
 30
0.0
 11
410.0
 21
10.0
 31
0.0
  0
LINE
  5
40
100
AcDbEntity
  8
256
390
0
  6
Continuous
 62
     8
100
AcDbLine
 10
222.0
 20
48.0
 30
0.0
 11
410.0
 21
48.0
 31
0.0
  0
LINE
  5
41
100
AcDbEntity
  8
256
390
0
  6
Continuous
 62
     8
100
AcDbLine
 10
227.000031
 20
10.0
 30
0.0
 11
410.0
 21
10.0
 31
0.0
  0
LINE
  5
42
100
AcDbEntity
  8
256
390
0
  6
Continuous
 62
     8
100
AcDbLine
 10
342.0
 20
287.0
 30
0.0
 11
342.0
 21
257.0
 31
0.0
  0
LINE
  5
43
100
AcDbEntity
  8
256
390
0
  6
Continuous
 62
     8
100
AcDbLine
 10
222.0
 20
13.5
 30
0.0
 11
271.000031
 21
13.5
 31
0.0
  0
LINE
  5
44
100
AcDbEntity
  8
256
390
0
  6
Continuous
 62
     8
100
AcDbLine
 10
222.0
 20
20.5
 30
0.0
 11
271.0
 21
20.5
 31
0.0
  0
LINE
  5
45
100
AcDbEntity
  8
256
390
0
  6
Continuous
 62
     8
100
AcDbLine
 10
222.0
 20
27.5
 30
0.0
 11
271.0
 21
27.5
 31
0.0
  0
LINE
  5
46
100
AcDbEntity
  8
256
390
0
  6
Continuous
 62
     8
100
AcDbLine
 10
248.000031
 20
44.0
 30
0.0
 11
248.000031
 21
10.0
 31
0.0
  0
LINE
  5
47
100
AcDbEntity
  8
256
390
0
  6
Continuous
 62
     8
100
AcDbLine
 10
222.0
 20
48.0
 30
0.0
 11
222.0
 21
10.0
 31
0.0
  0
LINE
  5
48
100
AcDbEntity
  8
256
390
0
  6
Continuous
 62
     8
100
AcDbLine
 10
232.011017
 20
276.664886
 30
0.0
 11
229.511017
 21
272.368011
 31
0.0
  0
LINE
  5
49
100
AcDbEntity
  8
256
390
0
  6
Continuous
 62
     8
100
AcDbLine
 10
357.0
 20
282.0
 30
0.0
 11
227.0
 21
282.0
 31
0.0
  0
LINE
  5
4A
100
AcDbEntity
  8
256
390
0
  6
Continuous
 62
     8
100
AcDbLine
 10
229.511017
 20
267.368011
 30
0.0
 11
234.511017
 21
267.368011
 31
0.0
  0
LINE
  5
4B
100
AcDbEntity
  8
256
390
0
  6
Continuous
 62
     8
100
AcDbLine
 10
222.0
 20
24.0
 30
0.0
 11
271.0
 21
24.0
 31
0.0
  0
LINE
  5
4C
100
AcDbEntity
  8
256
390
0
  6
Continuous
 62
     8
100
AcDbLine
 10
232.011017
 20
281.664886
 30
0.0
 11
229.511017
 21
277.368011
 31
0.0
  0
LINE
  5
4D
100
AcDbEntity
  8
256
390
0
  6
Continuous
 62
     8
100
AcDbLine
 10
265.250031
 20
44.0
 30
0.0
 11
265.250031
 21
10.0
 31
0.0
  0
LINE
  5
4E
100
AcDbEntity
  8
256
390
0
  6
Continuous
 62
     8
100
AcDbLine
 10
229.511017
 20
277.368011
 30
0.0
 11
234.511017
 21
277.368011
 31
0.0
  0
LINE
  5
4F
100
AcDbEntity
  8
256
390
0
  6
Continuous
 62
     8
100
AcDbLine
 10
320.25
 20
10.0
 30
0.0
 11
320.25
 21
48.0
 31
0.0
  0
LINE
  5
50
100
AcDbEntity
  8
256
390
0
  6
Continuous
 62
     8
100
AcDbLine
 10
232.011017
 20
271.664886
 30
0.0
 11
229.511017
 21
267.368011
 31
0.0
  0
LINE
  5
51
100
AcDbEntity
  8
256
390
0
  6
Continuous
 62
     8
100
AcDbLine
 10
234.511017
 20
277.368011
 30
0.0
 11
232.011017
 21
281.664886
 31
0.0
  0
LINE
  5
52
100
AcDbEntity
  8
256
390
0
  6
Continuous
 62
     8
100
AcDbLine
 10
222.0
 20
17.0
 30
0.0
 11
271.0
 21
17.0
 31
0.0
  0
LINE
  5
53
100
AcDbEntity
  8
256
390
0
  6
Continuous
 62
     8
100
AcDbLine
 10
271.0
 20
48.0
 30
0.0
 11
271.0
 21
10.0
 31
0.0
  0
LINE
  5
54
100
AcDbEntity
  8
256
390
0
  6
Continuous
 62
     8
100
AcDbLine
 10
357.0
 20
287.0
 30
0.0
 11
357.0
 21
257.0
 31
0.0
  0
LINE
  5
55
100
AcDbEntity
  8
256
390
0
  6
Continuous
 62
     8
100
AcDbLine
 10
335.25
 20
35.0
 30
0.0
 11
410.0
 21
35.0
 31
0.0
  0
LINE
  5
56
100
AcDbEntity
  8
256
390
0
  6
Continuous
 62
     8
100
AcDbLine
 10
227.0
 20
287.0
 30
0.0
 11
227.0
 21
257.0
 31
0.0
  0
LINE
  5
57
100
AcDbEntity
  8
256
390
0
  6
Continuous
 62
     8
100
AcDbLine
 10
327.0
 20
287.0
 30
0.0
 11
327.0
 21
257.0
 31
0.0
  0
LINE
  5
58
100
AcDbEntity
  8
256
390
0
  6
Continuous
 62
     8
100
AcDbLine
 10
229.511017
 20
272.368011
 30
0.0
 11
234.511017
 21
272.368011
 31
0.0
  0
LINE
  5
59
100
AcDbEntity
  8
256
390
0
  6
Continuous
 62
     8
100
AcDbLine
 10
259.500031
 20
44.0
 30
0.0
 11
259.500031
 21
10.0
 31
0.0
  0
LINE
  5
5A
100
AcDbEntity
  8
256
390
0
  6
Continuous
 62
     8
100
AcDbLine
 10
320.25
 20
15.666667
 30
0.0
 11
410.0
 21
15.666667
 31
0.0
  0
LINE
  5
5B
100
AcDbEntity
  8
256
390
0
  6
Continuous
 62
     8
100
AcDbLine
 10
229.511017
 20
257.368011
 30
0.0
 11
234.511017
 21
257.368011
 31
0.0
  0
LINE
  5
5C
100
AcDbEntity
  8
256
390
0
  6
Continuous
 62
     8
100
AcDbLine
 10
232.011017
 20
266.664886
 30
0.0
 11
229.511017
 21
262.368011
 31
0.0
  0
LINE
  5
5D
100
AcDbEntity
  8
256
390
0
  6
Continuous
 62
     8
100
AcDbLine
 10
410.0
 20
257.0
 30
0.0
 11
227.0
 21
257.0
 31
0.0
  0
LINE
  5
5E
100
AcDbEntity
  8
256
390
0
  6
Continuous
 62
     8
100
AcDbLine
 10
234.511017
 20
257.368011
 30
0.0
 11
232.011017
 21
261.664886
 31
0.0
  0
LINE
  5
5F
100
AcDbEntity
  8
256
390
0
  6
Continuous
 62
     8
100
AcDbLine
 10
271.0
 20
26.5
 30
0.0
 11
410.0
 21
26.5
 31
0.0
  0
LINE
  5
60
100
AcDbEntity
  8
256
390
0
  6
Continuous
 62
     8
100
AcDbLine
 10
10.0
 20
10.0
 30
0.0
 11
10.0
 21
287.0
 31
0.0
  0
LINE
  5
61
100
AcDbEntity
  8
256
390
0
  6
Continuous
 62
     8
100
AcDbLine
 10
234.511017
 20
262.368011
 30
0.0
 11
232.011017
 21
266.664886
 31
0.0
  0
LINE
  5
62
100
AcDbEntity
  8
256
390
0
  6
Continuous
 62
     8
100
AcDbLine
 10
350.25
 20
15.666667
 30
0.0
 11
350.25
 21
48.0
 31
0.0
  0
LINE
  5
63
100
AcDbEntity
  8
256
390
0
  6
Continuous
 62
     8
100
AcDbLine
 10
307.164695
 20
32.573373
 30
0.0
 11
314.235801
 21
39.644442
 31
0.0
  0
LINE
  5
64
100
AcDbEntity
  8
256
390
0
  6
Continuous
 62
     8
100
AcDbLine
 10
357.0
 20
272.0
 30
0.0
 11
227.0
 21
272.0
 31
0.0
  0
LINE
  5
65
100
AcDbEntity
  8
256
390
0
  6
Continuous
 62
     8
100
AcDbLine
 10
234.511017
 20
272.368011
 30
0.0
 11
232.011017
 21
276.664886
 31
0.0
  0
MTEXT
  5
66
100
AcDbEntity
  8
256
390
0
 62
     8
100
AcDbMText
 10
262.375031
 20
28.244792
 30
0.0
 40
1.75
 41
4.55
 71
     8
 72
     1
  1
0.5  
210
0.0
220
0.0
230
1.0
 73
     1
 44
1.0
  0
MTEXT
  5
67
100
AcDbEntity
  8
256
390
0
 62
     8
100
AcDbMText
 10
250.875031
 20
21.244792
 30
0.0
 40
1.75
 41
4.55
 71
     8
 72
     1
  1
0.2  
210
0.0
220
0.0
230
1.0
 73
     1
 44
1.0
  0
MTEXT
  5
68
100
AcDbEntity
  8
256
390
0
 62
     8
100
AcDbMText
 10
250.875031
 20
28.244792
 30
0.0
 40
1.75
 41
3.993182
 71
     8
 72
     1
  1
0.1  
210
0.0
220
0.0
230
1.0
 73
     1
 44
1.0
  0
MTEXT
  5
69
100
AcDbEntity
  8
256
390
0
 62
     8
100
AcDbMText
 10
250.875031
 20
17.744792
 30
0.0
 40
1.75
 41
4.55
 71
     8
 72
     1
  1
0.3  
210
0.0
220
0.0
230
1.0
 73
     1
 44
1.0
  0
MTEXT
  5
6A
100
AcDbEntity
  8
256
390
0
 62
     8
100
AcDbMText
 10
287.02719
 20
42.856306
 30
0.0
 40
3.386667
 41
24.56873
 71
     8
 72
     1
  1
材    質  
210
0.0
220
0.0
230
0.9999999999999999
 73
     1
 44
1.0
  0
MTEXT
  5
6B
100
AcDbEntity
  8
256
390
0
 62
     8
100
AcDbMText
 10
256.625031
 20
35.244792
 30
0.0
 40
1.75
 41
3.993182
 71
     8
 72
     1
  1
0.1  
210
0.0
220
0.0
230
1.0
 73
     1
 44
1.0
  0
MTEXT
  5
6C
100
AcDbEntity
  8
256
390
0
 62
     8
100
AcDbMText
 10
268.125015
 20
14.244792
 30
0.0
 40
1.75
 41
1.590909
 71
     8
 72
     1
  1
6  
210
0.0
220
0.0
230
1.0
 73
     1
 44
1.0
  0
MTEXT
  5
6D
100
AcDbEntity
  8
256
390
0
 62
     8
100
AcDbMText
 10
268.125015
 20
21.244792
 30
0.0
 40
1.75
 41
4.486364
 71
     8
 72
     1
  1
2.5  
210
0.0
220
0.0
230
1.0
 73
     1
 44
1.0
  0
MTEXT
  5
6E
100
AcDbEntity
  8
256
390
0
 62
     8
100
AcDbMText
 10
312.52208
 20
42.980576
 30
0.0
 40
3.386667
 41
17.518305
 71
     8
 72
     1
  1
個 数  
210
0.0
220
0.0
230
0.9999999999999999
 73
     1
 44
1.0
  0
MTEXT
  5
6F
100
AcDbEntity
  8
256
390
0
 62
     8
100
AcDbMText
 10
360.130196
 20
257.742347
 30
0.0
 40
2.822222
 41
5.926666
 71
     8
 72
     1
  1
理  
210
0.0
220
0.0
230
1.0
 73
     1
 44
1.0
  0
MTEXT
  5
70
100
AcDbEntity
  8
256
390
0
 62
     8
100
AcDbMText
 10
257.063488
 20
41.133356
 30
0.0
 40
1.7952
 41
7.6704
 71
     8
 72
     1
  1
中級  
210
0.0
220
0.0
230
1.0
 73
     1
 44
1.0
  0
MTEXT
  5
71
100
AcDbEntity
  8
256
390
0
 62
     8
100
AcDbMText
 10
268.763424
 20
39.076539
 30
0.0
 40
2.0
 41
7.581818
 71
     8
 72
     1
  1
v %%p  
210
0.0
220
0.0
230
1.0
 73
     1
 44
1.0
  0
MTEXT
  5
72
100
AcDbEntity
  8
256
390
0
 62
     8
100
AcDbMText
 10
246.361108
 20
10.744792
 30
0.0
 40
1.75
 41
35.111364
 71
     9
 72
     1
  1
2000を超え4000以下  
210
0.0
220
0.0
230
1.0
 73
     1
 44
1.0
  0
MTEXT
  5
73
100
AcDbEntity
  8
256
390
0
 62
     8
100
AcDbMText
 10
315.229673
 20
32.880846
 30
0.0
 40
3.386667
 41
10.375516
 71
     8
 72
     1
  1
1台  
210
0.0
220
0.0
230
0.9999999999999999
 73
     1
 44
1.0
  0
MTEXT
  5
74
100
AcDbEntity
  8
256
390
0
 62
     8
100
AcDbMText
 10
246.383663
 20
21.244792
 30
0.0
 40
1.75
 41
32.056818
 71
     9
 72
     1
  1
 120を超え 400以下  
210
0.0
220
0.0
230
1.0
 73
     1
 44
1.0
  0
MTEXT
  5
75
100
AcDbEntity
  8
256
390
0
 62
     8
100
AcDbMText
 10
388.380196
 20
278.047566
 30
0.0
 40
3.386667
 41
6.958061
 71
     8
 72
     1
  1
取  
210
0.0
220
0.0
230
0.9999999999999999
 73
     1
 44
1.0
  0
MTEXT
  5
76
100
AcDbEntity
  8
256
390
0
 62
     8
100
AcDbMText
 10
388.380196
 20
282.575181
 30
0.0
 40
3.386667
 41
6.68097
 71
     8
 72
     1
  1
面  
210
0.0
220
0.0
230
0.9999999999999999
 73
     1
 44
1.0
  0
MTEXT
  5
77
100
AcDbEntity
  8
256
390
0
 62
     8
100
AcDbMText
 10
230.223858
 20
38.623908
 30
0.0
 40
1.5
 41
24.272727
 71
     8
 72
     1
  1
寸法の区分(mm)  
210
0.0
220
0.0
230
1.0
 73
     1
 44
1.0
  0
MTEXT
  5
78
100
AcDbEntity
  8
256
390
0
 62
     8
100
AcDbMText
 10
343.211504
 20
19.692223
 30
0.0
 40
3.386667
 41
16.902547
 71
     8
 72
     1
  1
図 番  
210
0.0
220
0.0
230
0.9999999999999999
 73
     1
 44
1.0
  0
MTEXT
  5
79
100
AcDbEntity
  8
256
390
0
 62
     8
100
AcDbMText
 10
262.375031
 20
31.744792
 30
0.0
 40
1.75
 41
4.55
 71
     8
 72
     1
  1
0.3  
210
0.0
220
0.0
230
1.0
 73
     1
 44
1.0
  0
MTEXT
  5
7A
100
AcDbEntity
  8
256
390
0
 62
     8
100
AcDbMText
 10
360.130196
 20
268.089407
 30
0.0
 40
3.386667
 41
7.112001
 71
     8
 72
     1
  1
理  
210
0.0
220
0.0
230
0.9999999999999999
 73
     1
 44
1.0
  0
MTEXT
  5
7B
100
AcDbEntity
  8
256
390
0
 62
     8
100
AcDbMText
 10
246.369552
 20
14.244792
 30
0.0
 40
1.75
 41
34.888636
 71
     9
 72
     1
  1
1000を超え2000以下  
210
0.0
220
0.0
230
1.0
 73
     1
 44
1.0
  0
MTEXT
  5
7C
100
AcDbEntity
  8
256
390
0
 62
     8
100
AcDbMText
 10
268.125015
 20
24.744792
 30
0.0
 40
1.75
 41
4.263636
 71
     8
 72
     1
  1
1.5  
210
0.0
220
0.0
230
1.0
 73
     1
 44
1.0
  0
MTEXT
  5
7D
100
AcDbEntity
  8
256
390
0
 62
     8
100
AcDbMText
 10
262.375031
 20
35.244792
 30
0.0
 40
1.75
 41
4.55
 71
     8
 72
     1
  1
0.2  
210
0.0
220
0.0
230
1.0
 73
     1
 44
1.0
  0
MTEXT
  5
7E
100
AcDbEntity
  8
256
390
0
 62
     8
100
AcDbMText
 10
351.983257
 20
283.013492
 30
0.0
 40
3.386667
 41
21.551517
 71
     8
 72
     1
  1
年月日     
210
0.0
220
0.0
230
0.9999999999999999
 73
     1
 44
1.0
  0
MTEXT
  5
7F
100
AcDbEntity
  8
256
390
0
 62
     8
100
AcDbMText
 10
250.875031
 20
31.744792
 30
0.0
 40
1.75
 41
6.586364
 71
     8
 72
     1
  1
0.05  
210
0.0
220
0.0
230
1.0
 73
     1
 44
1.0
  0
MTEXT
  5
80
100
AcDbEntity
  8
256
390
0
 62
     8
100
AcDbMText
 10
250.875031
 20
35.244792
 30
0.0
 40
1.75
 41
6.586364
 71
     8
 72
     1
  1
0.05  
210
0.0
220
0.0
230
1.0
 73
     1
 44
1.0
  0
MTEXT
  5
81
100
AcDbEntity
  8
256
390
0
 62
     8
100
AcDbMText
 10
262.375031
 20
10.744792
 30
0.0
 40
1.75
 41
1.765909
 71
     8
 72
     1
  1
4  
210
0.0
220
0.0
230
1.0
 73
     1
 44
1.0
  0
MTEXT
  5
82
100
AcDbEntity
  8
256
390
0
 62
     8
100
AcDbMText
 10
343.259623
 20
40.051182
 30
0.0
 40
3.386667
 41
17.210426
 71
     8
 72
     1
  1
名 称  
210
0.0
220
0.0
230
0.9999999999999999
 73
     1
 44
1.0
  0
MTEXT
  5
83
100
AcDbEntity
  8
256
390
0
 62
     8
100
AcDbMText
 10
280.042689
 20
27.073014
 30
0.0
 40
3.386667
 41
17.241214
 71
     8
 72
     1
  1
設 計  
210
0.0
220
0.0
230
0.9999999999999999
 73
     1
 44
1.0
  0
MTEXT
  5
84
100
AcDbEntity
  8
256
390
0
 62
     8
100
AcDbMText
 10
268.125015
 20
17.744792
 30
0.0
 40
1.75
 41
1.765909
 71
     8
 72
     1
  1
4  
210
0.0
220
0.0
230
1.0
 73
     1
 44
1.0
  0
MTEXT
  5
85
100
AcDbEntity
  8
256
390
0
 62
     8
100
AcDbMText
 10
256.625031
 20
28.244792
 30
0.0
 40
1.75
 41
4.55
 71
     8
 72
     1
  1
0.2  
210
0.0
220
0.0
230
1.0
 73
     1
 44
1.0
  0
MTEXT
  5
86
100
AcDbEntity
  8
256
390
0
 62
     8
100
AcDbMText
 10
246.368174
 20
17.744792
 30
0.0
 40
1.75
 41
33.138636
 71
     9
 72
     1
  1
 400を超え1000以下  
210
0.0
220
0.0
230
1.0
 73
     1
 44
1.0
  0
MTEXT
  5
87
100
AcDbEntity
  8
256
390
0
 62
     8
100
AcDbMText
 10
250.875031
 20
14.244792
 30
0.0
 40
1.75
 41
4.55
 71
     8
 72
     1
  1
0.5  
210
0.0
220
0.0
230
1.0
 73
     1
 44
1.0
  0
MTEXT
  5
88
100
AcDbEntity
  8
256
390
0
 62
     8
100
AcDbMText
 10
257.26344
 20
39.076539
 30
0.0
 40
2.0
 41
8.563636
 71
     8
 72
     1
  1
m %%p  
210
0.0
220
0.0
230
1.0
 73
     1
 44
1.0
  0
MTEXT
  5
89
100
AcDbEntity
  8
256
390
0
 62
     8
100
AcDbMText
 10
246.444454
 20
35.244792
 30
0.0
 40
1.75
 41
29.543182
 71
     9
 72
     1
  1
 0.5を超え   3以下  
210
0.0
220
0.0
230
1.0
 73
     1
 44
1.0
  0
MTEXT
  5
8A
100
AcDbEntity
  8
256
390
0
 62
     8
100
AcDbMText
 10
246.445896
 20
31.744792
 30
0.0
 40
1.75
 41
26.615909
 71
     9
 72
     1
  1
   3を超え   6以下  
210
0.0
220
0.0
230
1.0
 73
     1
 44
1.0
  0
MTEXT
  5
8B
100
AcDbEntity
  8
256
390
0
 62
     8
100
AcDbMText
 10
343.228244
 20
29.512776
 30
0.0
 40
2.54
 41
22.998545
 71
     8
 72
     1
  1
部品番号  
210
0.0
220
0.0
230
1.0
 73
     1
 44
1.0
  0
MTEXT
  5
8C
100
AcDbEntity
  8
256
390
0
 62
     8
100
AcDbMText
 10
251.19527
 20
41.133356
 30
0.0
 40
1.7952
 41
8.04576
 71
     8
 72
     1
  1
精級  
210
0.0
220
0.0
230
1.0
 73
     1
 44
1.0
  0
MTEXT
  5
8D
100
AcDbEntity
  8
256
390
0
 62
     8
100
AcDbMText
 10
246.399214
 20
24.744792
 30
0.0
 40
1.75
 41
30.243182
 71
     9
 72
     1
  1
  30を超え 120以下  
210
0.0
220
0.0
230
1.0
 73
     1
 44
1.0
  0
MTEXT
  5
8E
100
AcDbEntity
  8
256
390
0
 62
     8
100
AcDbMText
 10
262.375031
 20
24.744792
 30
0.0
 40
1.75
 41
4.565909
 71
     8
 72
     1
  1
0.8  
210
0.0
220
0.0
230
1.0
 73
     1
 44
1.0
  0
MTEXT
  5
8F
100
AcDbEntity
  8
256
390
0
 62
     8
100
AcDbMText
 10
242.4153
 20
40.925781
 30
0.0
 40
1.5
 41
13.636364
 71
     8
 72
     1
  1
公差等級  
210
0.0
220
0.0
230
1.0
 73
     1
 44
1.0
  0
MTEXT
  5
90
100
AcDbEntity
  8
256
390
0
 62
     8
100
AcDbMText
 10
246.430153
 20
28.244792
 30
0.0
 40
1.75
 41
27.395455
 71
     9
 72
     1
  1
   6を超え  30以下  
210
0.0
220
0.0
230
1.0
 73
     1
 44
1.0
  0
MTEXT
  5
91
100
AcDbEntity
  8
256
390
0
 62
     8
100
AcDbMText
 10
285.330511
 20
282.942152
 30
0.0
 40
3.386667
 41
59.482188
 71
     8
 72
     1
  1
訂    正    内    容  
210
0.0
220
0.0
230
0.9999999999999999
 73
     1
 44
1.0
  0
MTEXT
  5
92
100
AcDbEntity
  8
256
390
0
 62
     8
100
AcDbMText
 10
256.625031
 20
24.744792
 30
0.0
 40
1.75
 41
4.55
 71
     8
 72
     1
  1
0.3  
210
0.0
220
0.0
230
1.0
 73
     1
 44
1.0
  0
MTEXT
  5
93
100
AcDbEntity
  8
256
390
0
 62
     8
100
AcDbMText
 10
262.375031
 20
17.744792
 30
0.0
 40
1.75
 41
1.622727
 71
     8
 72
     1
  1
2  
210
0.0
220
0.0
230
1.0
 73
     1
 44
1.0
  0
MTEXT
  5
94
100
AcDbEntity
  8
256
390
0
 62
     8
100
AcDbMText
 10
262.375031
 20
14.244792
 30
0.0
 40
1.75
 41
1.622727
 71
     8
 72
     1
  1
3  
210
0.0
220
0.0
230
1.0
 73
     1
 44
1.0
  0
MTEXT
  5
95
100
AcDbEntity
  8
256
390
0
 62
     8
100
AcDbMText
 10
328.687321
 20
19.668163
 30
0.0
 40
3.386667
 41
22.536729
 71
     8
 72
     1
  1
三角法  
210
0.0
220
0.0
230
0.9999999999999999
 73
     1
 44
1.0
  0
MTEXT
  5
96
100
AcDbEntity
  8
256
390
0
 62
     8
100
AcDbMText
 10
365.92539
 20
11.0735
 30
0.0
 40
3.386667
 41
99.506434
 71
     8
 72
     1
  1
双 葉 電 子 工 業 株 式 会 社  
210
0.0
220
0.0
230
0.9999999999999999
 73
     1
 44
1.0
  0
MTEXT
  5
97
100
AcDbEntity
  8
256
390
0
 62
     8
100
AcDbMText
 10
256.625031
 20
17.744792
 30
0.0
 40
1.75
 41
4.565909
 71
     8
 72
     1
  1
0.8  
210
0.0
220
0.0
230
1.0
 73
     1
 44
1.0
  0
MTEXT
  5
98
100
AcDbEntity
  8
256
390
0
 62
     8
100
AcDbMText
 10
312.769883
 20
27.273035
 30
0.0
 40
3.386667
 41
17.518305
 71
     8
 72
     1
  1
承 認  
210
0.0
220
0.0
230
0.9999999999999999
 73
     1
 44
1.0
  0
MTEXT
  5
99
100
AcDbEntity
  8
256
390
0
 62
     8
100
AcDbMText
 10
268.125015
 20
28.244792
 30
0.0
 40
1.75
 41
0.843182
 71
     8
 72
     1
  1
1  
210
0.0
220
0.0
230
1.0
 73
     1
 44
1.0
  0
MTEXT
  5
9A
100
AcDbEntity
  8
256
390
0
 62
     8
100
AcDbMText
 10
247.07562
 20
45.235875
 30
0.0
 40
1.7
 41
74.846364
 71
     8
 72
     1
  1
削り加工寸法の普通許容差 JIS B 0405-1991  
210
0.0
220
0.0
230
1.0
 73
     1
 44
1.0
  0
MTEXT
  5
9B
100
AcDbEntity
  8
256
390
0
 62
     8
100
AcDbMText
 10
250.875031
 20
24.744792
 30
0.0
 40
1.75
 41
6.586364
 71
     8
 72
     1
  1
0.15  
210
0.0
220
0.0
230
1.0
 73
     1
 44
1.0
  0
MTEXT
  5
9C
100
AcDbEntity
  8
256
390
0
 62
     8
100
AcDbMText
 10
250.875031
 20
9.839584
 30
0.0
 40
2.54
 41
2.632364
 71
     8
 72
     1
  1
-  
210
0.0
220
0.0
230
1.0
 73
     1
 44
1.0
  0
MTEXT
  5
9D
100
AcDbEntity
  8
256
390
0
 62
     8
100
AcDbMText
 10
296.045235
 20
27.214792
 30
0.0
 40
3.386667
 41
17.025699
 71
     8
 72
     1
  1
検 図  
210
0.0
220
0.0
230
0.9999999999999999
 73
     1
 44
1.0
  0
MTEXT
  5
9E
100
AcDbEntity
  8
256
390
0
 62
     8
100
AcDbMText
 10
268.125015
 20
34.339584
 30
0.0
 40
2.54
 41
2.632364
 71
     8
 72
     1
  1
-  
210
0.0
220
0.0
230
1.0
 73
     1
 44
1.0
  0
MTEXT
  5
9F
100
AcDbEntity
  8
256
390
0
 62
     8
100
AcDbMText
 10
256.625031
 20
31.744792
 30
0.0
 40
1.75
 41
3.993182
 71
     8
 72
     1
  1
0.1  
210
0.0
220
0.0
230
1.0
 73
     1
 44
1.0
  0
MTEXT
  5
A0
100
AcDbEntity
  8
256
390
0
 62
     8
100
AcDbMText
 10
263.01344
 20
39.076539
 30
0.0
 40
2.0
 41
7.527273
 71
     8
 72
     1
  1
c %%p  
210
0.0
220
0.0
230
1.0
 73
     1
 44
1.0
  0
MTEXT
  5
A1
100
AcDbEntity
  8
256
390
0
 62
     8
100
AcDbMText
 10
360.130196
 20
278.047566
 30
0.0
 40
3.386667
 41
6.68097
 71
     8
 72
     1
  1
上  
210
0.0
220
0.0
230
0.9999999999999999
 73
     1
 44
1.0
  0
MTEXT
  5
A2
100
AcDbEntity
  8
256
390
0
 62
     8
100
AcDbMText
 10
232.748022
 20
282.92144
 30
0.0
 40
3.386667
 41
14.870547
 71
     8
 72
     1
  1
記号  
210
0.0
220
0.0
230
0.9999999999999999
 73
     1
 44
1.0
  0
MTEXT
  5
A3
100
AcDbEntity
  8
256
390
0
 62
     8
100
AcDbMText
 10
256.625031
 20
21.244792
 30
0.0
 40
1.75
 41
4.55
 71
     8
 72
     1
  1
0.5  
210
0.0
220
0.0
230
1.0
 73
     1
 44
1.0
  0
MTEXT
  5
A4
100
AcDbEntity
  8
256
390
0
 62
     8
100
AcDbMText
 10
256.625031
 20
10.744792
 30
0.0
 40
1.75
 41
1.622727
 71
     8
 72
     1
  1
2  
210
0.0
220
0.0
230
1.0
 73
     1
 44
1.0
  0
MTEXT
  5
A5
100
AcDbEntity
  8
256
390
0
 62
     8
100
AcDbMText
 10
262.375031
 20
21.244792
 30
0.0
 40
1.75
 41
4.263636
 71
     8
 72
     1
  1
1.2  
210
0.0
220
0.0
230
1.0
 73
     1
 44
1.0
  0
MTEXT
  5
A6
100
AcDbEntity
  8
256
390
0
 62
     8
100
AcDbMText
 10
360.130196
 20
282.575181
 30
0.0
 40
3.386667
 41
7.050425
 71
     8
 72
     1
  1
仕  
210
0.0
220
0.0
230
0.9999999999999999
 73
     1
 44
1.0
  0
MTEXT
  5
A7
100
AcDbEntity
  8
256
390
0
 62
     8
100
AcDbMText
 10
268.125015
 20
10.744792
 30
0.0
 40
1.75
 41
1.654545
 71
     8
 72
     1
  1
8  
210
0.0
220
0.0
230
1.0
 73
     1
 44
1.0
  0
MTEXT
  5
A8
100
AcDbEntity
  8
256
390
0
 62
     8
100
AcDbMText
 10
360.130196
 20
260.858133
 30
0.0
 40
2.822222
 41
5.875353
 71
     8
 72
     1
  1
処  
210
0.0
220
0.0
230
1.0
 73
     1
 44
1.0
  0
MTEXT
  5
A9
100
AcDbEntity
  8
256
390
0
 62
     8
100
AcDbMText
 10
336.870941
 20
283.013492
 30
0.0
 40
3.386667
 41
22.81382
 71
     8
 72
     1
  1
担当者     
210
0.0
220
0.0
230
0.9999999999999999
 73
     1
 44
1.0
  0
MTEXT
  5
AA
100
AcDbEntity
  8
256
390
0
 62
     8
100
AcDbMText
 10
251.577735
 20
39.076539
 30
0.0
 40
2.0
 41
6.836364
 71
     8
 72
     1
  1
f %%p  
210
0.0
220
0.0
230
1.0
 73
     1
 44
1.0
  0
MTEXT
  5
AB
100
AcDbEntity
  8
256
390
0
 62
     8
100
AcDbMText
 10
360.130196
 20
263.973919
 30
0.0
 40
2.822222
 41
5.952323
 71
     8
 72
     1
  1
熱  
210
0.0
220
0.0
230
1.0
 73
     1
 44
1.0
  0
MTEXT
  5
AC
100
AcDbEntity
  8
256
390
0
 62
     8
100
AcDbMText
 10
268.125015
 20
31.744792
 30
0.0
 40
1.75
 41
4.55
 71
     8
 72
     1
  1
0.5  
210
0.0
220
0.0
230
1.0
 73
     1
 44
1.0
  0
MTEXT
  5
AD
100
AcDbEntity
  8
256
390
0
 62
     8
100
AcDbMText
 10
328.494219
 20
43.012096
 30
0.0
 40
3.386667
 41
17.30279
 71
     8
 72
     1
  1
尺 度  
210
0.0
220
0.0
230
0.9999999999999999
 73
     1
 44
1.0
  0
MTEXT
  5
AE
100
AcDbEntity
  8
256
390
0
 62
     8
100
AcDbMText
 10
262.660189
 20
41.133356
 30
0.0
 40
1.7952
 41
7.9968
 71
     8
 72
     1
  1
粗級  
210
0.0
220
0.0
230
1.0
 73
     1
 44
1.0
  0
MTEXT
  5
AF
100
AcDbEntity
  8
256
390
0
 62
     8
100
AcDbMText
 10
225.086682
 20
40.357732
 30
0.0
 40
1.5
 41
6.640909
 71
     8
 72
     1
  1
基準  
210
0.0
220
0.0
230
1.0
 73
     1
 44
1.0
  0
MTEXT
  5
B0
100
AcDbEntity
  8
256
390
0
 62
     8
100
AcDbMText
 10
268.384088
 20
41.201556
 30
0.0
 40
1.584
 41
10.8
 71
     8
 72
     1
  1
極粗級  
210
0.0
220
0.0
230
1.0
 73
     1
 44
1.0
  0
MTEXT
  5
B1
100
AcDbEntity
  8
256
390
0
 62
     8
100
AcDbMText
 10
256.625031
 20
14.244792
 30
0.0
 40
1.75
 41
4.263636
 71
     8
 72
     1
  1
1.2  
210
0.0
220
0.0
230
1.0
 73
     1
 44
1.0
  0
MTEXT
  5
B2
100
AcDbEntity
  8
256
390
0
 62
     8
100
AcDbMText
 10
360.130196
 20
272.53334
 30
0.0
 40
3.386667
 41
7.050425
 71
     8
 72
     1
  1
処  
210
0.0
220
0.0
230
0.9999999999999999
 73
     1
 44
1.0
  0
INSERT
  5
B7
100
AcDbEntity
  8
256
390
0
100
AcDbBlockReference
  2
AID278
 10
0.0
 20
0.0
 30
0.0
  0
LINE
  5
B9
100
AcDbEntity
  8
1
390
0
  6
Continuous
 62
     7
100
AcDbLine
 10
80.112052
 20
174.879365
 30
0.0
 11
165.112052
 21
174.879365
 31
0.0
  0
LINE
  5
BA
100
AcDbEntity
  8
1
390
0
  6
Continuous
 62
     7
100
AcDbLine
 10
165.112052
 20
174.879365
 30
0.0
 11
165.112052
 21
144.879365
 31
0.0
  0
LINE
  5
BB
100
AcDbEntity
  8
1
390
0
  6
Continuous
 62
     7
100
AcDbLine
 10
165.112052
 20
144.879365
 30
0.0
 11
80.112052
 21
144.879365
 31
0.0
  0
LINE
  5
BC
100
AcDbEntity
  8
1
390
0
  6
Continuous
 62
     7
100
AcDbLine
 10
80.112052
 20
144.879365
 30
0.0
 11
80.112052
 21
174.879365
 31
0.0
  0
LINE
  5
BD
100
AcDbEntity
  8
1
390
0
  6
Continuous
 62
     7
100
AcDbLine
 10
168.612052
 20
176.379365
 30
0.0
 11
168.612052
 21
143.379365
 31
0.0
  0
LINE
  5
BE
100
AcDbEntity
  8
1
390
0
  6
Continuous
 62
     7
100
AcDbLine
 10
77.612052
 20
177.379365
 30
0.0
 11
167.612052
 21
177.379365
 31
0.0
  0
LINE
  5
BF
100
AcDbEntity
  8
1
390
0
  6
Continuous
 62
     7
100
AcDbLine
 10
167.612052
 20
142.379365
 30
0.0
 11
77.612052
 21
142.379365
 31
0.0
  0
LINE
  5
C0
100
AcDbEntity
  8
1
390
0
  6
Continuous
 62
     7
100
AcDbLine
 10
76.612052
 20
143.379365
 30
0.0
 11
76.612052
 21
176.379365
 31
0.0
  0
ARC
  5
C1
100
AcDbEntity
  8
1
390
0
  6
Continuous
 62
     7
100
AcDbCircle
 10
77.612052
 20
143.379365
 30
0.0
 40
1.0
210
0.0
220
0.0
230
1.0
100
AcDbArc
 50
180.0
 51
270.0
  0
ARC
  5
C2
100
AcDbEntity
  8
1
390
0
  6
Continuous
 62
     7
100
AcDbCircle
 10
167.612052
 20
176.379365
 30
0.0
 40
1.0
210
0.0
220
0.0
230
1.0
100
AcDbArc
 50
0.0
 51
90.0
  0
ARC
  5
C3
100
AcDbEntity
  8
1
390
0
  6
Continuous
 62
     7
100
AcDbCircle
 10
167.612052
 20
143.379365
 30
0.0
 40
1.0
210
0.0
220
0.0
230
1.0
100
AcDbArc
 50
270.0
 51
360.0
  0
ARC
  5
C4
100
AcDbEntity
  8
1
390
0
  6
Continuous
 62
     7
100
AcDbCircle
 10
77.612052
 20
176.379365
 30
0.0
 40
1.0
210
0.0
220
0.0
230
1.0
100
AcDbArc
 50
90.0
 51
180.0
  0
LINE
  5
C5
100
AcDbEntity
  8
1
390
0
  6
Continuous
 62
     7
100
AcDbLine
 10
81.612052
 20
140.779365
 30
0.0
 11
82.612052
 21
140.779365
 31
0.0
  0
LINE
  5
C6
100
AcDbEntity
  8
1
390
0
  6
Continuous
 62
     7
100
AcDbLine
 10
81.612052
 20
140.779365
 30
0.0
 11
81.612052
 21
142.379365
 31
0.0
  0
LINE
  5
C7
100
AcDbEntity
  8
1
390
0
  6
Continuous
 62
     7
100
AcDbLine
 10
82.612052
 20
140.779365
 30
0.0
 11
162.612052
 21
140.779365
 31
0.0
  0
LINE
  5
C8
100
AcDbEntity
  8
1
390
0
  6
Continuous
 62
     7
100
AcDbLine
 10
163.612052
 20
140.779365
 30
0.0
 11
163.612052
 21
142.379365
 31
0.0
  0
LINE
  5
C9
100
AcDbEntity
  8
1
390
0
  6
Continuous
 62
     7
100
AcDbLine
 10
162.612052
 20
140.779365
 30
0.0
 11
163.612052
 21
140.779365
 31
0.0
  0
LINE
  5
CA
100
AcDbEntity
  8
1
390
0
  6
Continuous
 62
     7
100
AcDbLine
 10
115.065235
 20
181.379365
 30
0.0
 11
130.158869
 21
181.379365
 31
0.0
  0
LINE
  5
CB
100
AcDbEntity
  8
1
390
0
  6
Continuous
 62
     7
100
AcDbLine
 10
116.062052
 20
182.379365
 30
0.0
 11
129.162052
 21
182.379365
 31
0.0
  0
LINE
  5
CC
100
AcDbEntity
  8
1
390
0
  6
Continuous
 62
     7
100
AcDbLine
 10
136.612052
 20
139.979365
 30
0.0
 11
128.612052
 21
139.979365
 31
0.0
  0
LINE
  5
CD
100
AcDbEntity
  8
1
390
0
  6
Continuous
 62
     7
100
AcDbLine
 10
116.412052
 20
139.779365
 30
0.0
 11
108.812052
 21
139.779365
 31
0.0
  0
LINE
  5
CE
100
AcDbEntity
  8
1
390
0
  6
Continuous
 62
     7
100
AcDbLine
 10
108.612052
 20
139.979365
 30
0.0
 11
116.612052
 21
139.979365
 31
0.0
  0
LINE
  5
CF
100
AcDbEntity
  8
1
390
0
  6
Continuous
 62
     7
100
AcDbLine
 10
94.612052
 20
139.979365
 30
0.0
 11
102.612052
 21
139.979365
 31
0.0
  0
LINE
  5
D0
100
AcDbEntity
  8
1
390
0
  6
Continuous
 62
     7
100
AcDbLine
 10
102.412052
 20
139.779365
 30
0.0
 11
94.812052
 21
139.779365
 31
0.0
  0
LINE
  5
D1
100
AcDbEntity
  8
1
390
0
  6
Continuous
 62
     7
100
AcDbLine
 10
128.812052
 20
139.779365
 30
0.0
 11
136.412052
 21
139.779365
 31
0.0
  0
LINE
  5
D2
100
AcDbEntity
  8
1
390
0
  6
Continuous
 62
     7
100
AcDbLine
 10
142.812052
 20
139.779365
 30
0.0
 11
150.412052
 21
139.779365
 31
0.0
  0
LINE
  5
D3
100
AcDbEntity
  8
1
390
0
  6
Continuous
 62
     7
100
AcDbLine
 10
150.612052
 20
139.979365
 30
0.0
 11
142.612052
 21
139.979365
 31
0.0
  0
LINE
  5
D5
100
AcDbEntity
  8
1
390
0
  6
DOT
 62
     9
100
AcDbLine
 10
123.862052
 20
182.379365
 30
0.0
 11
123.862052
 21
177.379365
 31
0.0
  0
LINE
  5
D6
100
AcDbEntity
  8
1
390
0
  6
DOT
 62
     9
100
AcDbLine
 10
121.362052
 20
182.379365
 30
0.0
 11
121.362052
 21
177.379365
 31
0.0
  0
LINE
  5
D7
100
AcDbEntity
  8
1
390
0
  6
DOT
 62
     9
100
AcDbLine
 10
132.312052
 20
145.779365
 30
0.0
 11
132.912052
 21
145.779365
 31
0.0
  0
LINE
  5
D8
100
AcDbEntity
  8
1
390
0
  6
DOT
 62
     9
100
AcDbLine
 10
112.312052
 20
145.779365
 30
0.0
 11
112.912052
 21
145.779365
 31
0.0
  0
LINE
  5
D9
100
AcDbEntity
  8
1
390
0
  6
DOT
 62
     9
100
AcDbLine
 10
98.312052
 20
145.779365
 30
0.0
 11
98.912052
 21
145.779365
 31
0.0
  0
LINE
  5
DA
100
AcDbEntity
  8
1
390
0
  6
DOT
 62
     9
100
AcDbLine
 10
146.312052
 20
145.779365
 30
0.0
 11
146.912052
 21
145.779365
 31
0.0
  0
LINE
  5
DB
100
AcDbEntity
  8
1
390
0
  6
DOT
 62
     9
100
AcDbLine
 10
112.312052
 20
145.779365
 30
0.0
 11
112.312052
 21
139.779365
 31
0.0
  0
LINE
  5
DC
100
AcDbEntity
  8
1
390
0
  6
DOT
 62
     9
100
AcDbLine
 10
146.312052
 20
145.779365
 30
0.0
 11
146.312052
 21
139.779365
 31
0.0
  0
LINE
  5
DD
100
AcDbEntity
  8
1
390
0
  6
DOT
 62
     9
100
AcDbLine
 10
98.312052
 20
145.779365
 30
0.0
 11
98.312052
 21
139.779365
 31
0.0
  0
LINE
  5
DE
100
AcDbEntity
  8
1
390
0
  6
DOT
 62
     9
100
AcDbLine
 10
132.312052
 20
145.779365
 30
0.0
 11
132.312052
 21
139.779365
 31
0.0
  0
LINE
  5
DF
100
AcDbEntity
  8
1
390
0
  6
DOT
 62
     9
100
AcDbLine
 10
98.912052
 20
145.779365
 30
0.0
 11
98.912052
 21
139.779365
 31
0.0
  0
LINE
  5
E0
100
AcDbEntity
  8
1
390
0
  6
DOT
 62
     9
100
AcDbLine
 10
132.912052
 20
145.779365
 30
0.0
 11
132.912052
 21
139.779365
 31
0.0
  0
LINE
  5
E1
100
AcDbEntity
  8
1
390
0
  6
DOT
 62
     9
100
AcDbLine
 10
146.912052
 20
145.779365
 30
0.0
 11
146.912052
 21
139.779365
 31
0.0
  0
LINE
  5
E2
100
AcDbEntity
  8
1
390
0
  6
DOT
 62
     9
100
AcDbLine
 10
112.912052
 20
145.779365
 30
0.0
 11
112.912052
 21
139.779365
 31
0.0
  0
LINE
  5
E3
100
AcDbEntity
  8
1
390
0
  6
DOT
 62
     9
100
AcDbLine
 10
130.112052
 20
145.779365
 30
0.0
 11
132.312052
 21
145.779365
 31
0.0
  0
LINE
  5
E4
100
AcDbEntity
  8
1
390
0
  6
DOT
 62
     9
100
AcDbLine
 10
132.912052
 20
145.779365
 30
0.0
 11
135.112052
 21
145.779365
 31
0.0
  0
LINE
  5
E5
100
AcDbEntity
  8
1
390
0
  6
DOT
 62
     9
100
AcDbLine
 10
144.112052
 20
145.779365
 30
0.0
 11
146.312052
 21
145.779365
 31
0.0
  0
LINE
  5
E6
100
AcDbEntity
  8
1
390
0
  6
DOT
 62
     9
100
AcDbLine
 10
146.912052
 20
145.779365
 30
0.0
 11
149.112052
 21
145.779365
 31
0.0
  0
LINE
  5
E7
100
AcDbEntity
  8
1
390
0
  6
DOT
 62
     9
100
AcDbLine
 10
101.112052
 20
145.779365
 30
0.0
 11
98.912052
 21
145.779365
 31
0.0
  0
LINE
  5
E8
100
AcDbEntity
  8
1
390
0
  6
DOT
 62
     9
100
AcDbLine
 10
98.312052
 20
145.779365
 30
0.0
 11
96.112052
 21
145.779365
 31
0.0
  0
LINE
  5
E9
100
AcDbEntity
  8
1
390
0
  6
DOT
 62
     9
100
AcDbLine
 10
115.112052
 20
145.779365
 30
0.0
 11
112.912052
 21
145.779365
 31
0.0
  0
LINE
  5
EA
100
AcDbEntity
  8
1
390
0
  6
DOT
 62
     9
100
AcDbLine
 10
112.312052
 20
145.779365
 30
0.0
 11
110.112052
 21
145.779365
 31
0.0
  0
LINE
  5
EB
100
AcDbEntity
  8
1
390
0
  6
DOT
 62
     9
100
AcDbLine
 10
145.112052
 20
140.979365
 30
0.0
 11
148.112052
 21
140.979365
 31
0.0
  0
LINE
  5
EC
100
AcDbEntity
  8
1
390
0
  6
DOT
 62
     9
100
AcDbLine
 10
111.112052
 20
140.979365
 30
0.0
 11
114.112052
 21
140.979365
 31
0.0
  0
LINE
  5
ED
100
AcDbEntity
  8
1
390
0
  6
DOT
 62
     9
100
AcDbLine
 10
97.112052
 20
140.979365
 30
0.0
 11
100.112052
 21
140.979365
 31
0.0
  0
LINE
  5
EE
100
AcDbEntity
  8
1
390
0
  6
DOT
 62
     9
100
AcDbLine
 10
131.112052
 20
140.979365
 30
0.0
 11
134.112052
 21
140.979365
 31
0.0
  0
LINE
  5
EF
100
AcDbEntity
  8
1
390
0
  6
DOT
 62
     9
100
AcDbLine
 10
125.612052
 20
181.179365
 30
0.0
 11
122.612052
 21
181.179365
 31
0.0
  0
LINE
  5
F0
100
AcDbEntity
  8
1
390
0
  6
DOT
 62
     9
100
AcDbLine
 10
122.612052
 20
181.179365
 30
0.0
 11
119.612052
 21
181.179365
 31
0.0
  0
LINE
  5
F1
100
AcDbEntity
  8
1
390
0
  6
Continuous
 62
     7
100
AcDbLine
 10
158.312052
 20
139.014751
 30
0.0
 11
158.312052
 21
139.024696
 31
0.0
  0
POLYLINE
  5
F2
100
AcDbEntity
  8
1
390
0
  6
Continuous
 62
     7
100
AcDb2dPolyline
 66
     1
 10
0.0
 20
0.0
 30
0.0
 40
3.0
 41
3.0
  0
VERTEX
  5
F3
100
AcDbEntity
  8
1
390
0
 62
     7
100
AcDbVertex
100
AcDb2dVertex
 10
159.745385
 20
138.849338
 30
0.0
  0
VERTEX
  5
F4
100
AcDbEntity
  8
1
390
0
 62
     7
100
AcDbVertex
100
AcDb2dVertex
 10
159.642315
 20
138.820633
 30
0.0
 42
-0.039744
  0
VERTEX
  5
F5
100
AcDbEntity
  8
1
390
0
 62
     7
100
AcDbVertex
100
AcDb2dVertex
 10
159.195385
 20
138.849338
 30
0.0
  0
SEQEND
  5
F6
100
AcDbEntity
  8
0
390
0
  0
ARC
  5
F7
100
AcDbEntity
  8
1
390
0
  6
Continuous
 62
     7
100
AcDbCircle
 10
160.112052
 20
145.779365
 30
0.0
 40
6.99039
210
0.0
220
0.0
230
1.0
100
AcDbArc
 50
255.078444
 51
262.464966
  0
LINE
  5
F8
100
AcDbEntity
  8
1
390
0
  6
DOT
 62
     9
100
AcDbLine
 10
159.723181
 20
138.831834
 30
0.0
 11
159.745385
 21
138.849338
 31
0.0
  0
LINE
  5
F9
100
AcDbEntity
  8
1
390
0
  6
Continuous
 62
     7
100
AcDbLine
 10
161.912052
 20
139.024696
 30
0.0
 11
161.912052
 21
139.014751
 31
0.0
  0
ARC
  5
FA
100
AcDbEntity
  8
1
390
0
  6
Continuous
 62
     7
100
AcDbCircle
 10
160.112052
 20
145.779365
 30
0.0
 40
6.99039
210
0.0
220
0.0
230
1.0
100
AcDbArc
 50
277.535034
 51
284.921556
  0
POLYLINE
  5
FB
100
AcDbEntity
  8
1
390
0
  6
Continuous
 62
     7
100
AcDb2dPolyline
 66
     1
 10
0.0
 20
0.0
 30
0.0
 40
3.0
 41
3.0
  0
VERTEX
  5
FC
100
AcDbEntity
  8
1
390
0
 62
     7
100
AcDbVertex
100
AcDb2dVertex
 10
161.028719
 20
138.849338
 30
0.0
 42
-0.036781
  0
VERTEX
  5
FD
100
AcDbEntity
  8
1
390
0
 62
     7
100
AcDbVertex
100
AcDb2dVertex
 10
160.595138
 20
138.820047
 30
0.0
  0
VERTEX
  5
FE
100
AcDbEntity
  8
1
390
0
 62
     7
100
AcDbVertex
100
AcDb2dVertex
 10
160.494049
 20
138.834325
 30
0.0
  0
VERTEX
  5
FF
100
AcDbEntity
  8
1
390
0
 62
     7
100
AcDbVertex
100
AcDb2dVertex
 10
160.478719
 20
138.849338
 30
0.0
  0
SEQEND
  5
100
100
AcDbEntity
  8
0
390
0
  0
LINE
  5
101
100
AcDbEntity
  8
1
390
0
  6
Continuous
 62
     7
100
AcDbLine
 10
160.478719
 20
139.024696
 30
0.0
 11
160.478719
 21
138.849338
 31
0.0
  0
ARC
  5
102
100
AcDbEntity
  8
1
390
0
  6
Continuous
 62
     7
100
AcDbCircle
 10
160.112052
 20
145.779365
 30
0.0
 40
6.764614
210
0.0
220
0.0
230
1.0
100
AcDbArc
 50
266.892838
 51
273.107162
  0
LINE
  5
103
100
AcDbEntity
  8
1
390
0
  6
Continuous
 62
     7
100
AcDbLine
 10
159.745385
 20
138.849338
 30
0.0
 11
159.745385
 21
139.024696
 31
0.0
  0
LINE
  5
104
100
AcDbEntity
  8
1
390
0
  6
Continuous
 62
     7
100
AcDbLine
 10
83.312052
 20
139.014751
 30
0.0
 11
83.312052
 21
139.024696
 31
0.0
  0
POLYLINE
  5
105
100
AcDbEntity
  8
1
390
0
  6
Continuous
 62
     7
100
AcDb2dPolyline
 66
     1
 10
0.0
 20
0.0
 30
0.0
 40
3.0
 41
3.0
  0
VERTEX
  5
106
100
AcDbEntity
  8
1
390
0
 62
     7
100
AcDbVertex
100
AcDb2dVertex
 10
84.745385
 20
138.849338
 30
0.0
  0
VERTEX
  5
107
100
AcDbEntity
  8
1
390
0
 62
     7
100
AcDbVertex
100
AcDb2dVertex
 10
84.642315
 20
138.820633
 30
0.0
 42
-0.039744
  0
VERTEX
  5
108
100
AcDbEntity
  8
1
390
0
 62
     7
100
AcDbVertex
100
AcDb2dVertex
 10
84.195385
 20
138.849338
 30
0.0
  0
SEQEND
  5
109
100
AcDbEntity
  8
0
390
0
  0
ARC
  5
10A
100
AcDbEntity
  8
1
390
0
  6
Continuous
 62
     7
100
AcDbCircle
 10
85.112052
 20
145.779365
 30
0.0
 40
6.99039
210
0.0
220
0.0
230
1.0
100
AcDbArc
 50
255.078444
 51
262.464966
  0
LINE
  5
10B
100
AcDbEntity
  8
1
390
0
  6
Continuous
 62
     7
100
AcDbLine
 10
86.912052
 20
139.024696
 30
0.0
 11
86.912052
 21
139.014751
 31
0.0
  0
ARC
  5
10C
100
AcDbEntity
  8
1
390
0
  6
Continuous
 62
     7
100
AcDbCircle
 10
85.112052
 20
145.779365
 30
0.0
 40
6.99039
210
0.0
220
0.0
230
1.0
100
AcDbArc
 50
277.535034
 51
284.921556
  0
POLYLINE
  5
10D
100
AcDbEntity
  8
1
390
0
  6
Continuous
 62
     7
100
AcDb2dPolyline
 66
     1
 10
0.0
 20
0.0
 30
0.0
 40
3.0
 41
3.0
  0
VERTEX
  5
10E
100
AcDbEntity
  8
1
390
0
 62
     7
100
AcDbVertex
100
AcDb2dVertex
 10
86.028719
 20
138.849338
 30
0.0
 42
-0.036781
  0
VERTEX
  5
10F
100
AcDbEntity
  8
1
390
0
 62
     7
100
AcDbVertex
100
AcDb2dVertex
 10
85.595138
 20
138.820047
 30
0.0
  0
VERTEX
  5
110
100
AcDbEntity
  8
1
390
0
 62
     7
100
AcDbVertex
100
AcDb2dVertex
 10
85.494049
 20
138.834325
 30
0.0
  0
VERTEX
  5
111
100
AcDbEntity
  8
1
390
0
 62
     7
100
AcDbVertex
100
AcDb2dVertex
 10
85.478719
 20
138.849338
 30
0.0
  0
SEQEND
  5
112
100
AcDbEntity
  8
0
390
0
  0
LINE
  5
113
100
AcDbEntity
  8
1
390
0
  6
Continuous
 62
     7
100
AcDbLine
 10
85.478719
 20
139.024696
 30
0.0
 11
85.478719
 21
138.849338
 31
0.0
  0
ARC
  5
114
100
AcDbEntity
  8
1
390
0
  6
Continuous
 62
     7
100
AcDbCircle
 10
85.112052
 20
145.779365
 30
0.0
 40
6.764614
210
0.0
220
0.0
230
1.0
100
AcDbArc
 50
266.892838
 51
273.107162
  0
LINE
  5
115
100
AcDbEntity
  8
1
390
0
  6
Continuous
 62
     7
100
AcDbLine
 10
84.745385
 20
138.849338
 30
0.0
 11
84.745385
 21
139.024696
 31
0.0
  0
LINE
  5
116
100
AcDbEntity
  8
1
390
0
  6
DOT
 62
     9
100
AcDbLine
 10
85.478719
 20
139.779365
 30
0.0
 11
85.478719
 21
139.024696
 31
0.0
  0
LINE
  5
117
100
AcDbEntity
  8
1
390
0
  6
DOT
 62
     9
100
AcDbLine
 10
160.478719
 20
139.779365
 30
0.0
 11
160.478719
 21
139.024696
 31
0.0
  0
LINE
  5
118
100
AcDbEntity
  8
1
390
0
  6
DOT
 62
     9
100
AcDbLine
 10
159.745385
 20
139.779365
 30
0.0
 11
159.745385
 21
139.024696
 31
0.0
  0
LINE
  5
119
100
AcDbEntity
  8
1
390
0
  6
DOT
 62
     9
100
AcDbLine
 10
159.745385
 20
139.779365
 30
0.0
 11
160.478719
 21
139.779365
 31
0.0
  0
LINE
  5
11A
100
AcDbEntity
  8
1
390
0
  6
DOT
 62
     9
100
AcDbLine
 10
84.745385
 20
139.779365
 30
0.0
 11
84.745385
 21
139.024696
 31
0.0
  0
LINE
  5
11B
100
AcDbEntity
  8
1
390
0
  6
DOT
 62
     9
100
AcDbLine
 10
84.745385
 20
139.779365
 30
0.0
 11
85.478719
 21
139.779365
 31
0.0
  0
LINE
  5
11C
100
AcDbEntity
  8
1
390
0
  6
DOT
 62
     9
100
AcDbLine
 10
159.195385
 20
139.779365
 30
0.0
 11
159.745385
 21
139.779365
 31
0.0
  0
LINE
  5
11D
100
AcDbEntity
  8
1
390
0
  6
DOT
 62
     9
100
AcDbLine
 10
84.195385
 20
139.779365
 30
0.0
 11
84.745385
 21
139.779365
 31
0.0
  0
LINE
  5
11E
100
AcDbEntity
  8
1
390
0
  6
DOT
 62
     9
100
AcDbLine
 10
160.478719
 20
139.779365
 30
0.0
 11
161.028719
 21
139.779365
 31
0.0
  0
LINE
  5
11F
100
AcDbEntity
  8
1
390
0
  6
DOT
 62
     9
100
AcDbLine
 10
85.478719
 20
139.779365
 30
0.0
 11
86.028719
 21
139.779365
 31
0.0
  0
LINE
  5
120
100
AcDbEntity
  8
1
390
0
  6
DOT
 62
     9
100
AcDbLine
 10
83.312052
 20
139.779365
 30
0.0
 11
84.195385
 21
139.779365
 31
0.0
  0
LINE
  5
121
100
AcDbEntity
  8
1
390
0
  6
DOT
 62
     9
100
AcDbLine
 10
161.028719
 20
139.779365
 30
0.0
 11
161.912052
 21
139.779365
 31
0.0
  0
LINE
  5
122
100
AcDbEntity
  8
1
390
0
  6
DOT
 62
     9
100
AcDbLine
 10
86.028719
 20
139.779365
 30
0.0
 11
86.912052
 21
139.779365
 31
0.0
  0
LINE
  5
123
100
AcDbEntity
  8
1
390
0
  6
DOT
 62
     9
100
AcDbLine
 10
161.912052
 20
139.779365
 30
0.0
 11
161.912052
 21
139.024696
 31
0.0
  0
LINE
  5
124
100
AcDbEntity
  8
1
390
0
  6
DOT
 62
     9
100
AcDbLine
 10
158.312052
 20
139.779365
 30
0.0
 11
158.312052
 21
139.024696
 31
0.0
  0
LINE
  5
125
100
AcDbEntity
  8
1
390
0
  6
DOT
 62
     9
100
AcDbLine
 10
158.312052
 20
139.779365
 30
0.0
 11
159.195385
 21
139.779365
 31
0.0
  0
LINE
  5
126
100
AcDbEntity
  8
1
390
0
  6
DOT
 62
     9
100
AcDbLine
 10
83.312052
 20
139.779365
 30
0.0
 11
83.312052
 21
139.024696
 31
0.0
  0
LINE
  5
127
100
AcDbEntity
  8
1
390
0
  6
DOT
 62
     9
100
AcDbLine
 10
86.912052
 20
139.779365
 30
0.0
 11
86.912052
 21
139.024696
 31
0.0
  0
LINE
  5
128
100
AcDbEntity
  8
1
390
0
  6
Continuous
 62
     7
100
AcDbLine
 10
103.812052
 20
139.014751
 30
0.0
 11
103.812052
 21
139.024696
 31
0.0
  0
POLYLINE
  5
129
100
AcDbEntity
  8
1
390
0
  6
Continuous
 62
     7
100
AcDb2dPolyline
 66
     1
 10
0.0
 20
0.0
 30
0.0
 40
3.0
 41
3.0
  0
VERTEX
  5
12A
100
AcDbEntity
  8
1
390
0
 62
     7
100
AcDbVertex
100
AcDb2dVertex
 10
105.245385
 20
138.849338
 30
0.0
  0
VERTEX
  5
12B
100
AcDbEntity
  8
1
390
0
 62
     7
100
AcDbVertex
100
AcDb2dVertex
 10
105.142315
 20
138.820633
 30
0.0
 42
-0.039744
  0
VERTEX
  5
12C
100
AcDbEntity
  8
1
390
0
 62
     7
100
AcDbVertex
100
AcDb2dVertex
 10
104.695385
 20
138.849338
 30
0.0
  0
SEQEND
  5
12D
100
AcDbEntity
  8
0
390
0
  0
ARC
  5
12E
100
AcDbEntity
  8
1
390
0
  6
Continuous
 62
     7
100
AcDbCircle
 10
105.612052
 20
145.779365
 30
0.0
 40
6.99039
210
0.0
220
0.0
230
1.0
100
AcDbArc
 50
255.078444
 51
262.464966
  0
LINE
  5
12F
100
AcDbEntity
  8
1
390
0
  6
Continuous
 62
     7
100
AcDbLine
 10
107.412052
 20
139.024696
 30
0.0
 11
107.412052
 21
139.014751
 31
0.0
  0
ARC
  5
130
100
AcDbEntity
  8
1
390
0
  6
Continuous
 62
     7
100
AcDbCircle
 10
105.612052
 20
145.779365
 30
0.0
 40
6.99039
210
0.0
220
0.0
230
1.0
100
AcDbArc
 50
277.535034
 51
284.921556
  0
POLYLINE
  5
131
100
AcDbEntity
  8
1
390
0
  6
Continuous
 62
     7
100
AcDb2dPolyline
 66
     1
 10
0.0
 20
0.0
 30
0.0
 40
3.0
 41
3.0
  0
VERTEX
  5
132
100
AcDbEntity
  8
1
390
0
 62
     7
100
AcDbVertex
100
AcDb2dVertex
 10
106.528719
 20
138.849338
 30
0.0
 42
-0.036781
  0
VERTEX
  5
133
100
AcDbEntity
  8
1
390
0
 62
     7
100
AcDbVertex
100
AcDb2dVertex
 10
106.095138
 20
138.820047
 30
0.0
  0
VERTEX
  5
134
100
AcDbEntity
  8
1
390
0
 62
     7
100
AcDbVertex
100
AcDb2dVertex
 10
105.994049
 20
138.834325
 30
0.0
  0
VERTEX
  5
135
100
AcDbEntity
  8
1
390
0
 62
     7
100
AcDbVertex
100
AcDb2dVertex
 10
105.978719
 20
138.849338
 30
0.0
  0
SEQEND
  5
136
100
AcDbEntity
  8
0
390
0
  0
LINE
  5
137
100
AcDbEntity
  8
1
390
0
  6
Continuous
 62
     7
100
AcDbLine
 10
105.978719
 20
139.024696
 30
0.0
 11
105.978719
 21
138.849338
 31
0.0
  0
ARC
  5
138
100
AcDbEntity
  8
1
390
0
  6
Continuous
 62
     7
100
AcDbCircle
 10
105.612052
 20
145.779365
 30
0.0
 40
6.764614
210
0.0
220
0.0
230
1.0
100
AcDbArc
 50
266.892838
 51
273.107162
  0
LINE
  5
139
100
AcDbEntity
  8
1
390
0
  6
Continuous
 62
     7
100
AcDbLine
 10
105.245385
 20
138.849338
 30
0.0
 11
105.245385
 21
139.024696
 31
0.0
  0
LINE
  5
13A
100
AcDbEntity
  8
1
390
0
  6
Continuous
 62
     7
100
AcDbLine
 10
137.812052
 20
139.014751
 30
0.0
 11
137.812052
 21
139.024696
 31
0.0
  0
POLYLINE
  5
13B
100
AcDbEntity
  8
1
390
0
  6
Continuous
 62
     7
100
AcDb2dPolyline
 66
     1
 10
0.0
 20
0.0
 30
0.0
 40
3.0
 41
3.0
  0
VERTEX
  5
13C
100
AcDbEntity
  8
1
390
0
 62
     7
100
AcDbVertex
100
AcDb2dVertex
 10
139.245385
 20
138.849338
 30
0.0
  0
VERTEX
  5
13D
100
AcDbEntity
  8
1
390
0
 62
     7
100
AcDbVertex
100
AcDb2dVertex
 10
139.142315
 20
138.820633
 30
0.0
 42
-0.039744
  0
VERTEX
  5
13E
100
AcDbEntity
  8
1
390
0
 62
     7
100
AcDbVertex
100
AcDb2dVertex
 10
138.695385
 20
138.849338
 30
0.0
  0
SEQEND
  5
13F
100
AcDbEntity
  8
0
390
0
  0
ARC
  5
140
100
AcDbEntity
  8
1
390
0
  6
Continuous
 62
     7
100
AcDbCircle
 10
139.612052
 20
145.779365
 30
0.0
 40
6.99039
210
0.0
220
0.0
230
1.0
100
AcDbArc
 50
255.078444
 51
262.464966
  0
LINE
  5
141
100
AcDbEntity
  8
1
390
0
  6
DOT
 62
     9
100
AcDbLine
 10
139.223181
 20
138.831834
 30
0.0
 11
139.245385
 21
138.849338
 31
0.0
  0
LINE
  5
142
100
AcDbEntity
  8
1
390
0
  6
Continuous
 62
     7
100
AcDbLine
 10
141.412052
 20
139.024696
 30
0.0
 11
141.412052
 21
139.014751
 31
0.0
  0
ARC
  5
143
100
AcDbEntity
  8
1
390
0
  6
Continuous
 62
     7
100
AcDbCircle
 10
139.612052
 20
145.779365
 30
0.0
 40
6.99039
210
0.0
220
0.0
230
1.0
100
AcDbArc
 50
277.535034
 51
284.921556
  0
POLYLINE
  5
144
100
AcDbEntity
  8
1
390
0
  6
Continuous
 62
     7
100
AcDb2dPolyline
 66
     1
 10
0.0
 20
0.0
 30
0.0
 40
3.0
 41
3.0
  0
VERTEX
  5
145
100
AcDbEntity
  8
1
390
0
 62
     7
100
AcDbVertex
100
AcDb2dVertex
 10
140.528719
 20
138.849338
 30
0.0
 42
-0.036781
  0
VERTEX
  5
146
100
AcDbEntity
  8
1
390
0
 62
     7
100
AcDbVertex
100
AcDb2dVertex
 10
140.095138
 20
138.820047
 30
0.0
  0
VERTEX
  5
147
100
AcDbEntity
  8
1
390
0
 62
     7
100
AcDbVertex
100
AcDb2dVertex
 10
139.994049
 20
138.834325
 30
0.0
  0
VERTEX
  5
148
100
AcDbEntity
  8
1
390
0
 62
     7
100
AcDbVertex
100
AcDb2dVertex
 10
139.978719
 20
138.849338
 30
0.0
  0
SEQEND
  5
149
100
AcDbEntity
  8
0
390
0
  0
LINE
  5
14A
100
AcDbEntity
  8
1
390
0
  6
Continuous
 62
     7
100
AcDbLine
 10
139.978719
 20
139.024696
 30
0.0
 11
139.978719
 21
138.849338
 31
0.0
  0
ARC
  5
14B
100
AcDbEntity
  8
1
390
0
  6
Continuous
 62
     7
100
AcDbCircle
 10
139.612052
 20
145.779365
 30
0.0
 40
6.764614
210
0.0
220
0.0
230
1.0
100
AcDbArc
 50
266.892838
 51
273.107162
  0
LINE
  5
14C
100
AcDbEntity
  8
1
390
0
  6
Continuous
 62
     7
100
AcDbLine
 10
139.245385
 20
138.849338
 30
0.0
 11
139.245385
 21
139.024696
 31
0.0
  0
LINE
  5
14D
100
AcDbEntity
  8
1
390
0
  6
DOT
 62
     9
100
AcDbLine
 10
139.245385
 20
139.779365
 30
0.0
 11
139.245385
 21
139.024696
 31
0.0
  0
LINE
  5
14E
100
AcDbEntity
  8
1
390
0
  6
DOT
 62
     9
100
AcDbLine
 10
139.978719
 20
139.779365
 30
0.0
 11
139.978719
 21
139.024696
 31
0.0
  0
LINE
  5
14F
100
AcDbEntity
  8
1
390
0
  6
DOT
 62
     9
100
AcDbLine
 10
105.978719
 20
139.779365
 30
0.0
 11
105.978719
 21
139.024696
 31
0.0
  0
LINE
  5
150
100
AcDbEntity
  8
1
390
0
  6
DOT
 62
     9
100
AcDbLine
 10
105.245385
 20
139.779365
 30
0.0
 11
105.245385
 21
139.024696
 31
0.0
  0
LINE
  5
151
100
AcDbEntity
  8
1
390
0
  6
DOT
 62
     9
100
AcDbLine
 10
139.245385
 20
139.779365
 30
0.0
 11
139.978719
 21
139.779365
 31
0.0
  0
LINE
  5
152
100
AcDbEntity
  8
1
390
0
  6
DOT
 62
     9
100
AcDbLine
 10
105.245385
 20
139.779365
 30
0.0
 11
105.978719
 21
139.779365
 31
0.0
  0
LINE
  5
153
100
AcDbEntity
  8
1
390
0
  6
Continuous
 62
     7
100
AcDbLine
 10
169.612052
 20
145.179365
 30
0.0
 11
169.612052
 21
147.579365
 31
0.0
  0
LINE
  5
154
100
AcDbEntity
  8
1
390
0
  6
Continuous
 62
     7
100
AcDbLine
 10
168.812052
 20
144.379365
 30
0.0
 11
168.812052
 21
148.379365
 31
0.0
  0
LINE
  5
155
100
AcDbEntity
  8
1
390
0
  6
Continuous
 62
     7
100
AcDbLine
 10
75.612052
 20
145.179365
 30
0.0
 11
75.612052
 21
147.579365
 31
0.0
  0
LINE
  5
156
100
AcDbEntity
  8
1
390
0
  6
Continuous
 62
     7
100
AcDbLine
 10
76.412052
 20
144.379365
 30
0.0
 11
76.412052
 21
148.379365
 31
0.0
  0
LINE
  5
157
100
AcDbEntity
  8
1
390
0
  6
Continuous
 62
     7
100
AcDbLine
 10
76.412052
 20
175.379365
 30
0.0
 11
76.412052
 21
171.379365
 31
0.0
  0
LINE
  5
158
100
AcDbEntity
  8
1
390
0
  6
Continuous
 62
     7
100
AcDbLine
 10
169.612052
 20
174.579365
 30
0.0
 11
169.612052
 21
172.179365
 31
0.0
  0
LINE
  5
159
100
AcDbEntity
  8
1
390
0
  6
Continuous
 62
     7
100
AcDbLine
 10
168.812052
 20
175.379365
 30
0.0
 11
168.812052
 21
171.379365
 31
0.0
  0
LINE
  5
15A
100
AcDbEntity
  8
1
390
0
  6
Continuous
 62
     7
100
AcDbLine
 10
75.612052
 20
174.579365
 30
0.0
 11
75.612052
 21
172.179365
 31
0.0
  0
LINE
  5
15B
100
AcDbEntity
  8
1
390
0
  6
DOT
 62
     9
100
AcDbLine
 10
105.978719
 20
139.779365
 30
0.0
 11
106.528719
 21
139.779365
 31
0.0
  0
LINE
  5
15C
100
AcDbEntity
  8
1
390
0
  6
DOT
 62
     9
100
AcDbLine
 10
139.978719
 20
139.779365
 30
0.0
 11
140.528719
 21
139.779365
 31
0.0
  0
LINE
  5
15D
100
AcDbEntity
  8
1
390
0
  6
DOT
 62
     9
100
AcDbLine
 10
104.695385
 20
139.779365
 30
0.0
 11
105.245385
 21
139.779365
 31
0.0
  0
LINE
  5
15E
100
AcDbEntity
  8
1
390
0
  6
DOT
 62
     9
100
AcDbLine
 10
138.695385
 20
139.779365
 30
0.0
 11
139.245385
 21
139.779365
 31
0.0
  0
LINE
  5
15F
100
AcDbEntity
  8
1
390
0
  6
DOT
 62
     9
100
AcDbLine
 10
141.412052
 20
139.779365
 30
0.0
 11
141.412052
 21
139.024696
 31
0.0
  0
LINE
  5
160
100
AcDbEntity
  8
1
390
0
  6
DOT
 62
     9
100
AcDbLine
 10
140.528719
 20
139.779365
 30
0.0
 11
141.412052
 21
139.779365
 31
0.0
  0
LINE
  5
161
100
AcDbEntity
  8
1
390
0
  6
DOT
 62
     9
100
AcDbLine
 10
107.412052
 20
139.779365
 30
0.0
 11
107.412052
 21
139.024696
 31
0.0
  0
LINE
  5
162
100
AcDbEntity
  8
1
390
0
  6
DOT
 62
     9
100
AcDbLine
 10
106.528719
 20
139.779365
 30
0.0
 11
107.412052
 21
139.779365
 31
0.0
  0
LINE
  5
163
100
AcDbEntity
  8
1
390
0
  6
DOT
 62
     9
100
AcDbLine
 10
137.812052
 20
139.779365
 30
0.0
 11
137.812052
 21
139.024696
 31
0.0
  0
LINE
  5
164
100
AcDbEntity
  8
1
390
0
  6
DOT
 62
     9
100
AcDbLine
 10
137.812052
 20
139.779365
 30
0.0
 11
138.695385
 21
139.779365
 31
0.0
  0
LINE
  5
165
100
AcDbEntity
  8
1
390
0
  6
DOT
 62
     9
100
AcDbLine
 10
103.812052
 20
139.779365
 30
0.0
 11
103.812052
 21
139.024696
 31
0.0
  0
LINE
  5
166
100
AcDbEntity
  8
1
390
0
  6
DOT
 62
     9
100
AcDbLine
 10
103.812052
 20
139.779365
 30
0.0
 11
104.695385
 21
139.779365
 31
0.0
  0
LINE
  5
167
100
AcDbEntity
  8
1
390
0
  6
DOT
 62
     9
100
AcDbLine
 10
169.112052
 20
173.079365
 30
0.0
 11
169.112052
 21
173.679365
 31
0.0
  0
LINE
  5
168
100
AcDbEntity
  8
1
390
0
  6
DOT
 62
     9
100
AcDbLine
 10
169.612052
 20
173.679365
 30
0.0
 11
169.112052
 21
173.679365
 31
0.0
  0
LINE
  5
169
100
AcDbEntity
  8
1
390
0
  6
DOT
 62
     9
100
AcDbLine
 10
169.612052
 20
173.079365
 30
0.0
 11
169.112052
 21
173.079365
 31
0.0
  0
LINE
  5
16A
100
AcDbEntity
  8
1
390
0
  6
DOT
 62
     9
100
AcDbLine
 10
75.612052
 20
146.679365
 30
0.0
 11
76.112052
 21
146.679365
 31
0.0
  0
LINE
  5
16B
100
AcDbEntity
  8
1
390
0
  6
DOT
 62
     9
100
AcDbLine
 10
75.612052
 20
146.079365
 30
0.0
 11
76.112052
 21
146.079365
 31
0.0
  0
LINE
  5
16C
100
AcDbEntity
  8
1
390
0
  6
DOT
 62
     9
100
AcDbLine
 10
76.112052
 20
146.679365
 30
0.0
 11
76.112052
 21
146.079365
 31
0.0
  0
LINE
  5
16D
100
AcDbEntity
  8
1
390
0
  6
DOT
 62
     9
100
AcDbLine
 10
75.612052
 20
173.679365
 30
0.0
 11
76.112052
 21
173.679365
 31
0.0
  0
LINE
  5
16E
100
AcDbEntity
  8
1
390
0
  6
DOT
 62
     9
100
AcDbLine
 10
76.112052
 20
173.079365
 30
0.0
 11
76.112052
 21
173.679365
 31
0.0
  0
LINE
  5
16F
100
AcDbEntity
  8
1
390
0
  6
DOT
 62
     9
100
AcDbLine
 10
75.612052
 20
173.079365
 30
0.0
 11
76.112052
 21
173.079365
 31
0.0
  0
LINE
  5
170
100
AcDbEntity
  8
1
390
0
  6
DOT
 62
     9
100
AcDbLine
 10
169.612052
 20
146.679365
 30
0.0
 11
169.112052
 21
146.679365
 31
0.0
  0
LINE
  5
171
100
AcDbEntity
  8
1
390
0
  6
DOT
 62
     9
100
AcDbLine
 10
169.112052
 20
146.679365
 30
0.0
 11
169.112052
 21
146.079365
 31
0.0
  0
LINE
  5
172
100
AcDbEntity
  8
1
390
0
  6
DOT
 62
     9
100
AcDbLine
 10
169.612052
 20
146.079365
 30
0.0
 11
169.112052
 21
146.079365
 31
0.0
  0
LINE
  5
173
100
AcDbEntity
  8
1
390
0
  6
DOT
 62
     9
100
AcDbLine
 10
169.112052
 20
145.879365
 30
0.0
 11
169.112052
 21
146.079365
 31
0.0
  0
LINE
  5
174
100
AcDbEntity
  8
1
390
0
  6
DOT
 62
     9
100
AcDbLine
 10
76.112052
 20
146.679365
 30
0.0
 11
76.112052
 21
146.879365
 31
0.0
  0
LINE
  5
175
100
AcDbEntity
  8
1
390
0
  6
DOT
 62
     9
100
AcDbLine
 10
76.112052
 20
173.879365
 30
0.0
 11
76.112052
 21
173.679365
 31
0.0
  0
LINE
  5
176
100
AcDbEntity
  8
1
390
0
  6
DOT
 62
     9
100
AcDbLine
 10
76.112052
 20
145.879365
 30
0.0
 11
76.112052
 21
146.079365
 31
0.0
  0
LINE
  5
177
100
AcDbEntity
  8
1
390
0
  6
DOT
 62
     9
100
AcDbLine
 10
169.112052
 20
173.079365
 30
0.0
 11
169.112052
 21
172.879365
 31
0.0
  0
LINE
  5
178
100
AcDbEntity
  8
1
390
0
  6
DOT
 62
     9
100
AcDbLine
 10
76.112052
 20
173.079365
 30
0.0
 11
76.112052
 21
172.879365
 31
0.0
  0
LINE
  5
179
100
AcDbEntity
  8
1
390
0
  6
DOT
 62
     9
100
AcDbLine
 10
169.112052
 20
146.679365
 30
0.0
 11
169.112052
 21
146.879365
 31
0.0
  0
LINE
  5
17A
100
AcDbEntity
  8
1
390
0
  6
DOT
 62
     9
100
AcDbLine
 10
169.112052
 20
173.879365
 30
0.0
 11
169.112052
 21
173.679365
 31
0.0
  0
LINE
  5
17B
100
AcDbEntity
  8
1
390
0
  6
DOT
 62
     9
100
AcDbLine
 10
76.112052
 20
145.879365
 30
0.0
 11
76.112052
 21
145.379365
 31
0.0
  0
LINE
  5
17C
100
AcDbEntity
  8
1
390
0
  6
DOT
 62
     9
100
AcDbLine
 10
169.112052
 20
145.879365
 30
0.0
 11
169.112052
 21
145.379365
 31
0.0
  0
LINE
  5
17D
100
AcDbEntity
  8
1
390
0
  6
DOT
 62
     9
100
AcDbLine
 10
169.612052
 20
145.379365
 30
0.0
 11
169.112052
 21
145.379365
 31
0.0
  0
LINE
  5
17E
100
AcDbEntity
  8
1
390
0
  6
DOT
 62
     9
100
AcDbLine
 10
169.112052
 20
173.879365
 30
0.0
 11
169.112052
 21
174.379365
 31
0.0
  0
LINE
  5
17F
100
AcDbEntity
  8
1
390
0
  6
DOT
 62
     9
100
AcDbLine
 10
75.612052
 20
145.379365
 30
0.0
 11
76.112052
 21
145.379365
 31
0.0
  0
LINE
  5
180
100
AcDbEntity
  8
1
390
0
  6
DOT
 62
     9
100
AcDbLine
 10
169.112052
 20
172.379365
 30
0.0
 11
169.112052
 21
172.879365
 31
0.0
  0
LINE
  5
181
100
AcDbEntity
  8
1
390
0
  6
DOT
 62
     9
100
AcDbLine
 10
76.112052
 20
147.379365
 30
0.0
 11
76.112052
 21
146.879365
 31
0.0
  0
LINE
  5
182
100
AcDbEntity
  8
1
390
0
  6
DOT
 62
     9
100
AcDbLine
 10
169.612052
 20
174.379365
 30
0.0
 11
169.112052
 21
174.379365
 31
0.0
  0
LINE
  5
183
100
AcDbEntity
  8
1
390
0
  6
DOT
 62
     9
100
AcDbLine
 10
76.112052
 20
173.879365
 30
0.0
 11
76.112052
 21
174.379365
 31
0.0
  0
LINE
  5
184
100
AcDbEntity
  8
1
390
0
  6
DOT
 62
     9
100
AcDbLine
 10
75.612052
 20
147.379365
 30
0.0
 11
76.112052
 21
147.379365
 31
0.0
  0
LINE
  5
185
100
AcDbEntity
  8
1
390
0
  6
DOT
 62
     9
100
AcDbLine
 10
75.612052
 20
174.379365
 30
0.0
 11
76.112052
 21
174.379365
 31
0.0
  0
LINE
  5
186
100
AcDbEntity
  8
1
390
0
  6
DOT
 62
     9
100
AcDbLine
 10
75.612052
 20
172.379365
 30
0.0
 11
76.112052
 21
172.379365
 31
0.0
  0
LINE
  5
187
100
AcDbEntity
  8
1
390
0
  6
DOT
 62
     9
100
AcDbLine
 10
76.112052
 20
172.379365
 30
0.0
 11
76.112052
 21
172.879365
 31
0.0
  0
LINE
  5
188
100
AcDbEntity
  8
1
390
0
  6
DOT
 62
     9
100
AcDbLine
 10
169.612052
 20
147.379365
 30
0.0
 11
169.112052
 21
147.379365
 31
0.0
  0
LINE
  5
189
100
AcDbEntity
  8
1
390
0
  6
DOT
 62
     9
100
AcDbLine
 10
169.112052
 20
147.379365
 30
0.0
 11
169.112052
 21
146.879365
 31
0.0
  0
LINE
  5
18A
100
AcDbEntity
  8
1
390
0
  6
DOT
 62
     9
100
AcDbLine
 10
169.612052
 20
172.379365
 30
0.0
 11
169.112052
 21
172.379365
 31
0.0
  0
CIRCLE
  5
18B
100
AcDbEntity
  8
1
390
0
  6
Continuous
 62
     7
100
AcDbCircle
 10
68.112052
 20
147.379365
 30
0.0
 40
2.1
210
0.0
220
0.0
230
1.0
  0
CIRCLE
  5
18C
100
AcDbEntity
  8
1
390
0
  6
Continuous
 62
     7
100
AcDbCircle
 10
68.112052
 20
172.379365
 30
0.0
 40
2.1
210
0.0
220
0.0
230
1.0
  0
LINE
  5
18D
100
AcDbEntity
  8
1
390
0
  6
Continuous
 62
     7
100
AcDbLine
 10
65.112052
 20
177.379365
 30
0.0
 11
77.612052
 21
177.379365
 31
0.0
  0
LINE
  5
18E
100
AcDbEntity
  8
1
390
0
  6
Continuous
 62
     7
100
AcDbLine
 10
167.612052
 20
177.379365
 30
0.0
 11
180.112052
 21
177.379365
 31
0.0
  0
ARC
  5
18F
100
AcDbEntity
  8
1
390
0
  6
Continuous
 62
     7
100
AcDbCircle
 10
180.112052
 20
175.379365
 30
0.0
 40
2.0
210
0.0
220
0.0
230
1.0
100
AcDbArc
 50
0.0
 51
90.0
  0
LINE
  5
190
100
AcDbEntity
  8
1
390
0
  6
Continuous
 62
     7
100
AcDbLine
 10
182.112052
 20
175.379365
 30
0.0
 11
182.112052
 21
144.379365
 31
0.0
  0
ARC
  5
191
100
AcDbEntity
  8
1
390
0
  6
Continuous
 62
     7
100
AcDbCircle
 10
180.112052
 20
144.379365
 30
0.0
 40
2.0
210
0.0
220
0.0
230
1.0
100
AcDbArc
 50
270.0
 51
360.0
  0
LINE
  5
192
100
AcDbEntity
  8
1
390
0
  6
Continuous
 62
     7
100
AcDbLine
 10
180.112052
 20
142.379365
 30
0.0
 11
167.612052
 21
142.379365
 31
0.0
  0
LINE
  5
193
100
AcDbEntity
  8
1
390
0
  6
Continuous
 62
     7
100
AcDbLine
 10
77.612052
 20
142.379365
 30
0.0
 11
65.112052
 21
142.379365
 31
0.0
  0
ARC
  5
194
100
AcDbEntity
  8
1
390
0
  6
Continuous
 62
     7
100
AcDbCircle
 10
65.112052
 20
144.379365
 30
0.0
 40
2.0
210
0.0
220
0.0
230
1.0
100
AcDbArc
 50
180.0
 51
270.0
  0
LINE
  5
195
100
AcDbEntity
  8
1
390
0
  6
Continuous
 62
     7
100
AcDbLine
 10
63.112052
 20
144.379365
 30
0.0
 11
63.112052
 21
175.379365
 31
0.0
  0
ARC
  5
196
100
AcDbEntity
  8
1
390
0
  6
Continuous
 62
     7
100
AcDbCircle
 10
65.112052
 20
175.379365
 30
0.0
 40
2.0
210
0.0
220
0.0
230
1.0
100
AcDbArc
 50
90.0
 51
180.0
  0
CIRCLE
  5
197
100
AcDbEntity
  8
1
390
0
  6
Continuous
 62
     7
100
AcDbCircle
 10
68.112052
 20
159.879365
 30
0.0
 40
2.1
210
0.0
220
0.0
230
1.0
  0
CIRCLE
  5
198
100
AcDbEntity
  8
1
390
0
  6
Continuous
 62
     7
100
AcDbCircle
 10
177.112052
 20
159.879365
 30
0.0
 40
2.1
210
0.0
220
0.0
230
1.0
  0
CIRCLE
  5
199
100
AcDbEntity
  8
1
390
0
  6
Continuous
 62
     7
100
AcDbCircle
 10
177.112052
 20
147.379365
 30
0.0
 40
2.1
210
0.0
220
0.0
230
1.0
  0
CIRCLE
  5
19A
100
AcDbEntity
  8
1
390
0
  6
Continuous
 62
     7
100
AcDbCircle
 10
177.112052
 20
172.379365
 30
0.0
 40
2.1
210
0.0
220
0.0
230
1.0
  0
LINE
  5
19B
100
AcDbEntity
  8
1
390
0
  6
DOT
 62
     9
100
AcDbLine
 10
168.212052
 20
142.579365
 30
0.0
 11
77.012052
 21
142.579365
 31
0.0
  0
LINE
  5
19C
100
AcDbEntity
  8
1
390
0
  6
DOT
 62
     9
100
AcDbLine
 10
77.012052
 20
177.179365
 30
0.0
 11
168.212052
 21
177.179365
 31
0.0
  0
LINE
  5
19D
100
AcDbEntity
  8
1
390
0
  6
DOT
 62
     9
100
AcDbLine
 10
168.412052
 20
176.979365
 30
0.0
 11
168.412052
 21
142.779365
 31
0.0
  0
LINE
  5
19E
100
AcDbEntity
  8
1
390
0
  6
DOT
 62
     9
100
AcDbLine
 10
76.812052
 20
142.779365
 30
0.0
 11
76.812052
 21
176.979365
 31
0.0
  0
LINE
  5
19F
100
AcDbEntity
  8
1
390
0
  6
Continuous
 62
     7
100
AcDbLine
 10
113.362052
 20
178.575775
 30
0.0
 11
113.362052
 21
177.379365
 31
0.0
  0
LINE
  5
1A0
100
AcDbEntity
  8
1
390
0
  6
Continuous
 62
     7
100
AcDbLine
 10
131.862052
 20
177.379365
 30
0.0
 11
131.862052
 21
178.575775
 31
0.0
  0
LINE
  5
1A1
100
AcDbEntity
  8
1
390
0
  6
Continuous
 62
     7
100
AcDbLine
 10
131.835257
 20
178.675775
 30
0.0
 11
130.332074
 21
181.279365
 31
0.0
  0
LINE
  5
1A2
100
AcDbEntity
  8
1
390
0
  6
Continuous
 62
     7
100
AcDbLine
 10
114.89203
 20
181.279365
 30
0.0
 11
113.388847
 21
178.675775
 31
0.0
  0
ARC
  5
1A3
100
AcDbEntity
  8
1
390
0
  6
Continuous
 62
     7
100
AcDbCircle
 10
130.158869
 20
181.179365
 30
0.0
 40
0.2
210
0.0
220
0.0
230
1.0
100
AcDbArc
 50
30.0
 51
90.0
  0
ARC
  5
1A4
100
AcDbEntity
  8
1
390
0
  6
Continuous
 62
     7
100
AcDbCircle
 10
115.065235
 20
181.179365
 30
0.0
 40
0.2
210
0.0
220
0.0
230
1.0
100
AcDbArc
 50
90.0
 51
150.0
  0
ARC
  5
1A5
100
AcDbEntity
  8
1
390
0
  6
Continuous
 62
     7
100
AcDbCircle
 10
129.162052
 20
182.179365
 30
0.0
 40
0.2
210
0.0
220
0.0
230
1.0
100
AcDbArc
 50
0.0
 51
90.0
  0
ARC
  5
1A6
100
AcDbEntity
  8
1
390
0
  6
Continuous
 62
     7
100
AcDbCircle
 10
116.062052
 20
182.179365
 30
0.0
 40
0.2
210
0.0
220
0.0
230
1.0
100
AcDbArc
 50
90.0
 51
180.0
  0
LINE
  5
1A7
100
AcDbEntity
  8
1
390
0
  6
Continuous
 62
     7
100
AcDbLine
 10
115.862052
 20
182.179365
 30
0.0
 11
115.862052
 21
181.379365
 31
0.0
  0
LINE
  5
1A8
100
AcDbEntity
  8
1
390
0
  6
Continuous
 62
     7
100
AcDbLine
 10
129.362052
 20
181.379365
 30
0.0
 11
129.362052
 21
182.179365
 31
0.0
  0
LINE
  5
1A9
100
AcDbEntity
  8
1
390
0
  6
Continuous
 62
     7
100
AcDbLine
 10
128.612052
 20
140.779365
 30
0.0
 11
128.612052
 21
139.979365
 31
0.0
  0
LINE
  5
1AA
100
AcDbEntity
  8
1
390
0
  6
Continuous
 62
     7
100
AcDbLine
 10
136.612052
 20
139.979365
 30
0.0
 11
136.612052
 21
140.779365
 31
0.0
  0
LINE
  5
1AB
100
AcDbEntity
  8
1
390
0
  6
Continuous
 62
     7
100
AcDbLine
 10
108.612052
 20
139.979365
 30
0.0
 11
108.812052
 21
139.779365
 31
0.0
  0
LINE
  5
1AC
100
AcDbEntity
  8
1
390
0
  6
Continuous
 62
     7
100
AcDbLine
 10
116.412052
 20
139.779365
 30
0.0
 11
116.612052
 21
139.979365
 31
0.0
  0
LINE
  5
1AD
100
AcDbEntity
  8
1
390
0
  6
Continuous
 62
     7
100
AcDbLine
 10
108.612052
 20
140.779365
 30
0.0
 11
108.612052
 21
139.979365
 31
0.0
  0
LINE
  5
1AE
100
AcDbEntity
  8
1
390
0
  6
Continuous
 62
     7
100
AcDbLine
 10
116.612052
 20
139.979365
 30
0.0
 11
116.612052
 21
140.779365
 31
0.0
  0
LINE
  5
1AF
100
AcDbEntity
  8
1
390
0
  6
Continuous
 62
     7
100
AcDbLine
 10
94.612052
 20
140.779365
 30
0.0
 11
94.612052
 21
139.979365
 31
0.0
  0
LINE
  5
1B0
100
AcDbEntity
  8
1
390
0
  6
Continuous
 62
     7
100
AcDbLine
 10
102.612052
 20
139.979365
 30
0.0
 11
102.612052
 21
140.779365
 31
0.0
  0
LINE
  5
1B1
100
AcDbEntity
  8
1
390
0
  6
Continuous
 62
     7
100
AcDbLine
 10
94.612052
 20
139.979365
 30
0.0
 11
94.812052
 21
139.779365
 31
0.0
  0
LINE
  5
1B2
100
AcDbEntity
  8
1
390
0
  6
Continuous
 62
     7
100
AcDbLine
 10
102.412052
 20
139.779365
 30
0.0
 11
102.612052
 21
139.979365
 31
0.0
  0
LINE
  5
1B3
100
AcDbEntity
  8
1
390
0
  6
Continuous
 62
     7
100
AcDbLine
 10
128.612052
 20
139.979365
 30
0.0
 11
128.812052
 21
139.779365
 31
0.0
  0
LINE
  5
1B4
100
AcDbEntity
  8
1
390
0
  6
Continuous
 62
     7
100
AcDbLine
 10
136.412052
 20
139.779365
 30
0.0
 11
136.612052
 21
139.979365
 31
0.0
  0
LINE
  5
1B5
100
AcDbEntity
  8
1
390
0
  6
Continuous
 62
     7
100
AcDbLine
 10
142.612052
 20
139.979365
 30
0.0
 11
142.812052
 21
139.779365
 31
0.0
  0
LINE
  5
1B6
100
AcDbEntity
  8
1
390
0
  6
Continuous
 62
     7
100
AcDbLine
 10
150.412052
 20
139.779365
 30
0.0
 11
150.612052
 21
139.979365
 31
0.0
  0
LINE
  5
1B7
100
AcDbEntity
  8
1
390
0
  6
Continuous
 62
     7
100
AcDbLine
 10
142.612052
 20
140.779365
 30
0.0
 11
142.612052
 21
139.979365
 31
0.0
  0
LINE
  5
1B8
100
AcDbEntity
  8
1
390
0
  6
Continuous
 62
     7
100
AcDbLine
 10
150.612052
 20
139.979365
 30
0.0
 11
150.612052
 21
140.779365
 31
0.0
  0
LINE
  5
1B9
100
AcDbEntity
  8
1
390
0
  6
DOT
 62
     9
100
AcDbLine
 10
127.612052
 20
177.379365
 30
0.0
 11
127.612052
 21
182.379365
 31
0.0
  0
LINE
  5
1BA
100
AcDbEntity
  8
1
390
0
  6
DOT
 62
     9
100
AcDbLine
 10
117.612052
 20
182.379365
 30
0.0
 11
117.612052
 21
177.379365
 31
0.0
  0
LINE
  5
1BB
100
AcDbEntity
  8
1
390
0
  6
DOT
 62
     9
100
AcDbLine
 10
135.112052
 20
139.779365
 30
0.0
 11
135.112052
 21
145.779365
 31
0.0
  0
LINE
  5
1BC
100
AcDbEntity
  8
1
390
0
  6
DOT
 62
     9
100
AcDbLine
 10
130.112052
 20
145.779365
 30
0.0
 11
130.112052
 21
139.779365
 31
0.0
  0
LINE
  5
1BD
100
AcDbEntity
  8
1
390
0
  6
DOT
 62
     9
100
AcDbLine
 10
149.112052
 20
139.779365
 30
0.0
 11
149.112052
 21
145.779365
 31
0.0
  0
LINE
  5
1BE
100
AcDbEntity
  8
1
390
0
  6
DOT
 62
     9
100
AcDbLine
 10
144.112052
 20
145.779365
 30
0.0
 11
144.112052
 21
139.779365
 31
0.0
  0
LINE
  5
1BF
100
AcDbEntity
  8
1
390
0
  6
DOT
 62
     9
100
AcDbLine
 10
101.112052
 20
139.779365
 30
0.0
 11
101.112052
 21
145.779365
 31
0.0
  0
LINE
  5
1C0
100
AcDbEntity
  8
1
390
0
  6
DOT
 62
     9
100
AcDbLine
 10
96.112052
 20
145.779365
 30
0.0
 11
96.112052
 21
139.779365
 31
0.0
  0
LINE
  5
1C1
100
AcDbEntity
  8
1
390
0
  6
DOT
 62
     9
100
AcDbLine
 10
115.112052
 20
139.779365
 30
0.0
 11
115.112052
 21
145.779365
 31
0.0
  0
LINE
  5
1C2
100
AcDbEntity
  8
1
390
0
  6
DOT
 62
     9
100
AcDbLine
 10
110.112052
 20
145.779365
 30
0.0
 11
110.112052
 21
139.779365
 31
0.0
  0
LINE
  5
1C3
100
AcDbEntity
  8
1
390
0
  6
DOT
 62
     9
100
AcDbLine
 10
148.112052
 20
140.979365
 30
0.0
 11
148.112052
 21
142.379365
 31
0.0
  0
LINE
  5
1C4
100
AcDbEntity
  8
1
390
0
  6
DOT
 62
     9
100
AcDbLine
 10
148.112052
 20
142.379365
 30
0.0
 11
148.112052
 21
144.879365
 31
0.0
  0
LINE
  5
1C5
100
AcDbEntity
  8
1
390
0
  6
DOT
 62
     9
100
AcDbLine
 10
148.112052
 20
144.879365
 30
0.0
 11
148.112052
 21
145.779365
 31
0.0
  0
LINE
  5
1C6
100
AcDbEntity
  8
1
390
0
  6
DOT
 62
     9
100
AcDbLine
 10
145.112052
 20
145.779365
 30
0.0
 11
145.112052
 21
144.879365
 31
0.0
  0
LINE
  5
1C7
100
AcDbEntity
  8
1
390
0
  6
DOT
 62
     9
100
AcDbLine
 10
145.112052
 20
144.879365
 30
0.0
 11
145.112052
 21
142.379365
 31
0.0
  0
LINE
  5
1C8
100
AcDbEntity
  8
1
390
0
  6
DOT
 62
     9
100
AcDbLine
 10
145.112052
 20
142.379365
 30
0.0
 11
145.112052
 21
140.979365
 31
0.0
  0
LINE
  5
1C9
100
AcDbEntity
  8
1
390
0
  6
DOT
 62
     9
100
AcDbLine
 10
111.112052
 20
140.979365
 30
0.0
 11
111.312052
 21
140.779365
 31
0.0
  0
LINE
  5
1CA
100
AcDbEntity
  8
1
390
0
  6
DOT
 62
     9
100
AcDbLine
 10
113.912052
 20
140.779365
 30
0.0
 11
114.112052
 21
140.979365
 31
0.0
  0
LINE
  5
1CB
100
AcDbEntity
  8
1
390
0
  6
DOT
 62
     9
100
AcDbLine
 10
100.112052
 20
140.979365
 30
0.0
 11
100.112052
 21
142.379365
 31
0.0
  0
LINE
  5
1CC
100
AcDbEntity
  8
1
390
0
  6
DOT
 62
     9
100
AcDbLine
 10
100.112052
 20
142.379365
 30
0.0
 11
100.112052
 21
144.879365
 31
0.0
  0
LINE
  5
1CD
100
AcDbEntity
  8
1
390
0
  6
DOT
 62
     9
100
AcDbLine
 10
100.112052
 20
144.879365
 30
0.0
 11
100.112052
 21
145.779365
 31
0.0
  0
LINE
  5
1CE
100
AcDbEntity
  8
1
390
0
  6
DOT
 62
     9
100
AcDbLine
 10
97.112052
 20
145.779365
 30
0.0
 11
97.112052
 21
144.879365
 31
0.0
  0
LINE
  5
1CF
100
AcDbEntity
  8
1
390
0
  6
DOT
 62
     9
100
AcDbLine
 10
97.112052
 20
144.879365
 30
0.0
 11
97.112052
 21
142.379365
 31
0.0
  0
LINE
  5
1D0
100
AcDbEntity
  8
1
390
0
  6
DOT
 62
     9
100
AcDbLine
 10
97.112052
 20
142.379365
 30
0.0
 11
97.112052
 21
140.979365
 31
0.0
  0
LINE
  5
1D1
100
AcDbEntity
  8
1
390
0
  6
DOT
 62
     9
100
AcDbLine
 10
131.112052
 20
140.979365
 30
0.0
 11
131.312052
 21
140.779365
 31
0.0
  0
LINE
  5
1D2
100
AcDbEntity
  8
1
390
0
  6
DOT
 62
     9
100
AcDbLine
 10
133.912052
 20
140.779365
 30
0.0
 11
134.112052
 21
140.979365
 31
0.0
  0
LINE
  5
1D3
100
AcDbEntity
  8
1
390
0
  6
DOT
 62
     9
100
AcDbLine
 10
97.112052
 20
140.979365
 30
0.0
 11
97.312052
 21
140.779365
 31
0.0
  0
LINE
  5
1D4
100
AcDbEntity
  8
1
390
0
  6
DOT
 62
     9
100
AcDbLine
 10
99.912052
 20
140.779365
 30
0.0
 11
100.112052
 21
140.979365
 31
0.0
  0
LINE
  5
1D5
100
AcDbEntity
  8
1
390
0
  6
DOT
 62
     9
100
AcDbLine
 10
145.112052
 20
140.979365
 30
0.0
 11
145.312052
 21
140.779365
 31
0.0
  0
LINE
  5
1D6
100
AcDbEntity
  8
1
390
0
  6
DOT
 62
     9
100
AcDbLine
 10
147.912052
 20
140.779365
 30
0.0
 11
148.112052
 21
140.979365
 31
0.0
  0
LINE
  5
1D7
100
AcDbEntity
  8
1
390
0
  6
DOT
 62
     9
100
AcDbLine
 10
134.112052
 20
140.979365
 30
0.0
 11
134.112052
 21
142.379365
 31
0.0
  0
LINE
  5
1D8
100
AcDbEntity
  8
1
390
0
  6
DOT
 62
     9
100
AcDbLine
 10
134.112052
 20
142.379365
 30
0.0
 11
134.112052
 21
144.879365
 31
0.0
  0
LINE
  5
1D9
100
AcDbEntity
  8
1
390
0
  6
DOT
 62
     9
100
AcDbLine
 10
134.112052
 20
144.879365
 30
0.0
 11
134.112052
 21
145.779365
 31
0.0
  0
LINE
  5
1DA
100
AcDbEntity
  8
1
390
0
  6
DOT
 62
     9
100
AcDbLine
 10
131.112052
 20
145.779365
 30
0.0
 11
131.112052
 21
144.879365
 31
0.0
  0
LINE
  5
1DB
100
AcDbEntity
  8
1
390
0
  6
DOT
 62
     9
100
AcDbLine
 10
131.112052
 20
144.879365
 30
0.0
 11
131.112052
 21
142.379365
 31
0.0
  0
LINE
  5
1DC
100
AcDbEntity
  8
1
390
0
  6
DOT
 62
     9
100
AcDbLine
 10
131.112052
 20
142.379365
 30
0.0
 11
131.112052
 21
140.979365
 31
0.0
  0
LINE
  5
1DD
100
AcDbEntity
  8
1
390
0
  6
DOT
 62
     9
100
AcDbLine
 10
114.112052
 20
140.979365
 30
0.0
 11
114.112052
 21
142.379365
 31
0.0
  0
LINE
  5
1DE
100
AcDbEntity
  8
1
390
0
  6
DOT
 62
     9
100
AcDbLine
 10
114.112052
 20
142.379365
 30
0.0
 11
114.112052
 21
144.879365
 31
0.0
  0
LINE
  5
1DF
100
AcDbEntity
  8
1
390
0
  6
DOT
 62
     9
100
AcDbLine
 10
114.112052
 20
144.879365
 30
0.0
 11
114.112052
 21
145.779365
 31
0.0
  0
LINE
  5
1E0
100
AcDbEntity
  8
1
390
0
  6
DOT
 62
     9
100
AcDbLine
 10
111.112052
 20
145.779365
 30
0.0
 11
111.112052
 21
144.879365
 31
0.0
  0
LINE
  5
1E1
100
AcDbEntity
  8
1
390
0
  6
DOT
 62
     9
100
AcDbLine
 10
111.112052
 20
144.879365
 30
0.0
 11
111.112052
 21
142.379365
 31
0.0
  0
LINE
  5
1E2
100
AcDbEntity
  8
1
390
0
  6
DOT
 62
     9
100
AcDbLine
 10
111.112052
 20
142.379365
 30
0.0
 11
111.112052
 21
140.979365
 31
0.0
  0
LINE
  5
1E3
100
AcDbEntity
  8
1
390
0
  6
DOT
 62
     9
100
AcDbLine
 10
119.612052
 20
181.179365
 30
0.0
 11
119.612052
 21
177.379365
 31
0.0
  0
LINE
  5
1E4
100
AcDbEntity
  8
1
390
0
  6
DOT
 62
     9
100
AcDbLine
 10
125.612052
 20
177.379365
 30
0.0
 11
125.612052
 21
181.179365
 31
0.0
  0
LINE
  5
1E5
100
AcDbEntity
  8
1
390
0
  6
DOT
 62
     9
100
AcDbLine
 10
125.612052
 20
181.179365
 30
0.0
 11
125.412052
 21
181.379365
 31
0.0
  0
LINE
  5
1E6
100
AcDbEntity
  8
1
390
0
  6
DOT
 62
     9
100
AcDbLine
 10
119.812052
 20
181.379365
 30
0.0
 11
119.612052
 21
181.179365
 31
0.0
  0
LINE
  5
1E7
100
AcDbEntity
  8
1
390
0
  6
Continuous
 62
     7
100
AcDbLine
 10
157.362052
 20
140.779365
 30
0.0
 11
157.436177
 21
139.932116
 31
0.0
  0
LINE
  5
1E8
100
AcDbEntity
  8
1
390
0
  6
Continuous
 62
     7
100
AcDbLine
 10
162.787927
 20
139.932116
 30
0.0
 11
162.862052
 21
140.779365
 31
0.0
  0
LINE
  5
1E9
100
AcDbEntity
  8
1
390
0
  6
Continuous
 62
     7
100
AcDbLine
 10
82.362052
 20
140.779365
 30
0.0
 11
82.436177
 21
139.932116
 31
0.0
  0
LINE
  5
1EA
100
AcDbEntity
  8
1
390
0
  6
Continuous
 62
     7
100
AcDbLine
 10
87.787927
 20
139.932116
 30
0.0
 11
87.862052
 21
140.779365
 31
0.0
  0
ARC
  5
1EB
100
AcDbEntity
  8
1
390
0
  6
Continuous
 62
     7
100
AcDbCircle
 10
158.432371
 20
140.019272
 30
0.0
 40
1.0
210
0.0
220
0.0
230
1.0
100
AcDbArc
 50
185.0
 51
253.742972
  0
ARC
  5
1EC
100
AcDbEntity
  8
1
390
0
  6
Continuous
 62
     7
100
AcDbCircle
 10
161.791733
 20
140.019272
 30
0.0
 40
1.0
210
0.0
220
0.0
230
1.0
100
AcDbArc
 50
286.257028
 51
355.0
  0
ARC
  5
1ED
100
AcDbEntity
  8
1
390
0
  6
Continuous
 62
     7
100
AcDbCircle
 10
83.432371
 20
140.019272
 30
0.0
 40
1.0
210
0.0
220
0.0
230
1.0
100
AcDbArc
 50
185.0
 51
253.742972
  0
ARC
  5
1EE
100
AcDbEntity
  8
1
390
0
  6
Continuous
 62
     7
100
AcDbCircle
 10
86.791733
 20
140.019272
 30
0.0
 40
1.0
210
0.0
220
0.0
230
1.0
100
AcDbArc
 50
286.257028
 51
355.0
  0
LINE
  5
1EF
100
AcDbEntity
  8
1
390
0
  6
DOT
 62
     9
100
AcDbLine
 10
122.80734
 20
181.379365
 30
0.0
 11
122.80734
 21
177.379365
 31
0.0
  0
LINE
  5
1F0
100
AcDbEntity
  8
1
390
0
  6
DOT
 62
     9
100
AcDbLine
 10
123.80734
 20
177.379365
 30
0.0
 11
123.80734
 21
181.379365
 31
0.0
  0
LINE
  5
1F1
100
AcDbEntity
  8
1
390
0
  6
DOT
 62
     9
100
AcDbLine
 10
121.416764
 20
181.379365
 30
0.0
 11
121.416764
 21
177.379365
 31
0.0
  0
LINE
  5
1F2
100
AcDbEntity
  8
1
390
0
  6
DOT
 62
     9
100
AcDbLine
 10
122.416764
 20
177.379365
 30
0.0
 11
122.416764
 21
181.379365
 31
0.0
  0
LINE
  5
1F3
100
AcDbEntity
  8
1
390
0
  6
DOT
 62
     9
100
AcDbLine
 10
98.219232
 20
140.779365
 30
0.0
 11
98.219232
 21
145.779365
 31
0.0
  0
LINE
  5
1F4
100
AcDbEntity
  8
1
390
0
  6
DOT
 62
     9
100
AcDbLine
 10
97.619232
 20
145.779365
 30
0.0
 11
97.619232
 21
140.779365
 31
0.0
  0
LINE
  5
1F5
100
AcDbEntity
  8
1
390
0
  6
DOT
 62
     9
100
AcDbLine
 10
112.219232
 20
140.779365
 30
0.0
 11
112.219232
 21
145.779365
 31
0.0
  0
LINE
  5
1F6
100
AcDbEntity
  8
1
390
0
  6
DOT
 62
     9
100
AcDbLine
 10
111.619232
 20
145.779365
 30
0.0
 11
111.619232
 21
140.779365
 31
0.0
  0
LINE
  5
1F7
100
AcDbEntity
  8
1
390
0
  6
DOT
 62
     9
100
AcDbLine
 10
132.219232
 20
140.779365
 30
0.0
 11
132.219232
 21
145.779365
 31
0.0
  0
LINE
  5
1F8
100
AcDbEntity
  8
1
390
0
  6
DOT
 62
     9
100
AcDbLine
 10
131.619232
 20
145.779365
 30
0.0
 11
131.619232
 21
140.779365
 31
0.0
  0
LINE
  5
1F9
100
AcDbEntity
  8
1
390
0
  6
DOT
 62
     9
100
AcDbLine
 10
146.219232
 20
140.779365
 30
0.0
 11
146.219232
 21
145.779365
 31
0.0
  0
LINE
  5
1FA
100
AcDbEntity
  8
1
390
0
  6
DOT
 62
     9
100
AcDbLine
 10
145.619232
 20
145.779365
 30
0.0
 11
145.619232
 21
140.779365
 31
0.0
  0
LINE
  5
1FB
100
AcDbEntity
  8
1
390
0
  6
DOT
 62
     9
100
AcDbLine
 10
99.604872
 20
140.779365
 30
0.0
 11
99.604872
 21
145.779365
 31
0.0
  0
LINE
  5
1FC
100
AcDbEntity
  8
1
390
0
  6
DOT
 62
     9
100
AcDbLine
 10
99.004872
 20
145.779365
 30
0.0
 11
99.004872
 21
140.779365
 31
0.0
  0
LINE
  5
1FD
100
AcDbEntity
  8
1
390
0
  6
DOT
 62
     9
100
AcDbLine
 10
133.604872
 20
140.779365
 30
0.0
 11
133.604872
 21
145.779365
 31
0.0
  0
LINE
  5
1FE
100
AcDbEntity
  8
1
390
0
  6
DOT
 62
     9
100
AcDbLine
 10
133.004872
 20
145.779365
 30
0.0
 11
133.004872
 21
140.779365
 31
0.0
  0
LINE
  5
1FF
100
AcDbEntity
  8
1
390
0
  6
DOT
 62
     9
100
AcDbLine
 10
147.604872
 20
140.779365
 30
0.0
 11
147.604872
 21
145.779365
 31
0.0
  0
LINE
  5
200
100
AcDbEntity
  8
1
390
0
  6
DOT
 62
     9
100
AcDbLine
 10
147.004872
 20
145.779365
 30
0.0
 11
147.004872
 21
140.779365
 31
0.0
  0
LINE
  5
201
100
AcDbEntity
  8
1
390
0
  6
DOT
 62
     9
100
AcDbLine
 10
113.604872
 20
140.779365
 30
0.0
 11
113.604872
 21
145.779365
 31
0.0
  0
LINE
  5
202
100
AcDbEntity
  8
1
390
0
  6
DOT
 62
     9
100
AcDbLine
 10
113.004872
 20
145.779365
 30
0.0
 11
113.004872
 21
140.779365
 31
0.0
  0
LINE
  5
203
100
AcDbEntity
  8
1
390
0
  6
DOT
 62
     9
100
AcDbLine
 10
123.93234
 20
181.379365
 30
0.0
 11
123.93234
 21
177.379365
 31
0.0
  0
LINE
  5
204
100
AcDbEntity
  8
1
390
0
  6
DOT
 62
     9
100
AcDbLine
 10
124.93234
 20
177.379365
 30
0.0
 11
124.93234
 21
181.379365
 31
0.0
  0
LINE
  5
205
100
AcDbEntity
  8
1
390
0
  6
DOT
 62
     9
100
AcDbLine
 10
120.291764
 20
181.379365
 30
0.0
 11
120.291764
 21
177.379365
 31
0.0
  0
LINE
  5
206
100
AcDbEntity
  8
1
390
0
  6
DOT
 62
     9
100
AcDbLine
 10
121.291764
 20
177.379365
 30
0.0
 11
121.291764
 21
181.379365
 31
0.0
  0
LINE
  5
207
100
AcDbEntity
  8
1
390
0
  6
DOT
 62
     9
100
AcDbLine
 10
122.112052
 20
181.379365
 30
0.0
 11
122.112052
 21
177.379365
 31
0.0
  0
LINE
  5
208
100
AcDbEntity
  8
1
390
0
  6
DOT
 62
     9
100
AcDbLine
 10
123.112052
 20
177.379365
 30
0.0
 11
123.112052
 21
181.379365
 31
0.0
  0
LINE
  5
209
100
AcDbEntity
  8
1
390
0
  6
DOT
 62
     9
100
AcDbLine
 10
121.112052
 20
181.379365
 30
0.0
 11
121.112052
 21
177.379365
 31
0.0
  0
LINE
  5
20A
100
AcDbEntity
  8
1
390
0
  6
DOT
 62
     9
100
AcDbLine
 10
124.362052
 20
181.379365
 30
0.0
 11
124.362052
 21
177.379365
 31
0.0
  0
LINE
  5
20B
100
AcDbEntity
  8
1
390
0
  6
DOT
 62
     9
100
AcDbLine
 10
125.362052
 20
177.379365
 30
0.0
 11
125.362052
 21
181.379365
 31
0.0
  0
LINE
  5
20C
100
AcDbEntity
  8
1
390
0
  6
DOT
 62
     9
100
AcDbLine
 10
124.112052
 20
177.379365
 30
0.0
 11
124.112052
 21
181.379365
 31
0.0
  0
LINE
  5
20D
100
AcDbEntity
  8
1
390
0
  6
DOT
 62
     9
100
AcDbLine
 10
119.862052
 20
181.379365
 30
0.0
 11
119.862052
 21
177.379365
 31
0.0
  0
LINE
  5
20E
100
AcDbEntity
  8
1
390
0
  6
DOT
 62
     9
100
AcDbLine
 10
120.862052
 20
177.379365
 30
0.0
 11
120.862052
 21
181.379365
 31
0.0
  0
LINE
  5
20F
100
AcDbEntity
  8
1
390
0
  6
Continuous
 62
     7
100
AcDbLine
 10
102.862052
 20
140.779365
 30
0.0
 11
102.936177
 21
139.932116
 31
0.0
  0
LINE
  5
210
100
AcDbEntity
  8
1
390
0
  6
Continuous
 62
     7
100
AcDbLine
 10
108.287927
 20
139.932116
 30
0.0
 11
108.362052
 21
140.779365
 31
0.0
  0
LINE
  5
211
100
AcDbEntity
  8
1
390
0
  6
Continuous
 62
     7
100
AcDbLine
 10
136.862052
 20
140.779365
 30
0.0
 11
136.936177
 21
139.932116
 31
0.0
  0
LINE
  5
212
100
AcDbEntity
  8
1
390
0
  6
Continuous
 62
     7
100
AcDbLine
 10
142.287927
 20
139.932116
 30
0.0
 11
142.362052
 21
140.779365
 31
0.0
  0
ARC
  5
213
100
AcDbEntity
  8
1
390
0
  6
Continuous
 62
     7
100
AcDbCircle
 10
103.932371
 20
140.019272
 30
0.0
 40
1.0
210
0.0
220
0.0
230
1.0
100
AcDbArc
 50
185.0
 51
253.742972
  0
ARC
  5
214
100
AcDbEntity
  8
1
390
0
  6
Continuous
 62
     7
100
AcDbCircle
 10
107.291733
 20
140.019272
 30
0.0
 40
1.0
210
0.0
220
0.0
230
1.0
100
AcDbArc
 50
286.257028
 51
355.0
  0
ARC
  5
215
100
AcDbEntity
  8
1
390
0
  6
Continuous
 62
     7
100
AcDbCircle
 10
137.932371
 20
140.019272
 30
0.0
 40
1.0
210
0.0
220
0.0
230
1.0
100
AcDbArc
 50
185.0
 51
253.742972
  0
ARC
  5
216
100
AcDbEntity
  8
1
390
0
  6
Continuous
 62
     7
100
AcDbCircle
 10
141.291733
 20
140.019272
 30
0.0
 40
1.0
210
0.0
220
0.0
230
1.0
100
AcDbArc
 50
286.257028
 51
355.0
  0
LINE
  5
217
100
AcDbEntity
  8
1
390
0
  6
Continuous
 62
     7
100
AcDbLine
 10
168.812052
 20
144.379365
 30
0.0
 11
169.612052
 21
145.179365
 31
0.0
  0
LINE
  5
218
100
AcDbEntity
  8
1
390
0
  6
Continuous
 62
     7
100
AcDbLine
 10
169.612052
 20
147.579365
 30
0.0
 11
168.812052
 21
148.379365
 31
0.0
  0
LINE
  5
219
100
AcDbEntity
  8
1
390
0
  6
Continuous
 62
     7
100
AcDbLine
 10
76.412052
 20
148.379365
 30
0.0
 11
75.612052
 21
147.579365
 31
0.0
  0
LINE
  5
21A
100
AcDbEntity
  8
1
390
0
  6
Continuous
 62
     7
100
AcDbLine
 10
75.612052
 20
145.179365
 30
0.0
 11
76.412052
 21
144.379365
 31
0.0
  0
LINE
  5
21B
100
AcDbEntity
  8
1
390
0
  6
Continuous
 62
     7
100
AcDbLine
 10
168.612052
 20
144.379365
 30
0.0
 11
168.812052
 21
144.379365
 31
0.0
  0
LINE
  5
21C
100
AcDbEntity
  8
1
390
0
  6
Continuous
 62
     7
100
AcDbLine
 10
168.812052
 20
148.379365
 30
0.0
 11
168.612052
 21
148.379365
 31
0.0
  0
LINE
  5
21D
100
AcDbEntity
  8
1
390
0
  6
Continuous
 62
     7
100
AcDbLine
 10
76.612052
 20
148.379365
 30
0.0
 11
76.412052
 21
148.379365
 31
0.0
  0
LINE
  5
21E
100
AcDbEntity
  8
1
390
0
  6
Continuous
 62
     7
100
AcDbLine
 10
76.412052
 20
144.379365
 30
0.0
 11
76.612052
 21
144.379365
 31
0.0
  0
LINE
  5
21F
100
AcDbEntity
  8
1
390
0
  6
Continuous
 62
     7
100
AcDbLine
 10
76.612052
 20
175.379365
 30
0.0
 11
76.412052
 21
175.379365
 31
0.0
  0
LINE
  5
220
100
AcDbEntity
  8
1
390
0
  6
Continuous
 62
     7
100
AcDbLine
 10
76.412052
 20
171.379365
 30
0.0
 11
76.612052
 21
171.379365
 31
0.0
  0
LINE
  5
221
100
AcDbEntity
  8
1
390
0
  6
Continuous
 62
     7
100
AcDbLine
 10
168.812052
 20
171.379365
 30
0.0
 11
169.612052
 21
172.179365
 31
0.0
  0
LINE
  5
222
100
AcDbEntity
  8
1
390
0
  6
Continuous
 62
     7
100
AcDbLine
 10
169.612052
 20
174.579365
 30
0.0
 11
168.812052
 21
175.379365
 31
0.0
  0
LINE
  5
223
100
AcDbEntity
  8
1
390
0
  6
Continuous
 62
     7
100
AcDbLine
 10
168.612052
 20
171.379365
 30
0.0
 11
168.812052
 21
171.379365
 31
0.0
  0
LINE
  5
224
100
AcDbEntity
  8
1
390
0
  6
Continuous
 62
     7
100
AcDbLine
 10
168.812052
 20
175.379365
 30
0.0
 11
168.612052
 21
175.379365
 31
0.0
  0
LINE
  5
225
100
AcDbEntity
  8
1
390
0
  6
Continuous
 62
     7
100
AcDbLine
 10
76.412052
 20
175.379365
 30
0.0
 11
75.612052
 21
174.579365
 31
0.0
  0
LINE
  5
226
100
AcDbEntity
  8
1
390
0
  6
Continuous
 62
     7
100
AcDbLine
 10
75.612052
 20
172.179365
 30
0.0
 11
76.412052
 21
171.379365
 31
0.0
  0
LINE
  5
227
100
AcDbEntity
  8
1
390
0
  6
Continuous
 62
     7
100
AcDbLine
 10
123.862052
 20
232.091146
 30
0.0
 11
123.862052
 21
233.249916
 31
0.0
  0
ARC
  5
228
100
AcDbEntity
  8
1
390
0
  6
Continuous
 62
     7
100
AcDbCircle
 10
122.612052
 20
238.091146
 30
0.0
 40
5.0
210
0.0
220
0.0
230
1.0
100
AcDbArc
 50
284.477512
 51
255.522488
  0
LINE
  5
229
100
AcDbEntity
  8
1
390
0
  6
Continuous
 62
     7
100
AcDbLine
 10
121.362052
 20
232.091146
 30
0.0
 11
123.862052
 21
232.091146
 31
0.0
  0
LINE
  5
22A
100
AcDbEntity
  8
1
390
0
  6
Continuous
 62
     7
100
AcDbLine
 10
121.362052
 20
233.249916
 30
0.0
 11
121.362052
 21
232.091146
 31
0.0
  0
ARC
  5
22B
100
AcDbEntity
  8
1
390
0
  6
Continuous
 62
     7
100
AcDbCircle
 10
122.612052
 20
238.091146
 30
0.0
 40
6.75
210
0.0
220
0.0
230
1.0
100
AcDbArc
 50
90.0
 51
270.0
  0
ARC
  5
22C
100
AcDbEntity
  8
1
390
0
  6
Continuous
 62
     7
100
AcDbCircle
 10
122.612052
 20
238.091146
 30
0.0
 40
6.75
210
0.0
220
0.0
230
1.0
100
AcDbArc
 50
270.0
 51
90.0
  0
CIRCLE
  5
22D
100
AcDbEntity
  8
1
390
0
  6
Continuous
 62
     7
100
AcDbCircle
 10
123.30734
 20
240.231023
 30
0.0
 40
0.5
210
0.0
220
0.0
230
1.0
  0
CIRCLE
  5
22E
100
AcDbEntity
  8
1
390
0
  6
Continuous
 62
     7
100
AcDbCircle
 10
124.43234
 20
239.413662
 30
0.0
 40
0.5
210
0.0
220
0.0
230
1.0
  0
CIRCLE
  5
22F
100
AcDbEntity
  8
1
390
0
  6
Continuous
 62
     7
100
AcDbCircle
 10
124.862052
 20
238.091146
 30
0.0
 40
0.5
210
0.0
220
0.0
230
1.0
  0
CIRCLE
  5
230
100
AcDbEntity
  8
1
390
0
  6
Continuous
 62
     7
100
AcDbCircle
 10
124.43234
 20
236.768629
 30
0.0
 40
0.5
210
0.0
220
0.0
230
1.0
  0
CIRCLE
  5
231
100
AcDbEntity
  8
1
390
0
  6
Continuous
 62
     7
100
AcDbCircle
 10
123.30734
 20
235.951268
 30
0.0
 40
0.5
210
0.0
220
0.0
230
1.0
  0
CIRCLE
  5
232
100
AcDbEntity
  8
1
390
0
  6
Continuous
 62
     7
100
AcDbCircle
 10
121.916764
 20
235.951268
 30
0.0
 40
0.5
210
0.0
220
0.0
230
1.0
  0
CIRCLE
  5
233
100
AcDbEntity
  8
1
390
0
  6
Continuous
 62
     7
100
AcDbCircle
 10
120.791764
 20
236.768629
 30
0.0
 40
0.5
210
0.0
220
0.0
230
1.0
  0
CIRCLE
  5
234
100
AcDbEntity
  8
1
390
0
  6
Continuous
 62
     7
100
AcDbCircle
 10
123.612052
 20
238.091146
 30
0.0
 40
0.5
210
0.0
220
0.0
230
1.0
  0
CIRCLE
  5
235
100
AcDbEntity
  8
1
390
0
  6
Continuous
 62
     7
100
AcDbCircle
 10
121.612052
 20
238.091146
 30
0.0
 40
0.5
210
0.0
220
0.0
230
1.0
  0
CIRCLE
  5
236
100
AcDbEntity
  8
1
390
0
  6
Continuous
 62
     7
100
AcDbCircle
 10
122.612052
 20
239.091146
 30
0.0
 40
0.5
210
0.0
220
0.0
230
1.0
  0
CIRCLE
  5
237
100
AcDbEntity
  8
1
390
0
  6
Continuous
 62
     7
100
AcDbCircle
 10
121.916764
 20
240.231023
 30
0.0
 40
0.5
210
0.0
220
0.0
230
1.0
  0
CIRCLE
  5
238
100
AcDbEntity
  8
1
390
0
  6
Continuous
 62
     7
100
AcDbCircle
 10
120.791764
 20
239.413662
 30
0.0
 40
0.5
210
0.0
220
0.0
230
1.0
  0
CIRCLE
  5
239
100
AcDbEntity
  8
1
390
0
  6
Continuous
 62
     7
100
AcDbCircle
 10
120.362052
 20
238.091146
 30
0.0
 40
0.5
210
0.0
220
0.0
230
1.0
  0
CIRCLE
  5
23A
100
AcDbEntity
  8
1
390
0
  6
Continuous
 62
     7
100
AcDbCircle
 10
122.612052
 20
238.091146
 30
0.0
 40
2.8
210
0.0
220
0.0
230
0.9999999999999999
  0
CIRCLE
  5
23B
100
AcDbEntity
  8
1
390
0
  6
Continuous
 62
     7
100
AcDbCircle
 10
122.612052
 20
237.091146
 30
0.0
 40
0.5
210
0.0
220
0.0
230
1.0
  0
CIRCLE
  5
23C
100
AcDbEntity
  8
1
390
0
  6
Continuous
 62
     7
100
AcDbCircle
 10
122.612052
 20
238.091146
 30
0.0
 40
3.0
210
0.0
220
0.0
230
1.0
  0
ARC
  5
23D
100
AcDbEntity
  8
1
390
0
  6
Continuous
 62
     7
100
AcDbCircle
 10
122.612052
 20
238.091146
 30
0.0
 40
9.25
210
0.0
220
0.0
230
1.0
100
AcDbArc
 50
90.0
 51
270.0
  0
ARC
  5
23E
100
AcDbEntity
  8
1
390
0
  6
Continuous
 62
     7
100
AcDbCircle
 10
122.612052
 20
238.091146
 30
0.0
 40
9.25
210
0.0
220
0.0
230
1.0
100
AcDbArc
 50
270.0
 51
90.0
  0
LINE
  5
23F
100
AcDbEntity
  8
1
390
0
  6
Continuous
 62
     7
100
AcDbLine
 10
63.112052
 20
251.591146
 30
0.0
 11
63.112052
 21
250.091146
 31
0.0
  0
LINE
  5
240
100
AcDbEntity
  8
1
390
0
  6
Continuous
 62
     7
100
AcDbLine
 10
63.112052
 20
250.091146
 30
0.0
 11
65.112052
 21
250.091146
 31
0.0
  0
LINE
  5
241
100
AcDbEntity
  8
1
390
0
  6
Continuous
 62
     7
100
AcDbLine
 10
63.112052
 20
251.591146
 30
0.0
 11
65.112052
 21
251.591146
 31
0.0
  0
LINE
  5
242
100
AcDbEntity
  8
1
390
0
  6
Continuous
 62
     7
100
AcDbLine
 10
65.112052
 20
250.091146
 30
0.0
 11
180.112052
 21
250.091146
 31
0.0
  0
LINE
  5
243
100
AcDbEntity
  8
1
390
0
  6
Continuous
 62
     7
100
AcDbLine
 10
65.112052
 20
251.591146
 30
0.0
 11
180.112052
 21
251.591146
 31
0.0
  0
LINE
  5
244
100
AcDbEntity
  8
1
390
0
  6
Continuous
 62
     7
100
AcDbLine
 10
182.112052
 20
251.591146
 30
0.0
 11
182.112052
 21
250.091146
 31
0.0
  0
LINE
  5
245
100
AcDbEntity
  8
1
390
0
  6
Continuous
 62
     7
100
AcDbLine
 10
180.112052
 20
250.091146
 30
0.0
 11
182.112052
 21
250.091146
 31
0.0
  0
LINE
  5
246
100
AcDbEntity
  8
1
390
0
  6
Continuous
 62
     7
100
AcDbLine
 10
180.112052
 20
251.591146
 30
0.0
 11
182.112052
 21
251.591146
 31
0.0
  0
LINE
  5
247
100
AcDbEntity
  8
1
390
0
  6
Continuous
 62
     7
100
AcDbLine
 10
167.612052
 20
249.891146
 30
0.0
 11
77.612052
 21
249.891146
 31
0.0
  0
LINE
  5
248
100
AcDbEntity
  8
1
390
0
  6
Continuous
 62
     7
100
AcDbLine
 10
168.412052
 20
250.091146
 30
0.0
 11
168.612052
 21
249.891146
 31
0.0
  0
LINE
  5
249
100
AcDbEntity
  8
1
390
0
  6
Continuous
 62
     7
100
AcDbLine
 10
168.612052
 20
249.891146
 30
0.0
 11
168.612052
 21
227.091146
 31
0.0
  0
ARC
  5
24A
100
AcDbEntity
  8
1
390
0
  6
Continuous
 62
     7
100
AcDbCircle
 10
167.612052
 20
250.891146
 30
0.0
 40
1.0
210
0.0
220
0.0
230
1.0
100
AcDbArc
 50
270.0
 51
306.869898
  0
ARC
  5
24B
100
AcDbEntity
  8
1
390
0
  6
Continuous
 62
     7
100
AcDbCircle
 10
77.612052
 20
227.091146
 30
0.0
 40
1.0
210
0.0
220
0.0
230
1.0
100
AcDbArc
 50
180.0
 51
270.0
  0
ARC
  5
24C
100
AcDbEntity
  8
1
390
0
  6
Continuous
 62
     7
100
AcDbCircle
 10
77.612052
 20
250.891146
 30
0.0
 40
1.0
210
0.0
220
0.0
230
1.0
100
AcDbArc
 50
233.130102
 51
270.0
  0
LINE
  5
24D
100
AcDbEntity
  8
1
390
0
  6
Continuous
 62
     7
100
AcDbLine
 10
76.612052
 20
227.091146
 30
0.0
 11
76.612052
 21
249.891146
 31
0.0
  0
LINE
  5
24E
100
AcDbEntity
  8
1
390
0
  6
Continuous
 62
     7
100
AcDbLine
 10
76.612052
 20
249.891146
 30
0.0
 11
76.812052
 21
250.091146
 31
0.0
  0
LINE
  5
24F
100
AcDbEntity
  8
1
390
0
  6
Continuous
 62
     7
100
AcDbLine
 10
167.612052
 20
226.091146
 30
0.0
 11
77.612052
 21
226.091146
 31
0.0
  0
ARC
  5
250
100
AcDbEntity
  8
1
390
0
  6
Continuous
 62
     7
100
AcDbCircle
 10
167.612052
 20
227.091146
 30
0.0
 40
1.0
210
0.0
220
0.0
230
1.0
100
AcDbArc
 50
270.0
 51
360.0
  0
LINE
  5
251
100
AcDbEntity
  8
1
390
0
  6
Continuous
 62
     7
100
AcDbLine
 10
76.412052
 20
246.091146
 30
0.0
 11
76.412052
 21
242.091146
 31
0.0
  0
LINE
  5
252
100
AcDbEntity
  8
1
390
0
  6
Continuous
 62
     7
100
AcDbLine
 10
169.612052
 20
245.291146
 30
0.0
 11
169.612052
 21
242.891146
 31
0.0
  0
LINE
  5
253
100
AcDbEntity
  8
1
390
0
  6
Continuous
 62
     7
100
AcDbLine
 10
168.812052
 20
246.091146
 30
0.0
 11
168.812052
 21
242.091146
 31
0.0
  0
LINE
  5
254
100
AcDbEntity
  8
1
390
0
  6
Continuous
 62
     7
100
AcDbLine
 10
75.612052
 20
245.291146
 30
0.0
 11
75.612052
 21
242.891146
 31
0.0
  0
LINE
  5
255
100
AcDbEntity
  8
1
390
0
  6
Continuous
 62
     7
100
AcDbLine
 10
165.112052
 20
225.991146
 30
0.0
 11
165.112052
 21
226.091146
 31
0.0
  0
LINE
  5
256
100
AcDbEntity
  8
1
390
0
  6
Continuous
 62
     7
100
AcDbLine
 10
80.112052
 20
225.991146
 30
0.0
 11
165.112052
 21
225.991146
 31
0.0
  0
LINE
  5
257
100
AcDbEntity
  8
1
390
0
  6
Continuous
 62
     7
100
AcDbLine
 10
80.112052
 20
225.991146
 30
0.0
 11
80.112052
 21
226.091146
 31
0.0
  0
LINE
  5
258
100
AcDbEntity
  8
1
390
0
  6
DOT
 62
     9
100
AcDbLine
 10
75.612052
 20
243.791146
 30
0.0
 11
76.112052
 21
243.791146
 31
0.0
  0
LINE
  5
259
100
AcDbEntity
  8
1
390
0
  6
DOT
 62
     9
100
AcDbLine
 10
75.612052
 20
244.391146
 30
0.0
 11
76.112052
 21
244.391146
 31
0.0
  0
LINE
  5
25A
100
AcDbEntity
  8
1
390
0
  6
DOT
 62
     9
100
AcDbLine
 10
76.112052
 20
243.791146
 30
0.0
 11
76.112052
 21
244.391146
 31
0.0
  0
LINE
  5
25B
100
AcDbEntity
  8
1
390
0
  6
DOT
 62
     9
100
AcDbLine
 10
169.112052
 20
243.791146
 30
0.0
 11
169.112052
 21
244.391146
 31
0.0
  0
LINE
  5
25C
100
AcDbEntity
  8
1
390
0
  6
DOT
 62
     9
100
AcDbLine
 10
169.612052
 20
244.391146
 30
0.0
 11
169.112052
 21
244.391146
 31
0.0
  0
LINE
  5
25D
100
AcDbEntity
  8
1
390
0
  6
DOT
 62
     9
100
AcDbLine
 10
169.612052
 20
243.791146
 30
0.0
 11
169.112052
 21
243.791146
 31
0.0
  0
LINE
  5
25E
100
AcDbEntity
  8
1
390
0
  6
DOT
 62
     9
100
AcDbLine
 10
76.112052
 20
244.591146
 30
0.0
 11
76.112052
 21
244.391146
 31
0.0
  0
LINE
  5
25F
100
AcDbEntity
  8
1
390
0
  6
DOT
 62
     9
100
AcDbLine
 10
169.112052
 20
244.591146
 30
0.0
 11
169.112052
 21
244.391146
 31
0.0
  0
LINE
  5
260
100
AcDbEntity
  8
1
390
0
  6
DOT
 62
     9
100
AcDbLine
 10
76.112052
 20
243.791146
 30
0.0
 11
76.112052
 21
243.591146
 31
0.0
  0
LINE
  5
261
100
AcDbEntity
  8
1
390
0
  6
DOT
 62
     9
100
AcDbLine
 10
169.112052
 20
243.791146
 30
0.0
 11
169.112052
 21
243.591146
 31
0.0
  0
LINE
  5
262
100
AcDbEntity
  8
1
390
0
  6
DOT
 62
     9
100
AcDbLine
 10
169.112052
 20
244.591146
 30
0.0
 11
169.112052
 21
245.091146
 31
0.0
  0
LINE
  5
263
100
AcDbEntity
  8
1
390
0
  6
DOT
 62
     9
100
AcDbLine
 10
169.612052
 20
245.091146
 30
0.0
 11
169.112052
 21
245.091146
 31
0.0
  0
LINE
  5
264
100
AcDbEntity
  8
1
390
0
  6
DOT
 62
     9
100
AcDbLine
 10
169.612052
 20
243.091146
 30
0.0
 11
169.112052
 21
243.091146
 31
0.0
  0
LINE
  5
265
100
AcDbEntity
  8
1
390
0
  6
DOT
 62
     9
100
AcDbLine
 10
169.112052
 20
243.091146
 30
0.0
 11
169.112052
 21
243.591146
 31
0.0
  0
LINE
  5
266
100
AcDbEntity
  8
1
390
0
  6
DOT
 62
     9
100
AcDbLine
 10
75.612052
 20
245.091146
 30
0.0
 11
76.112052
 21
245.091146
 31
0.0
  0
LINE
  5
267
100
AcDbEntity
  8
1
390
0
  6
DOT
 62
     9
100
AcDbLine
 10
76.112052
 20
244.591146
 30
0.0
 11
76.112052
 21
245.091146
 31
0.0
  0
LINE
  5
268
100
AcDbEntity
  8
1
390
0
  6
DOT
 62
     9
100
AcDbLine
 10
75.612052
 20
243.091146
 30
0.0
 11
76.112052
 21
243.091146
 31
0.0
  0
LINE
  5
269
100
AcDbEntity
  8
1
390
0
  6
DOT
 62
     9
100
AcDbLine
 10
76.112052
 20
243.091146
 30
0.0
 11
76.112052
 21
243.591146
 31
0.0
  0
ARC
  5
26A
100
AcDbEntity
  8
1
390
0
  6
DOT
 62
     9
100
AcDbCircle
 10
112.612052
 20
236.091146
 30
0.0
 40
2.75
210
0.0
220
0.0
230
0.9999999999999999
100
AcDbArc
 50
263.737087
 51
276.262913
  0
ARC
  5
26B
100
AcDbEntity
  8
1
390
0
  6
DOT
 62
     9
100
AcDbCircle
 10
132.612052
 20
236.091146
 30
0.0
 40
2.75
210
0.0
220
0.0
230
1.0
100
AcDbArc
 50
263.737087
 51
276.262913
  0
ARC
  5
26C
100
AcDbEntity
  8
1
390
0
  6
DOT
 62
     9
100
AcDbCircle
 10
98.612052
 20
236.091146
 30
0.0
 40
2.75
210
0.0
220
0.0
230
0.9999999999999999
100
AcDbArc
 50
263.737087
 51
276.262913
  0
LINE
  5
26D
100
AcDbEntity
  8
1
390
0
  6
DOT
 62
     9
100
AcDbLine
 10
98.912052
 20
233.357558
 30
0.0
 11
98.912052
 21
233.609211
 31
0.0
  0
LINE
  5
26E
100
AcDbEntity
  8
1
390
0
  6
DOT
 62
     9
100
AcDbLine
 10
146.912052
 20
233.357558
 30
0.0
 11
146.912052
 21
233.609211
 31
0.0
  0
LINE
  5
26F
100
AcDbEntity
  8
1
390
0
  6
DOT
 62
     9
100
AcDbLine
 10
112.912052
 20
233.357558
 30
0.0
 11
112.912052
 21
233.609211
 31
0.0
  0
LINE
  5
270
100
AcDbEntity
  8
1
390
0
  6
DOT
 62
     9
100
AcDbLine
 10
132.912052
 20
233.357558
 30
0.0
 11
132.912052
 21
233.609211
 31
0.0
  0
ARC
  5
271
100
AcDbEntity
  8
1
390
0
  6
DOT
 62
     9
100
AcDbCircle
 10
146.612052
 20
236.091146
 30
0.0
 40
2.75
210
0.0
220
0.0
230
1.0
100
AcDbArc
 50
263.737087
 51
276.262913
  0
ARC
  5
272
100
AcDbEntity
  8
1
390
0
  6
DOT
 62
     9
100
AcDbCircle
 10
112.612052
 20
236.091146
 30
0.0
 40
2.5
210
0.0
220
0.0
230
1.0
100
AcDbArc
 50
276.892103
 51
263.107897
  0
ARC
  5
273
100
AcDbEntity
  8
1
390
0
  6
DOT
 62
     9
100
AcDbCircle
 10
98.612052
 20
236.091146
 30
0.0
 40
2.5
210
0.0
220
0.0
230
1.0
100
AcDbArc
 50
276.892103
 51
263.107897
  0
ARC
  5
274
100
AcDbEntity
  8
1
390
0
  6
DOT
 62
     9
100
AcDbCircle
 10
132.612052
 20
236.091146
 30
0.0
 40
2.5
210
0.0
220
0.0
230
1.0
100
AcDbArc
 50
276.892103
 51
263.107897
  0
CIRCLE
  5
275
100
AcDbEntity
  8
1
390
0
  6
DOT
 62
     9
100
AcDbCircle
 10
112.612052
 20
236.091146
 30
0.0
 40
1.5
210
0.0
220
0.0
230
1.0
  0
CIRCLE
  5
276
100
AcDbEntity
  8
1
390
0
  6
DOT
 62
     9
100
AcDbCircle
 10
146.612052
 20
236.091146
 30
0.0
 40
1.5
210
0.0
220
0.0
230
1.0
  0
CIRCLE
  5
277
100
AcDbEntity
  8
1
390
0
  6
DOT
 62
     9
100
AcDbCircle
 10
132.612052
 20
236.091146
 30
0.0
 40
1.5
210
0.0
220
0.0
230
1.0
  0
ARC
  5
278
100
AcDbEntity
  8
1
390
0
  6
DOT
 62
     9
100
AcDbCircle
 10
146.612052
 20
236.091146
 30
0.0
 40
2.5
210
0.0
220
0.0
230
1.0
100
AcDbArc
 50
276.892103
 51
263.107897
  0
CIRCLE
  5
279
100
AcDbEntity
  8
1
390
0
  6
DOT
 62
     9
100
AcDbCircle
 10
98.612052
 20
236.091146
 30
0.0
 40
1.5
210
0.0
220
0.0
230
1.0
  0
CIRCLE
  5
27A
100
AcDbEntity
  8
1
390
0
  6
DOT
 62
     9
100
AcDbCircle
 10
131.919232
 20
236.491146
 30
0.0
 40
0.3
210
0.0
220
0.0
230
1.0
  0
CIRCLE
  5
27B
100
AcDbEntity
  8
1
390
0
  6
DOT
 62
     9
100
AcDbCircle
 10
133.304872
 20
236.491146
 30
0.0
 40
0.3
210
0.0
220
0.0
230
1.0
  0
CIRCLE
  5
27C
100
AcDbEntity
  8
1
390
0
  6
DOT
 62
     9
100
AcDbCircle
 10
147.304872
 20
236.491146
 30
0.0
 40
0.3
210
0.0
220
0.0
230
1.0
  0
CIRCLE
  5
27D
100
AcDbEntity
  8
1
390
0
  6
DOT
 62
     9
100
AcDbCircle
 10
111.919232
 20
236.491146
 30
0.0
 40
0.3
210
0.0
220
0.0
230
1.0
  0
CIRCLE
  5
27E
100
AcDbEntity
  8
1
390
0
  6
DOT
 62
     9
100
AcDbCircle
 10
146.612052
 20
235.291146
 30
0.0
 40
0.3
210
0.0
220
0.0
230
1.0
  0
CIRCLE
  5
27F
100
AcDbEntity
  8
1
390
0
  6
DOT
 62
     9
100
AcDbCircle
 10
113.304872
 20
236.491146
 30
0.0
 40
0.3
210
0.0
220
0.0
230
1.0
  0
LINE
  5
280
100
AcDbEntity
  8
1
390
0
  6
DOT
 62
     9
100
AcDbLine
 10
132.312052
 20
233.609211
 30
0.0
 11
132.312052
 21
233.357558
 31
0.0
  0
CIRCLE
  5
281
100
AcDbEntity
  8
1
390
0
  6
DOT
 62
     9
100
AcDbCircle
 10
98.612052
 20
235.291146
 30
0.0
 40
0.3
210
0.0
220
0.0
230
1.0
  0
CIRCLE
  5
282
100
AcDbEntity
  8
1
390
0
  6
DOT
 62
     9
100
AcDbCircle
 10
97.919232
 20
236.491146
 30
0.0
 40
0.3
210
0.0
220
0.0
230
1.0
  0
LINE
  5
283
100
AcDbEntity
  8
1
390
0
  6
DOT
 62
     9
100
AcDbLine
 10
146.312052
 20
233.609211
 30
0.0
 11
146.312052
 21
233.357558
 31
0.0
  0
CIRCLE
  5
284
100
AcDbEntity
  8
1
390
0
  6
DOT
 62
     9
100
AcDbCircle
 10
145.919232
 20
236.491146
 30
0.0
 40
0.3
210
0.0
220
0.0
230
1.0
  0
LINE
  5
285
100
AcDbEntity
  8
1
390
0
  6
DOT
 62
     9
100
AcDbLine
 10
112.312052
 20
233.609211
 30
0.0
 11
112.312052
 21
233.357558
 31
0.0
  0
CIRCLE
  5
286
100
AcDbEntity
  8
1
390
0
  6
DOT
 62
     9
100
AcDbCircle
 10
112.612052
 20
235.291146
 30
0.0
 40
0.3
210
0.0
220
0.0
230
1.0
  0
CIRCLE
  5
287
100
AcDbEntity
  8
1
390
0
  6
DOT
 62
     9
100
AcDbCircle
 10
132.612052
 20
235.291146
 30
0.0
 40
0.3
210
0.0
220
0.0
230
1.0
  0
CIRCLE
  5
288
100
AcDbEntity
  8
1
390
0
  6
DOT
 62
     9
100
AcDbCircle
 10
99.304872
 20
236.491146
 30
0.0
 40
0.3
210
0.0
220
0.0
230
1.0
  0
LINE
  5
289
100
AcDbEntity
  8
1
390
0
  6
DOT
 62
     9
100
AcDbLine
 10
98.312052
 20
233.609211
 30
0.0
 11
98.312052
 21
233.357558
 31
0.0
  0
LINE
  5
28A
100
AcDbEntity
  8
1
390
0
  6
DOT
 62
     9
100
AcDbLine
 10
162.612052
 20
248.091146
 30
0.0
 11
82.612052
 21
248.091146
 31
0.0
  0
ARC
  5
28B
100
AcDbEntity
  8
1
390
0
  6
DOT
 62
     9
100
AcDbCircle
 10
82.612052
 20
229.091146
 30
0.0
 40
1.0
210
0.0
220
0.0
230
1.0
100
AcDbArc
 50
180.0
 51
270.0
  0
ARC
  5
28C
100
AcDbEntity
  8
1
390
0
  6
DOT
 62
     9
100
AcDbCircle
 10
162.612052
 20
247.091146
 30
0.0
 40
1.0
210
0.0
220
0.0
230
1.0
100
AcDbArc
 50
0.0
 51
90.0
  0
LINE
  5
28D
100
AcDbEntity
  8
1
390
0
  6
DOT
 62
     9
100
AcDbLine
 10
81.612052
 20
247.091146
 30
0.0
 11
81.612052
 21
229.091146
 31
0.0
  0
ARC
  5
28E
100
AcDbEntity
  8
1
390
0
  6
DOT
 62
     9
100
AcDbCircle
 10
162.612052
 20
229.091146
 30
0.0
 40
1.0
210
0.0
220
0.0
230
1.0
100
AcDbArc
 50
270.0
 51
360.0
  0
LINE
  5
28F
100
AcDbEntity
  8
1
390
0
  6
DOT
 62
     9
100
AcDbLine
 10
82.612052
 20
228.091146
 30
0.0
 11
162.612052
 21
228.091146
 31
0.0
  0
ARC
  5
290
100
AcDbEntity
  8
1
390
0
  6
DOT
 62
     9
100
AcDbCircle
 10
82.612052
 20
247.091146
 30
0.0
 40
1.0
210
0.0
220
0.0
230
1.0
100
AcDbArc
 50
90.0
 51
180.0
  0
LINE
  5
291
100
AcDbEntity
  8
1
390
0
  6
DOT
 62
     9
100
AcDbLine
 10
163.612052
 20
229.091146
 30
0.0
 11
163.612052
 21
247.091146
 31
0.0
  0
CIRCLE
  5
292
100
AcDbEntity
  8
1
390
0
  6
DOT
 62
     9
100
AcDbCircle
 10
132.612052
 20
236.091146
 30
0.0
 40
1.3
210
0.0
220
0.0
230
1.0
  0
CIRCLE
  5
293
100
AcDbEntity
  8
1
390
0
  6
DOT
 62
     9
100
AcDbCircle
 10
146.612052
 20
236.091146
 30
0.0
 40
1.3
210
0.0
220
0.0
230
1.0
  0
CIRCLE
  5
294
100
AcDbEntity
  8
1
390
0
  6
DOT
 62
     9
100
AcDbCircle
 10
98.612052
 20
236.091146
 30
0.0
 40
1.3
210
0.0
220
0.0
230
1.0
  0
CIRCLE
  5
295
100
AcDbEntity
  8
1
390
0
  6
DOT
 62
     9
100
AcDbCircle
 10
112.612052
 20
236.091146
 30
0.0
 40
1.3
210
0.0
220
0.0
230
1.0
  0
CIRCLE
  5
296
100
AcDbEntity
  8
1
390
0
  6
DOT
 62
     9
100
AcDbCircle
 10
132.612052
 20
236.091146
 30
0.0
 40
4.0
210
0.0
220
0.0
230
1.0
  0
CIRCLE
  5
297
100
AcDbEntity
  8
1
390
0
  6
DOT
 62
     9
100
AcDbCircle
 10
112.612052
 20
236.091146
 30
0.0
 40
4.0
210
0.0
220
0.0
230
1.0
  0
CIRCLE
  5
298
100
AcDbEntity
  8
1
390
0
  6
DOT
 62
     9
100
AcDbCircle
 10
98.612052
 20
236.091146
 30
0.0
 40
4.0
210
0.0
220
0.0
230
1.0
  0
CIRCLE
  5
299
100
AcDbEntity
  8
1
390
0
  6
DOT
 62
     9
100
AcDbCircle
 10
146.612052
 20
236.091146
 30
0.0
 40
4.0
210
0.0
220
0.0
230
1.0
  0
CIRCLE
  5
29A
100
AcDbEntity
  8
1
390
0
  6
DOT
 62
     9
100
AcDbCircle
 10
139.612052
 20
243.091146
 30
0.0
 40
2.75
210
0.0
220
0.0
230
1.0
  0
CIRCLE
  5
29B
100
AcDbEntity
  8
1
390
0
  6
DOT
 62
     9
100
AcDbCircle
 10
105.612052
 20
243.091146
 30
0.0
 40
2.75
210
0.0
220
0.0
230
1.0
  0
CIRCLE
  5
29C
100
AcDbEntity
  8
1
390
0
  6
DOT
 62
     9
100
AcDbCircle
 10
85.112052
 20
238.091146
 30
0.0
 40
2.75
210
0.0
220
0.0
230
1.0
  0
CIRCLE
  5
29D
100
AcDbEntity
  8
1
390
0
  6
DOT
 62
     9
100
AcDbCircle
 10
160.112052
 20
238.091146
 30
0.0
 40
2.75
210
0.0
220
0.0
230
1.0
  0
CIRCLE
  5
29E
100
AcDbEntity
  8
1
390
0
  6
DOT
 62
     9
100
AcDbCircle
 10
132.612052
 20
236.091146
 30
0.0
 40
3.8
210
0.0
220
0.0
230
1.0
  0
CIRCLE
  5
29F
100
AcDbEntity
  8
1
390
0
  6
DOT
 62
     9
100
AcDbCircle
 10
98.612052
 20
236.091146
 30
0.0
 40
3.8
210
0.0
220
0.0
230
1.0
  0
CIRCLE
  5
2A0
100
AcDbEntity
  8
1
390
0
  6
DOT
 62
     9
100
AcDbCircle
 10
146.612052
 20
236.091146
 30
0.0
 40
3.8
210
0.0
220
0.0
230
1.0
  0
CIRCLE
  5
2A1
100
AcDbEntity
  8
1
390
0
  6
DOT
 62
     9
100
AcDbCircle
 10
112.612052
 20
236.091146
 30
0.0
 40
3.8
210
0.0
220
0.0
230
1.0
  0
LINE
  5
2A2
100
AcDbEntity
  8
1
390
0
  6
DOT
 62
     9
100
AcDbLine
 10
106.528719
 20
242.724479
 30
0.0
 11
107.412052
 21
242.724479
 31
0.0
  0
ARC
  5
2A3
100
AcDbEntity
  8
1
390
0
  6
DOT
 62
     9
100
AcDbCircle
 10
106.528719
 20
244.007812
 30
0.0
 40
0.55
210
0.0
220
0.0
230
1.0
100
AcDbArc
 50
180.0
 51
270.0
  0
LINE
  5
2A4
100
AcDbEntity
  8
1
390
0
  6
DOT
 62
     9
100
AcDbLine
 10
105.978719
 20
244.007812
 30
0.0
 11
105.978719
 21
244.891146
 31
0.0
  0
LINE
  5
2A5
100
AcDbEntity
  8
1
390
0
  6
DOT
 62
     9
100
AcDbLine
 10
103.812052
 20
242.724479
 30
0.0
 11
104.695385
 21
242.724479
 31
0.0
  0
LINE
  5
2A6
100
AcDbEntity
  8
1
390
0
  6
DOT
 62
     9
100
AcDbLine
 10
107.412052
 20
242.724479
 30
0.0
 11
107.412052
 21
243.457812
 31
0.0
  0
LINE
  5
2A7
100
AcDbEntity
  8
1
390
0
  6
DOT
 62
     9
100
AcDbLine
 10
107.412052
 20
243.457812
 30
0.0
 11
106.528719
 21
243.457812
 31
0.0
  0
LINE
  5
2A8
100
AcDbEntity
  8
1
390
0
  6
DOT
 62
     9
100
AcDbLine
 10
103.812052
 20
243.457812
 30
0.0
 11
103.812052
 21
242.724479
 31
0.0
  0
LINE
  5
2A9
100
AcDbEntity
  8
1
390
0
  6
DOT
 62
     9
100
AcDbLine
 10
105.978719
 20
244.891146
 30
0.0
 11
105.245385
 21
244.891146
 31
0.0
  0
LINE
  5
2AA
100
AcDbEntity
  8
1
390
0
  6
DOT
 62
     9
100
AcDbLine
 10
104.695385
 20
243.457812
 30
0.0
 11
103.812052
 21
243.457812
 31
0.0
  0
LINE
  5
2AB
100
AcDbEntity
  8
1
390
0
  6
DOT
 62
     9
100
AcDbLine
 10
105.245385
 20
244.891146
 30
0.0
 11
105.245385
 21
244.007812
 31
0.0
  0
LINE
  5
2AC
100
AcDbEntity
  8
1
390
0
  6
DOT
 62
     9
100
AcDbLine
 10
105.245385
 20
241.291146
 30
0.0
 11
105.978719
 21
241.291146
 31
0.0
  0
LINE
  5
2AD
100
AcDbEntity
  8
1
390
0
  6
DOT
 62
     9
100
AcDbLine
 10
140.528719
 20
242.724479
 30
0.0
 11
141.412052
 21
242.724479
 31
0.0
  0
ARC
  5
2AE
100
AcDbEntity
  8
1
390
0
  6
DOT
 62
     9
100
AcDbCircle
 10
140.528719
 20
244.007812
 30
0.0
 40
0.55
210
0.0
220
0.0
230
1.0
100
AcDbArc
 50
180.0
 51
270.0
  0
LINE
  5
2AF
100
AcDbEntity
  8
1
390
0
  6
DOT
 62
     9
100
AcDbLine
 10
139.978719
 20
244.007812
 30
0.0
 11
139.978719
 21
244.891146
 31
0.0
  0
LINE
  5
2B0
100
AcDbEntity
  8
1
390
0
  6
DOT
 62
     9
100
AcDbLine
 10
137.812052
 20
242.724479
 30
0.0
 11
138.695385
 21
242.724479
 31
0.0
  0
LINE
  5
2B1
100
AcDbEntity
  8
1
390
0
  6
DOT
 62
     9
100
AcDbLine
 10
141.412052
 20
243.457812
 30
0.0
 11
140.528719
 21
243.457812
 31
0.0
  0
LINE
  5
2B2
100
AcDbEntity
  8
1
390
0
  6
DOT
 62
     9
100
AcDbLine
 10
141.412052
 20
242.724479
 30
0.0
 11
141.412052
 21
243.457812
 31
0.0
  0
LINE
  5
2B3
100
AcDbEntity
  8
1
390
0
  6
DOT
 62
     9
100
AcDbLine
 10
137.812052
 20
243.457812
 30
0.0
 11
137.812052
 21
242.724479
 31
0.0
  0
LINE
  5
2B4
100
AcDbEntity
  8
1
390
0
  6
DOT
 62
     9
100
AcDbLine
 10
138.695385
 20
243.457812
 30
0.0
 11
137.812052
 21
243.457812
 31
0.0
  0
LINE
  5
2B5
100
AcDbEntity
  8
1
390
0
  6
DOT
 62
     9
100
AcDbLine
 10
139.978719
 20
244.891146
 30
0.0
 11
139.245385
 21
244.891146
 31
0.0
  0
LINE
  5
2B6
100
AcDbEntity
  8
1
390
0
  6
DOT
 62
     9
100
AcDbLine
 10
139.245385
 20
244.891146
 30
0.0
 11
139.245385
 21
244.007812
 31
0.0
  0
ARC
  5
2B7
100
AcDbEntity
  8
1
390
0
  6
DOT
 62
     9
100
AcDbCircle
 10
138.695385
 20
244.007812
 30
0.0
 40
0.55
210
0.0
220
0.0
230
1.0
100
AcDbArc
 50
270.0
 51
360.0
  0
LINE
  5
2B8
100
AcDbEntity
  8
1
390
0
  6
DOT
 62
     9
100
AcDbLine
 10
139.978719
 20
241.291146
 30
0.0
 11
139.978719
 21
242.174479
 31
0.0
  0
ARC
  5
2B9
100
AcDbEntity
  8
1
390
0
  6
DOT
 62
     9
100
AcDbCircle
 10
140.528719
 20
242.174479
 30
0.0
 40
0.55
210
0.0
220
0.0
230
1.0
100
AcDbArc
 50
90.0
 51
180.0
  0
LINE
  5
2BA
100
AcDbEntity
  8
1
390
0
  6
DOT
 62
     9
100
AcDbLine
 10
139.245385
 20
241.291146
 30
0.0
 11
139.978719
 21
241.291146
 31
0.0
  0
LINE
  5
2BB
100
AcDbEntity
  8
1
390
0
  6
DOT
 62
     9
100
AcDbLine
 10
139.245385
 20
242.174479
 30
0.0
 11
139.245385
 21
241.291146
 31
0.0
  0
ARC
  5
2BC
100
AcDbEntity
  8
1
390
0
  6
DOT
 62
     9
100
AcDbCircle
 10
138.695385
 20
242.174479
 30
0.0
 40
0.55
210
0.0
220
0.0
230
1.0
100
AcDbArc
 50
0.0
 51
90.0
  0
LINE
  5
2BD
100
AcDbEntity
  8
1
390
0
  6
DOT
 62
     9
100
AcDbLine
 10
161.028719
 20
237.724479
 30
0.0
 11
161.912052
 21
237.724479
 31
0.0
  0
LINE
  5
2BE
100
AcDbEntity
  8
1
390
0
  6
DOT
 62
     9
100
AcDbLine
 10
161.912052
 20
238.457812
 30
0.0
 11
161.028719
 21
238.457812
 31
0.0
  0
LINE
  5
2BF
100
AcDbEntity
  8
1
390
0
  6
DOT
 62
     9
100
AcDbLine
 10
161.912052
 20
237.724479
 30
0.0
 11
161.912052
 21
238.457812
 31
0.0
  0
LINE
  5
2C0
100
AcDbEntity
  8
1
390
0
  6
DOT
 62
     9
100
AcDbLine
 10
158.312052
 20
237.724479
 30
0.0
 11
159.195385
 21
237.724479
 31
0.0
  0
LINE
  5
2C1
100
AcDbEntity
  8
1
390
0
  6
DOT
 62
     9
100
AcDbLine
 10
158.312052
 20
238.457812
 30
0.0
 11
158.312052
 21
237.724479
 31
0.0
  0
LINE
  5
2C2
100
AcDbEntity
  8
1
390
0
  6
DOT
 62
     9
100
AcDbLine
 10
159.195385
 20
238.457812
 30
0.0
 11
158.312052
 21
238.457812
 31
0.0
  0
ARC
  5
2C3
100
AcDbEntity
  8
1
390
0
  6
DOT
 62
     9
100
AcDbCircle
 10
161.028719
 20
239.007812
 30
0.0
 40
0.55
210
0.0
220
0.0
230
1.0
100
AcDbArc
 50
180.0
 51
270.0
  0
LINE
  5
2C4
100
AcDbEntity
  8
1
390
0
  6
DOT
 62
     9
100
AcDbLine
 10
160.478719
 20
239.007812
 30
0.0
 11
160.478719
 21
239.891146
 31
0.0
  0
LINE
  5
2C5
100
AcDbEntity
  8
1
390
0
  6
DOT
 62
     9
100
AcDbLine
 10
160.478719
 20
239.891146
 30
0.0
 11
159.745385
 21
239.891146
 31
0.0
  0
LINE
  5
2C6
100
AcDbEntity
  8
1
390
0
  6
DOT
 62
     9
100
AcDbLine
 10
159.745385
 20
239.891146
 30
0.0
 11
159.745385
 21
239.007812
 31
0.0
  0
ARC
  5
2C7
100
AcDbEntity
  8
1
390
0
  6
DOT
 62
     9
100
AcDbCircle
 10
159.195385
 20
239.007812
 30
0.0
 40
0.55
210
0.0
220
0.0
230
1.0
100
AcDbArc
 50
270.0
 51
360.0
  0
LINE
  5
2C8
100
AcDbEntity
  8
1
390
0
  6
DOT
 62
     9
100
AcDbLine
 10
160.478719
 20
236.291146
 30
0.0
 11
160.478719
 21
237.174479
 31
0.0
  0
ARC
  5
2C9
100
AcDbEntity
  8
1
390
0
  6
DOT
 62
     9
100
AcDbCircle
 10
161.028719
 20
237.174479
 30
0.0
 40
0.55
210
0.0
220
0.0
230
1.0
100
AcDbArc
 50
90.0
 51
180.0
  0
LINE
  5
2CA
100
AcDbEntity
  8
1
390
0
  6
DOT
 62
     9
100
AcDbLine
 10
159.745385
 20
236.291146
 30
0.0
 11
160.478719
 21
236.291146
 31
0.0
  0
LINE
  5
2CB
100
AcDbEntity
  8
1
390
0
  6
DOT
 62
     9
100
AcDbLine
 10
159.745385
 20
237.174479
 30
0.0
 11
159.745385
 21
236.291146
 31
0.0
  0
ARC
  5
2CC
100
AcDbEntity
  8
1
390
0
  6
DOT
 62
     9
100
AcDbCircle
 10
159.195385
 20
237.174479
 30
0.0
 40
0.55
210
0.0
220
0.0
230
1.0
100
AcDbArc
 50
0.0
 51
90.0
  0
LINE
  5
2CD
100
AcDbEntity
  8
1
390
0
  6
DOT
 62
     9
100
AcDbLine
 10
86.912052
 20
238.457812
 30
0.0
 11
86.028719
 21
238.457812
 31
0.0
  0
LINE
  5
2CE
100
AcDbEntity
  8
1
390
0
  6
DOT
 62
     9
100
AcDbLine
 10
86.912052
 20
237.724479
 30
0.0
 11
86.912052
 21
238.457812
 31
0.0
  0
ARC
  5
2CF
100
AcDbEntity
  8
1
390
0
  6
DOT
 62
     9
100
AcDbCircle
 10
84.195385
 20
237.174479
 30
0.0
 40
0.55
210
0.0
220
0.0
230
1.0
100
AcDbArc
 50
0.0
 51
90.0
  0
LINE
  5
2D0
100
AcDbEntity
  8
1
390
0
  6
DOT
 62
     9
100
AcDbLine
 10
84.745385
 20
237.174479
 30
0.0
 11
84.745385
 21
236.291146
 31
0.0
  0
LINE
  5
2D1
100
AcDbEntity
  8
1
390
0
  6
DOT
 62
     9
100
AcDbLine
 10
84.195385
 20
238.457812
 30
0.0
 11
83.312052
 21
238.457812
 31
0.0
  0
LINE
  5
2D2
100
AcDbEntity
  8
1
390
0
  6
DOT
 62
     9
100
AcDbLine
 10
83.312052
 20
238.457812
 30
0.0
 11
83.312052
 21
237.724479
 31
0.0
  0
LINE
  5
2D3
100
AcDbEntity
  8
1
390
0
  6
DOT
 62
     9
100
AcDbLine
 10
85.478719
 20
239.007812
 30
0.0
 11
85.478719
 21
239.891146
 31
0.0
  0
ARC
  5
2D4
100
AcDbEntity
  8
1
390
0
  6
DOT
 62
     9
100
AcDbCircle
 10
86.028719
 20
239.007812
 30
0.0
 40
0.55
210
0.0
220
0.0
230
1.0
100
AcDbArc
 50
180.0
 51
270.0
  0
LINE
  5
2D5
100
AcDbEntity
  8
1
390
0
  6
DOT
 62
     9
100
AcDbLine
 10
84.745385
 20
239.891146
 30
0.0
 11
84.745385
 21
239.007812
 31
0.0
  0
ARC
  5
2D6
100
AcDbEntity
  8
1
390
0
  6
DOT
 62
     9
100
AcDbCircle
 10
84.195385
 20
239.007812
 30
0.0
 40
0.55
210
0.0
220
0.0
230
1.0
100
AcDbArc
 50
270.0
 51
360.0
  0
LINE
  5
2D7
100
AcDbEntity
  8
1
390
0
  6
DOT
 62
     9
100
AcDbLine
 10
83.312052
 20
237.724479
 30
0.0
 11
84.195385
 21
237.724479
 31
0.0
  0
LINE
  5
2D8
100
AcDbEntity
  8
1
390
0
  6
DOT
 62
     9
100
AcDbLine
 10
85.478719
 20
236.291146
 30
0.0
 11
85.478719
 21
237.174479
 31
0.0
  0
ARC
  5
2D9
100
AcDbEntity
  8
1
390
0
  6
DOT
 62
     9
100
AcDbCircle
 10
86.028719
 20
237.174479
 30
0.0
 40
0.55
210
0.0
220
0.0
230
1.0
100
AcDbArc
 50
90.0
 51
180.0
  0
LINE
  5
2DA
100
AcDbEntity
  8
1
390
0
  6
DOT
 62
     9
100
AcDbLine
 10
85.478719
 20
239.891146
 30
0.0
 11
84.745385
 21
239.891146
 31
0.0
  0
LINE
  5
2DB
100
AcDbEntity
  8
1
390
0
  6
DOT
 62
     9
100
AcDbLine
 10
84.745385
 20
236.291146
 30
0.0
 11
85.478719
 21
236.291146
 31
0.0
  0
LINE
  5
2DC
100
AcDbEntity
  8
1
390
0
  6
DOT
 62
     9
100
AcDbLine
 10
86.028719
 20
237.724479
 30
0.0
 11
86.912052
 21
237.724479
 31
0.0
  0
LINE
  5
2DD
100
AcDbEntity
  8
1
390
0
  6
DOT
 62
     9
100
AcDbLine
 10
105.978719
 20
241.291146
 30
0.0
 11
105.978719
 21
242.174479
 31
0.0
  0
ARC
  5
2DE
100
AcDbEntity
  8
1
390
0
  6
DOT
 62
     9
100
AcDbCircle
 10
106.528719
 20
242.174479
 30
0.0
 40
0.55
210
0.0
220
0.0
230
1.0
100
AcDbArc
 50
90.0
 51
180.0
  0
LINE
  5
2DF
100
AcDbEntity
  8
1
390
0
  6
DOT
 62
     9
100
AcDbLine
 10
105.245385
 20
242.174479
 30
0.0
 11
105.245385
 21
241.291146
 31
0.0
  0
ARC
  5
2E0
100
AcDbEntity
  8
1
390
0
  6
DOT
 62
     9
100
AcDbCircle
 10
104.695385
 20
242.174479
 30
0.0
 40
0.55
210
0.0
220
0.0
230
1.0
100
AcDbArc
 50
0.0
 51
90.0
  0
ARC
  5
2E1
100
AcDbEntity
  8
1
390
0
  6
DOT
 62
     9
100
AcDbCircle
 10
104.695385
 20
244.007812
 30
0.0
 40
0.55
210
0.0
220
0.0
230
1.0
100
AcDbArc
 50
270.0
 51
360.0
  0
LINE
  5
2E2
100
AcDbEntity
  8
1
390
0
  6
Continuous
 62
     7
100
AcDbLine
 10
76.612052
 20
246.091146
 30
0.0
 11
76.412052
 21
246.091146
 31
0.0
  0
LINE
  5
2E3
100
AcDbEntity
  8
1
390
0
  6
Continuous
 62
     7
100
AcDbLine
 10
76.412052
 20
242.091146
 30
0.0
 11
76.612052
 21
242.091146
 31
0.0
  0
LINE
  5
2E4
100
AcDbEntity
  8
1
390
0
  6
Continuous
 62
     7
100
AcDbLine
 10
168.812052
 20
242.091146
 30
0.0
 11
169.612052
 21
242.891146
 31
0.0
  0
LINE
  5
2E5
100
AcDbEntity
  8
1
390
0
  6
Continuous
 62
     7
100
AcDbLine
 10
169.612052
 20
245.291146
 30
0.0
 11
168.812052
 21
246.091146
 31
0.0
  0
LINE
  5
2E6
100
AcDbEntity
  8
1
390
0
  6
Continuous
 62
     7
100
AcDbLine
 10
168.612052
 20
242.091146
 30
0.0
 11
168.812052
 21
242.091146
 31
0.0
  0
LINE
  5
2E7
100
AcDbEntity
  8
1
390
0
  6
Continuous
 62
     7
100
AcDbLine
 10
168.812052
 20
246.091146
 30
0.0
 11
168.612052
 21
246.091146
 31
0.0
  0
LINE
  5
2E8
100
AcDbEntity
  8
1
390
0
  6
Continuous
 62
     7
100
AcDbLine
 10
76.412052
 20
246.091146
 30
0.0
 11
75.612052
 21
245.291146
 31
0.0
  0
LINE
  5
2E9
100
AcDbEntity
  8
1
390
0
  6
Continuous
 62
     7
100
AcDbLine
 10
75.612052
 20
242.891146
 30
0.0
 11
76.412052
 21
242.091146
 31
0.0
  0
LINE
  5
2EA
100
AcDbEntity
  8
1
390
0
  6
DOT
 62
     9
100
AcDbLine
 10
66.012052
 20
251.591146
 30
0.0
 11
66.012052
 21
250.091146
 31
0.0
  0
LINE
  5
2EB
100
AcDbEntity
  8
1
390
0
  6
DOT
 62
     9
100
AcDbLine
 10
70.212052
 20
250.091146
 30
0.0
 11
70.212052
 21
251.591146
 31
0.0
  0
LINE
  5
2EC
100
AcDbEntity
  8
1
390
0
  6
DOT
 62
     9
100
AcDbLine
 10
175.012052
 20
251.591146
 30
0.0
 11
175.012052
 21
250.091146
 31
0.0
  0
LINE
  5
2ED
100
AcDbEntity
  8
1
390
0
  6
DOT
 62
     9
100
AcDbLine
 10
179.212052
 20
250.091146
 30
0.0
 11
179.212052
 21
251.591146
 31
0.0
  0
LINE
  5
2EE
100
AcDbEntity
  8
1
390
0
  6
Continuous
 62
     7
100
AcDbLine
 10
158.312052
 20
74.60278
 30
0.0
 11
159.195385
 21
74.60278
 31
0.0
  0
LINE
  5
2EF
100
AcDbEntity
  8
1
390
0
  6
Continuous
 62
     7
100
AcDbLine
 10
158.312052
 20
73.869447
 30
0.0
 11
158.312052
 21
74.60278
 31
0.0
  0
LINE
  5
2F0
100
AcDbEntity
  8
1
390
0
  6
Continuous
 62
     7
100
AcDbLine
 10
159.195385
 20
73.869447
 30
0.0
 11
158.312052
 21
73.869447
 31
0.0
  0
POLYLINE
  5
2F1
100
AcDbEntity
  8
1
390
0
  6
Continuous
 62
     7
100
AcDb2dPolyline
 66
     1
 10
0.0
 20
0.0
 30
0.0
 40
3.0
 41
3.0
  0
VERTEX
  5
2F2
100
AcDbEntity
  8
1
390
0
 62
     7
100
AcDbVertex
100
AcDb2dVertex
 10
159.195385
 20
73.869447
 30
0.0
  0
VERTEX
  5
2F3
100
AcDbEntity
  8
1
390
0
 62
     7
100
AcDbVertex
100
AcDb2dVertex
 10
159.217964
 20
73.868982
 30
0.0
  0
VERTEX
  5
2F4
100
AcDbEntity
  8
1
390
0
 62
     7
100
AcDbVertex
100
AcDb2dVertex
 10
159.240541
 20
73.867587
 30
0.0
  0
VERTEX
  5
2F5
100
AcDbEntity
  8
1
390
0
 62
     7
100
AcDbVertex
100
AcDb2dVertex
 10
159.263056
 20
73.865266
 30
0.0
  0
VERTEX
  5
2F6
100
AcDbEntity
  8
1
390
0
 62
     7
100
AcDbVertex
100
AcDb2dVertex
 10
159.285454
 20
73.862022
 30
0.0
  0
VERTEX
  5
2F7
100
AcDbEntity
  8
1
390
0
 62
     7
100
AcDbVertex
100
AcDb2dVertex
 10
159.308351
 20
73.857719
 30
0.0
  0
VERTEX
  5
2F8
100
AcDbEntity
  8
1
390
0
 62
     7
100
AcDbVertex
100
AcDb2dVertex
 10
159.331081
 20
73.852441
 30
0.0
  0
VERTEX
  5
2F9
100
AcDbEntity
  8
1
390
0
 62
     7
100
AcDbVertex
100
AcDb2dVertex
 10
159.353582
 20
73.846203
 30
0.0
  0
VERTEX
  5
2FA
100
AcDbEntity
  8
1
390
0
 62
     7
100
AcDbVertex
100
AcDb2dVertex
 10
159.375792
 20
73.839018
 30
0.0
  0
VERTEX
  5
2FB
100
AcDbEntity
  8
1
390
0
 62
     7
100
AcDbVertex
100
AcDb2dVertex
 10
159.397083
 20
73.831127
 30
0.0
  0
VERTEX
  5
2FC
100
AcDbEntity
  8
1
390
0
 62
     7
100
AcDbVertex
100
AcDb2dVertex
 10
159.41806
 20
73.822351
 30
0.0
  0
VERTEX
  5
2FD
100
AcDbEntity
  8
1
390
0
 62
     7
100
AcDbVertex
100
AcDb2dVertex
 10
159.438667
 20
73.812714
 30
0.0
  0
VERTEX
  5
2FE
100
AcDbEntity
  8
1
390
0
 62
     7
100
AcDbVertex
100
AcDb2dVertex
 10
159.458849
 20
73.802238
 30
0.0
  0
VERTEX
  5
2FF
100
AcDbEntity
  8
1
390
0
 62
     7
100
AcDbVertex
100
AcDb2dVertex
 10
159.479164
 20
73.790581
 30
0.0
  0
VERTEX
  5
300
100
AcDbEntity
  8
1
390
0
 62
     7
100
AcDbVertex
100
AcDb2dVertex
 10
159.498989
 20
73.778054
 30
0.0
  0
VERTEX
  5
301
100
AcDbEntity
  8
1
390
0
 62
     7
100
AcDbVertex
100
AcDb2dVertex
 10
159.518269
 20
73.764692
 30
0.0
  0
VERTEX
  5
302
100
AcDbEntity
  8
1
390
0
 62
     7
100
AcDbVertex
100
AcDb2dVertex
 10
159.53695
 20
73.750531
 30
0.0
  0
VERTEX
  5
303
100
AcDbEntity
  8
1
390
0
 62
     7
100
AcDbVertex
100
AcDb2dVertex
 10
159.554341
 20
73.736159
 30
0.0
  0
VERTEX
  5
304
100
AcDbEntity
  8
1
390
0
 62
     7
100
AcDbVertex
100
AcDb2dVertex
 10
159.571144
 20
73.72107
 30
0.0
  0
VERTEX
  5
305
100
AcDbEntity
  8
1
390
0
 62
     7
100
AcDbVertex
100
AcDb2dVertex
 10
159.587317
 20
73.705306
 30
0.0
  0
VERTEX
  5
306
100
AcDbEntity
  8
1
390
0
 62
     7
100
AcDbVertex
100
AcDb2dVertex
 10
159.602816
 20
73.688907
 30
0.0
  0
VERTEX
  5
307
100
AcDbEntity
  8
1
390
0
 62
     7
100
AcDbVertex
100
AcDb2dVertex
 10
159.618048
 20
73.671376
 30
0.0
  0
VERTEX
  5
308
100
AcDbEntity
  8
1
390
0
 62
     7
100
AcDbVertex
100
AcDb2dVertex
 10
159.632538
 20
73.653203
 30
0.0
  0
VERTEX
  5
309
100
AcDbEntity
  8
1
390
0
 62
     7
100
AcDbVertex
100
AcDb2dVertex
 10
159.646248
 20
73.63444
 30
0.0
  0
VERTEX
  5
30A
100
AcDbEntity
  8
1
390
0
 62
     7
100
AcDbVertex
100
AcDb2dVertex
 10
159.659138
 20
73.615138
 30
0.0
  0
VERTEX
  5
30B
100
AcDbEntity
  8
1
390
0
 62
     7
100
AcDbVertex
100
AcDb2dVertex
 10
159.67082
 20
73.595961
 30
0.0
  0
VERTEX
  5
30C
100
AcDbEntity
  8
1
390
0
 62
     7
100
AcDbVertex
100
AcDb2dVertex
 10
159.681715
 20
73.576313
 30
0.0
  0
VERTEX
  5
30D
100
AcDbEntity
  8
1
390
0
 62
     7
100
AcDbVertex
100
AcDb2dVertex
 10
159.691797
 20
73.556246
 30
0.0
  0
VERTEX
  5
30E
100
AcDbEntity
  8
1
390
0
 62
     7
100
AcDbVertex
100
AcDb2dVertex
 10
159.70104
 20
73.535811
 30
0.0
  0
VERTEX
  5
30F
100
AcDbEntity
  8
1
390
0
 62
     7
100
AcDbVertex
100
AcDb2dVertex
 10
159.709663
 20
73.514425
 30
0.0
  0
VERTEX
  5
310
100
AcDbEntity
  8
1
390
0
 62
     7
100
AcDbVertex
100
AcDb2dVertex
 10
159.717385
 20
73.492688
 30
0.0
  0
VERTEX
  5
311
100
AcDbEntity
  8
1
390
0
 62
     7
100
AcDbVertex
100
AcDb2dVertex
 10
159.724188
 20
73.47066
 30
0.0
  0
VERTEX
  5
312
100
AcDbEntity
  8
1
390
0
 62
     7
100
AcDbVertex
100
AcDb2dVertex
 10
159.730055
 20
73.4484
 30
0.0
  0
VERTEX
  5
313
100
AcDbEntity
  8
1
390
0
 62
     7
100
AcDbVertex
100
AcDb2dVertex
 10
159.735554
 20
73.422946
 30
0.0
  0
VERTEX
  5
314
100
AcDbEntity
  8
1
390
0
 62
     7
100
AcDbVertex
100
AcDb2dVertex
 10
159.739844
 20
73.397236
 30
0.0
  0
VERTEX
  5
315
100
AcDbEntity
  8
1
390
0
 62
     7
100
AcDbVertex
100
AcDb2dVertex
 10
159.742917
 20
73.371358
 30
0.0
  0
VERTEX
  5
316
100
AcDbEntity
  8
1
390
0
 62
     7
100
AcDbVertex
100
AcDb2dVertex
 10
159.744767
 20
73.345399
 30
0.0
  0
VERTEX
  5
317
100
AcDbEntity
  8
1
390
0
 62
     7
100
AcDbVertex
100
AcDb2dVertex
 10
159.745385
 20
73.319447
 30
0.0
  0
SEQEND
  5
318
100
AcDbEntity
  8
0
390
0
  0
LINE
  5
319
100
AcDbEntity
  8
1
390
0
  6
Continuous
 62
     7
100
AcDbLine
 10
159.745385
 20
72.436114
 30
0.0
 11
159.745385
 21
73.319447
 31
0.0
  0
LINE
  5
31A
100
AcDbEntity
  8
1
390
0
  6
Continuous
 62
     7
100
AcDbLine
 10
160.478719
 20
72.436114
 30
0.0
 11
159.745385
 21
72.436114
 31
0.0
  0
LINE
  5
31B
100
AcDbEntity
  8
1
390
0
  6
Continuous
 62
     7
100
AcDbLine
 10
160.478719
 20
73.319447
 30
0.0
 11
160.478719
 21
72.436114
 31
0.0
  0
POLYLINE
  5
31C
100
AcDbEntity
  8
1
390
0
  6
Continuous
 62
     7
100
AcDb2dPolyline
 66
     1
 10
0.0
 20
0.0
 30
0.0
 40
3.0
 41
3.0
  0
VERTEX
  5
31D
100
AcDbEntity
  8
1
390
0
 62
     7
100
AcDbVertex
100
AcDb2dVertex
 10
160.478719
 20
73.319447
 30
0.0
  0
VERTEX
  5
31E
100
AcDbEntity
  8
1
390
0
 62
     7
100
AcDbVertex
100
AcDb2dVertex
 10
160.479184
 20
73.342026
 30
0.0
  0
VERTEX
  5
31F
100
AcDbEntity
  8
1
390
0
 62
     7
100
AcDbVertex
100
AcDb2dVertex
 10
160.480579
 20
73.364602
 30
0.0
  0
VERTEX
  5
320
100
AcDbEntity
  8
1
390
0
 62
     7
100
AcDbVertex
100
AcDb2dVertex
 10
160.482899
 20
73.387118
 30
0.0
  0
VERTEX
  5
321
100
AcDbEntity
  8
1
390
0
 62
     7
100
AcDbVertex
100
AcDb2dVertex
 10
160.486144
 20
73.409516
 30
0.0
  0
VERTEX
  5
322
100
AcDbEntity
  8
1
390
0
 62
     7
100
AcDbVertex
100
AcDb2dVertex
 10
160.490447
 20
73.432413
 30
0.0
  0
VERTEX
  5
323
100
AcDbEntity
  8
1
390
0
 62
     7
100
AcDbVertex
100
AcDb2dVertex
 10
160.495725
 20
73.455143
 30
0.0
  0
VERTEX
  5
324
100
AcDbEntity
  8
1
390
0
 62
     7
100
AcDbVertex
100
AcDb2dVertex
 10
160.501963
 20
73.477644
 30
0.0
  0
VERTEX
  5
325
100
AcDbEntity
  8
1
390
0
 62
     7
100
AcDbVertex
100
AcDb2dVertex
 10
160.509148
 20
73.499853
 30
0.0
  0
VERTEX
  5
326
100
AcDbEntity
  8
1
390
0
 62
     7
100
AcDbVertex
100
AcDb2dVertex
 10
160.517039
 20
73.521145
 30
0.0
  0
VERTEX
  5
327
100
AcDbEntity
  8
1
390
0
 62
     7
100
AcDbVertex
100
AcDb2dVertex
 10
160.525815
 20
73.542122
 30
0.0
  0
VERTEX
  5
328
100
AcDbEntity
  8
1
390
0
 62
     7
100
AcDbVertex
100
AcDb2dVertex
 10
160.535452
 20
73.562729
 30
0.0
  0
VERTEX
  5
329
100
AcDbEntity
  8
1
390
0
 62
     7
100
AcDbVertex
100
AcDb2dVertex
 10
160.545928
 20
73.582911
 30
0.0
  0
VERTEX
  5
32A
100
AcDbEntity
  8
1
390
0
 62
     7
100
AcDbVertex
100
AcDb2dVertex
 10
160.557584
 20
73.603225
 30
0.0
  0
VERTEX
  5
32B
100
AcDbEntity
  8
1
390
0
 62
     7
100
AcDbVertex
100
AcDb2dVertex
 10
160.570111
 20
73.623051
 30
0.0
  0
VERTEX
  5
32C
100
AcDbEntity
  8
1
390
0
 62
     7
100
AcDbVertex
100
AcDb2dVertex
 10
160.583473
 20
73.642331
 30
0.0
  0
VERTEX
  5
32D
100
AcDbEntity
  8
1
390
0
 62
     7
100
AcDbVertex
100
AcDb2dVertex
 10
160.597634
 20
73.661012
 30
0.0
  0
VERTEX
  5
32E
100
AcDbEntity
  8
1
390
0
 62
     7
100
AcDbVertex
100
AcDb2dVertex
 10
160.612007
 20
73.678403
 30
0.0
  0
VERTEX
  5
32F
100
AcDbEntity
  8
1
390
0
 62
     7
100
AcDbVertex
100
AcDb2dVertex
 10
160.627095
 20
73.695206
 30
0.0
  0
VERTEX
  5
330
100
AcDbEntity
  8
1
390
0
 62
     7
100
AcDbVertex
100
AcDb2dVertex
 10
160.642859
 20
73.711379
 30
0.0
  0
VERTEX
  5
331
100
AcDbEntity
  8
1
390
0
 62
     7
100
AcDbVertex
100
AcDb2dVertex
 10
160.659259
 20
73.726878
 30
0.0
  0
VERTEX
  5
332
100
AcDbEntity
  8
1
390
0
 62
     7
100
AcDbVertex
100
AcDb2dVertex
 10
160.67679
 20
73.74211
 30
0.0
  0
VERTEX
  5
333
100
AcDbEntity
  8
1
390
0
 62
     7
100
AcDbVertex
100
AcDb2dVertex
 10
160.694962
 20
73.7566
 30
0.0
  0
VERTEX
  5
334
100
AcDbEntity
  8
1
390
0
 62
     7
100
AcDbVertex
100
AcDb2dVertex
 10
160.713725
 20
73.77031
 30
0.0
  0
VERTEX
  5
335
100
AcDbEntity
  8
1
390
0
 62
     7
100
AcDbVertex
100
AcDb2dVertex
 10
160.733028
 20
73.7832
 30
0.0
  0
VERTEX
  5
336
100
AcDbEntity
  8
1
390
0
 62
     7
100
AcDbVertex
100
AcDb2dVertex
 10
160.752205
 20
73.794882
 30
0.0
  0
VERTEX
  5
337
100
AcDbEntity
  8
1
390
0
 62
     7
100
AcDbVertex
100
AcDb2dVertex
 10
160.771852
 20
73.805776
 30
0.0
  0
VERTEX
  5
338
100
AcDbEntity
  8
1
390
0
 62
     7
100
AcDbVertex
100
AcDb2dVertex
 10
160.79192
 20
73.815858
 30
0.0
  0
VERTEX
  5
339
100
AcDbEntity
  8
1
390
0
 62
     7
100
AcDbVertex
100
AcDb2dVertex
 10
160.812354
 20
73.825102
 30
0.0
  0
VERTEX
  5
33A
100
AcDbEntity
  8
1
390
0
 62
     7
100
AcDbVertex
100
AcDb2dVertex
 10
160.833741
 20
73.833725
 30
0.0
  0
VERTEX
  5
33B
100
AcDbEntity
  8
1
390
0
 62
     7
100
AcDbVertex
100
AcDb2dVertex
 10
160.855478
 20
73.841447
 30
0.0
  0
VERTEX
  5
33C
100
AcDbEntity
  8
1
390
0
 62
     7
100
AcDbVertex
100
AcDb2dVertex
 10
160.877506
 20
73.84825
 30
0.0
  0
VERTEX
  5
33D
100
AcDbEntity
  8
1
390
0
 62
     7
100
AcDbVertex
100
AcDb2dVertex
 10
160.899766
 20
73.854116
 30
0.0
  0
VERTEX
  5
33E
100
AcDbEntity
  8
1
390
0
 62
     7
100
AcDbVertex
100
AcDb2dVertex
 10
160.92522
 20
73.859615
 30
0.0
  0
VERTEX
  5
33F
100
AcDbEntity
  8
1
390
0
 62
     7
100
AcDbVertex
100
AcDb2dVertex
 10
160.95093
 20
73.863906
 30
0.0
  0
VERTEX
  5
340
100
AcDbEntity
  8
1
390
0
 62
     7
100
AcDbVertex
100
AcDb2dVertex
 10
160.976808
 20
73.866979
 30
0.0
  0
VERTEX
  5
341
100
AcDbEntity
  8
1
390
0
 62
     7
100
AcDbVertex
100
AcDb2dVertex
 10
161.002767
 20
73.868829
 30
0.0
  0
VERTEX
  5
342
100
AcDbEntity
  8
1
390
0
 62
     7
100
AcDbVertex
100
AcDb2dVertex
 10
161.028719
 20
73.869447
 30
0.0
  0
SEQEND
  5
343
100
AcDbEntity
  8
0
390
0
  0
LINE
  5
344
100
AcDbEntity
  8
1
390
0
  6
Continuous
 62
     7
100
AcDbLine
 10
161.912052
 20
73.869447
 30
0.0
 11
161.028719
 21
73.869447
 31
0.0
  0
LINE
  5
345
100
AcDbEntity
  8
1
390
0
  6
Continuous
 62
     7
100
AcDbLine
 10
161.912052
 20
74.60278
 30
0.0
 11
161.912052
 21
73.869447
 31
0.0
  0
LINE
  5
346
100
AcDbEntity
  8
1
390
0
  6
Continuous
 62
     7
100
AcDbLine
 10
161.028719
 20
74.60278
 30
0.0
 11
161.912052
 21
74.60278
 31
0.0
  0
POLYLINE
  5
347
100
AcDbEntity
  8
1
390
0
  6
Continuous
 62
     7
100
AcDb2dPolyline
 66
     1
 10
0.0
 20
0.0
 30
0.0
 40
3.0
 41
3.0
  0
VERTEX
  5
348
100
AcDbEntity
  8
1
390
0
 62
     7
100
AcDbVertex
100
AcDb2dVertex
 10
161.028719
 20
74.60278
 30
0.0
  0
VERTEX
  5
349
100
AcDbEntity
  8
1
390
0
 62
     7
100
AcDbVertex
100
AcDb2dVertex
 10
161.00614
 20
74.603246
 30
0.0
  0
VERTEX
  5
34A
100
AcDbEntity
  8
1
390
0
 62
     7
100
AcDbVertex
100
AcDb2dVertex
 10
160.983563
 20
74.60464
 30
0.0
  0
VERTEX
  5
34B
100
AcDbEntity
  8
1
390
0
 62
     7
100
AcDbVertex
100
AcDb2dVertex
 10
160.961048
 20
74.606961
 30
0.0
  0
VERTEX
  5
34C
100
AcDbEntity
  8
1
390
0
 62
     7
100
AcDbVertex
100
AcDb2dVertex
 10
160.93865
 20
74.610205
 30
0.0
  0
VERTEX
  5
34D
100
AcDbEntity
  8
1
390
0
 62
     7
100
AcDbVertex
100
AcDb2dVertex
 10
160.915753
 20
74.614509
 30
0.0
  0
VERTEX
  5
34E
100
AcDbEntity
  8
1
390
0
 62
     7
100
AcDbVertex
100
AcDb2dVertex
 10
160.893023
 20
74.619786
 30
0.0
  0
VERTEX
  5
34F
100
AcDbEntity
  8
1
390
0
 62
     7
100
AcDbVertex
100
AcDb2dVertex
 10
160.870522
 20
74.626025
 30
0.0
  0
VERTEX
  5
350
100
AcDbEntity
  8
1
390
0
 62
     7
100
AcDbVertex
100
AcDb2dVertex
 10
160.848312
 20
74.63321
 30
0.0
  0
VERTEX
  5
351
100
AcDbEntity
  8
1
390
0
 62
     7
100
AcDbVertex
100
AcDb2dVertex
 10
160.827021
 20
74.641101
 30
0.0
  0
VERTEX
  5
352
100
AcDbEntity
  8
1
390
0
 62
     7
100
AcDbVertex
100
AcDb2dVertex
 10
160.806044
 20
74.649876
 30
0.0
  0
VERTEX
  5
353
100
AcDbEntity
  8
1
390
0
 62
     7
100
AcDbVertex
100
AcDb2dVertex
 10
160.785437
 20
74.659514
 30
0.0
  0
VERTEX
  5
354
100
AcDbEntity
  8
1
390
0
 62
     7
100
AcDbVertex
100
AcDb2dVertex
 10
160.765255
 20
74.66999
 30
0.0
  0
VERTEX
  5
355
100
AcDbEntity
  8
1
390
0
 62
     7
100
AcDbVertex
100
AcDb2dVertex
 10
160.74494
 20
74.681646
 30
0.0
  0
VERTEX
  5
356
100
AcDbEntity
  8
1
390
0
 62
     7
100
AcDbVertex
100
AcDb2dVertex
 10
160.725115
 20
74.694173
 30
0.0
  0
VERTEX
  5
357
100
AcDbEntity
  8
1
390
0
 62
     7
100
AcDbVertex
100
AcDb2dVertex
 10
160.705835
 20
74.707535
 30
0.0
  0
VERTEX
  5
358
100
AcDbEntity
  8
1
390
0
 62
     7
100
AcDbVertex
100
AcDb2dVertex
 10
160.687154
 20
74.721696
 30
0.0
  0
VERTEX
  5
359
100
AcDbEntity
  8
1
390
0
 62
     7
100
AcDbVertex
100
AcDb2dVertex
 10
160.669763
 20
74.736069
 30
0.0
  0
VERTEX
  5
35A
100
AcDbEntity
  8
1
390
0
 62
     7
100
AcDbVertex
100
AcDb2dVertex
 10
160.652959
 20
74.751157
 30
0.0
  0
VERTEX
  5
35B
100
AcDbEntity
  8
1
390
0
 62
     7
100
AcDbVertex
100
AcDb2dVertex
 10
160.636787
 20
74.766921
 30
0.0
  0
VERTEX
  5
35C
100
AcDbEntity
  8
1
390
0
 62
     7
100
AcDbVertex
100
AcDb2dVertex
 10
160.621288
 20
74.783321
 30
0.0
  0
VERTEX
  5
35D
100
AcDbEntity
  8
1
390
0
 62
     7
100
AcDbVertex
100
AcDb2dVertex
 10
160.606056
 20
74.800852
 30
0.0
  0
VERTEX
  5
35E
100
AcDbEntity
  8
1
390
0
 62
     7
100
AcDbVertex
100
AcDb2dVertex
 10
160.591566
 20
74.819024
 30
0.0
  0
VERTEX
  5
35F
100
AcDbEntity
  8
1
390
0
 62
     7
100
AcDbVertex
100
AcDb2dVertex
 10
160.577856
 20
74.837787
 30
0.0
  0
VERTEX
  5
360
100
AcDbEntity
  8
1
390
0
 62
     7
100
AcDbVertex
100
AcDb2dVertex
 10
160.564966
 20
74.857089
 30
0.0
  0
VERTEX
  5
361
100
AcDbEntity
  8
1
390
0
 62
     7
100
AcDbVertex
100
AcDb2dVertex
 10
160.553284
 20
74.876266
 30
0.0
  0
VERTEX
  5
362
100
AcDbEntity
  8
1
390
0
 62
     7
100
AcDbVertex
100
AcDb2dVertex
 10
160.542389
 20
74.895914
 30
0.0
  0
VERTEX
  5
363
100
AcDbEntity
  8
1
390
0
 62
     7
100
AcDbVertex
100
AcDb2dVertex
 10
160.532307
 20
74.915981
 30
0.0
  0
VERTEX
  5
364
100
AcDbEntity
  8
1
390
0
 62
     7
100
AcDbVertex
100
AcDb2dVertex
 10
160.523064
 20
74.936416
 30
0.0
  0
VERTEX
  5
365
100
AcDbEntity
  8
1
390
0
 62
     7
100
AcDbVertex
100
AcDb2dVertex
 10
160.514441
 20
74.957803
 30
0.0
  0
VERTEX
  5
366
100
AcDbEntity
  8
1
390
0
 62
     7
100
AcDbVertex
100
AcDb2dVertex
 10
160.506719
 20
74.97954
 30
0.0
  0
VERTEX
  5
367
100
AcDbEntity
  8
1
390
0
 62
     7
100
AcDbVertex
100
AcDb2dVertex
 10
160.499916
 20
75.001568
 30
0.0
  0
VERTEX
  5
368
100
AcDbEntity
  8
1
390
0
 62
     7
100
AcDbVertex
100
AcDb2dVertex
 10
160.494049
 20
75.023828
 30
0.0
  0
VERTEX
  5
369
100
AcDbEntity
  8
1
390
0
 62
     7
100
AcDbVertex
100
AcDb2dVertex
 10
160.48855
 20
75.049282
 30
0.0
  0
VERTEX
  5
36A
100
AcDbEntity
  8
1
390
0
 62
     7
100
AcDbVertex
100
AcDb2dVertex
 10
160.48426
 20
75.074991
 30
0.0
  0
VERTEX
  5
36B
100
AcDbEntity
  8
1
390
0
 62
     7
100
AcDbVertex
100
AcDb2dVertex
 10
160.481187
 20
75.100869
 30
0.0
  0
VERTEX
  5
36C
100
AcDbEntity
  8
1
390
0
 62
     7
100
AcDbVertex
100
AcDb2dVertex
 10
160.479337
 20
75.126828
 30
0.0
  0
VERTEX
  5
36D
100
AcDbEntity
  8
1
390
0
 62
     7
100
AcDbVertex
100
AcDb2dVertex
 10
160.478719
 20
75.15278
 30
0.0
  0
SEQEND
  5
36E
100
AcDbEntity
  8
0
390
0
  0
LINE
  5
36F
100
AcDbEntity
  8
1
390
0
  6
Continuous
 62
     7
100
AcDbLine
 10
160.478719
 20
76.036114
 30
0.0
 11
160.478719
 21
75.15278
 31
0.0
  0
LINE
  5
370
100
AcDbEntity
  8
1
390
0
  6
Continuous
 62
     7
100
AcDbLine
 10
159.745385
 20
76.036114
 30
0.0
 11
160.478719
 21
76.036114
 31
0.0
  0
LINE
  5
371
100
AcDbEntity
  8
1
390
0
  6
Continuous
 62
     7
100
AcDbLine
 10
159.745385
 20
75.15278
 30
0.0
 11
159.745385
 21
76.036114
 31
0.0
  0
POLYLINE
  5
372
100
AcDbEntity
  8
1
390
0
  6
Continuous
 62
     7
100
AcDb2dPolyline
 66
     1
 10
0.0
 20
0.0
 30
0.0
 40
3.0
 41
3.0
  0
VERTEX
  5
373
100
AcDbEntity
  8
1
390
0
 62
     7
100
AcDbVertex
100
AcDb2dVertex
 10
159.745385
 20
75.15278
 30
0.0
  0
VERTEX
  5
374
100
AcDbEntity
  8
1
390
0
 62
     7
100
AcDbVertex
100
AcDb2dVertex
 10
159.74492
 20
75.130201
 30
0.0
  0
VERTEX
  5
375
100
AcDbEntity
  8
1
390
0
 62
     7
100
AcDbVertex
100
AcDb2dVertex
 10
159.743525
 20
75.107625
 30
0.0
  0
VERTEX
  5
376
100
AcDbEntity
  8
1
390
0
 62
     7
100
AcDbVertex
100
AcDb2dVertex
 10
159.741205
 20
75.085109
 30
0.0
  0
VERTEX
  5
377
100
AcDbEntity
  8
1
390
0
 62
     7
100
AcDbVertex
100
AcDb2dVertex
 10
159.73796
 20
75.062712
 30
0.0
  0
VERTEX
  5
378
100
AcDbEntity
  8
1
390
0
 62
     7
100
AcDbVertex
100
AcDb2dVertex
 10
159.733657
 20
75.039815
 30
0.0
  0
VERTEX
  5
379
100
AcDbEntity
  8
1
390
0
 62
     7
100
AcDbVertex
100
AcDb2dVertex
 10
159.728379
 20
75.017085
 30
0.0
  0
VERTEX
  5
37A
100
AcDbEntity
  8
1
390
0
 62
     7
100
AcDbVertex
100
AcDb2dVertex
 10
159.722141
 20
74.994583
 30
0.0
  0
VERTEX
  5
37B
100
AcDbEntity
  8
1
390
0
 62
     7
100
AcDbVertex
100
AcDb2dVertex
 10
159.714956
 20
74.972374
 30
0.0
  0
VERTEX
  5
37C
100
AcDbEntity
  8
1
390
0
 62
     7
100
AcDbVertex
100
AcDb2dVertex
 10
159.707065
 20
74.951083
 30
0.0
  0
VERTEX
  5
37D
100
AcDbEntity
  8
1
390
0
 62
     7
100
AcDbVertex
100
AcDb2dVertex
 10
159.698289
 20
74.930106
 30
0.0
  0
VERTEX
  5
37E
100
AcDbEntity
  8
1
390
0
 62
     7
100
AcDbVertex
100
AcDb2dVertex
 10
159.688652
 20
74.909499
 30
0.0
  0
VERTEX
  5
37F
100
AcDbEntity
  8
1
390
0
 62
     7
100
AcDbVertex
100
AcDb2dVertex
 10
159.678176
 20
74.889316
 30
0.0
  0
VERTEX
  5
380
100
AcDbEntity
  8
1
390
0
 62
     7
100
AcDbVertex
100
AcDb2dVertex
 10
159.666519
 20
74.869002
 30
0.0
  0
VERTEX
  5
381
100
AcDbEntity
  8
1
390
0
 62
     7
100
AcDbVertex
100
AcDb2dVertex
 10
159.653993
 20
74.849177
 30
0.0
  0
VERTEX
  5
382
100
AcDbEntity
  8
1
390
0
 62
     7
100
AcDbVertex
100
AcDb2dVertex
 10
159.640631
 20
74.829896
 30
0.0
  0
VERTEX
  5
383
100
AcDbEntity
  8
1
390
0
 62
     7
100
AcDbVertex
100
AcDb2dVertex
 10
159.62647
 20
74.811216
 30
0.0
  0
VERTEX
  5
384
100
AcDbEntity
  8
1
390
0
 62
     7
100
AcDbVertex
100
AcDb2dVertex
 10
159.612097
 20
74.793825
 30
0.0
  0
VERTEX
  5
385
100
AcDbEntity
  8
1
390
0
 62
     7
100
AcDbVertex
100
AcDb2dVertex
 10
159.597009
 20
74.777021
 30
0.0
  0
VERTEX
  5
386
100
AcDbEntity
  8
1
390
0
 62
     7
100
AcDbVertex
100
AcDb2dVertex
 10
159.581245
 20
74.760849
 30
0.0
  0
VERTEX
  5
387
100
AcDbEntity
  8
1
390
0
 62
     7
100
AcDbVertex
100
AcDb2dVertex
 10
159.564845
 20
74.74535
 30
0.0
  0
VERTEX
  5
388
100
AcDbEntity
  8
1
390
0
 62
     7
100
AcDbVertex
100
AcDb2dVertex
 10
159.547314
 20
74.730118
 30
0.0
  0
VERTEX
  5
389
100
AcDbEntity
  8
1
390
0
 62
     7
100
AcDbVertex
100
AcDb2dVertex
 10
159.529141
 20
74.715627
 30
0.0
  0
VERTEX
  5
38A
100
AcDbEntity
  8
1
390
0
 62
     7
100
AcDbVertex
100
AcDb2dVertex
 10
159.510379
 20
74.701918
 30
0.0
  0
VERTEX
  5
38B
100
AcDbEntity
  8
1
390
0
 62
     7
100
AcDbVertex
100
AcDb2dVertex
 10
159.491076
 20
74.689027
 30
0.0
  0
VERTEX
  5
38C
100
AcDbEntity
  8
1
390
0
 62
     7
100
AcDbVertex
100
AcDb2dVertex
 10
159.471899
 20
74.677346
 30
0.0
  0
VERTEX
  5
38D
100
AcDbEntity
  8
1
390
0
 62
     7
100
AcDbVertex
100
AcDb2dVertex
 10
159.452252
 20
74.666451
 30
0.0
  0
VERTEX
  5
38E
100
AcDbEntity
  8
1
390
0
 62
     7
100
AcDbVertex
100
AcDb2dVertex
 10
159.432184
 20
74.656369
 30
0.0
  0
VERTEX
  5
38F
100
AcDbEntity
  8
1
390
0
 62
     7
100
AcDbVertex
100
AcDb2dVertex
 10
159.41175
 20
74.647126
 30
0.0
  0
VERTEX
  5
390
100
AcDbEntity
  8
1
390
0
 62
     7
100
AcDbVertex
100
AcDb2dVertex
 10
159.390363
 20
74.638503
 30
0.0
  0
VERTEX
  5
391
100
AcDbEntity
  8
1
390
0
 62
     7
100
AcDbVertex
100
AcDb2dVertex
 10
159.368626
 20
74.630781
 30
0.0
  0
VERTEX
  5
392
100
AcDbEntity
  8
1
390
0
 62
     7
100
AcDbVertex
100
AcDb2dVertex
 10
159.346598
 20
74.623977
 30
0.0
  0
VERTEX
  5
393
100
AcDbEntity
  8
1
390
0
 62
     7
100
AcDbVertex
100
AcDb2dVertex
 10
159.324338
 20
74.618111
 30
0.0
  0
VERTEX
  5
394
100
AcDbEntity
  8
1
390
0
 62
     7
100
AcDbVertex
100
AcDb2dVertex
 10
159.298884
 20
74.612612
 30
0.0
  0
VERTEX
  5
395
100
AcDbEntity
  8
1
390
0
 62
     7
100
AcDbVertex
100
AcDb2dVertex
 10
159.273174
 20
74.608322
 30
0.0
  0
VERTEX
  5
396
100
AcDbEntity
  8
1
390
0
 62
     7
100
AcDbVertex
100
AcDb2dVertex
 10
159.247296
 20
74.605248
 30
0.0
  0
VERTEX
  5
397
100
AcDbEntity
  8
1
390
0
 62
     7
100
AcDbVertex
100
AcDb2dVertex
 10
159.221337
 20
74.603399
 30
0.0
  0
VERTEX
  5
398
100
AcDbEntity
  8
1
390
0
 62
     7
100
AcDbVertex
100
AcDb2dVertex
 10
159.195385
 20
74.60278
 30
0.0
  0
SEQEND
  5
399
100
AcDbEntity
  8
0
390
0
  0
POLYLINE
  5
39A
100
AcDbEntity
  8
1
390
0
  6
Continuous
 62
     7
100
AcDb2dPolyline
 66
     1
 10
0.0
 20
0.0
 30
0.0
 40
3.0
 41
3.0
  0
VERTEX
  5
39B
100
AcDbEntity
  8
1
390
0
 62
     7
100
AcDbVertex
100
AcDb2dVertex
 10
84.745385
 20
75.15278
 30
0.0
  0
VERTEX
  5
39C
100
AcDbEntity
  8
1
390
0
 62
     7
100
AcDbVertex
100
AcDb2dVertex
 10
84.74492
 20
75.130201
 30
0.0
  0
VERTEX
  5
39D
100
AcDbEntity
  8
1
390
0
 62
     7
100
AcDbVertex
100
AcDb2dVertex
 10
84.743525
 20
75.107625
 30
0.0
  0
VERTEX
  5
39E
100
AcDbEntity
  8
1
390
0
 62
     7
100
AcDbVertex
100
AcDb2dVertex
 10
84.741205
 20
75.085109
 30
0.0
  0
VERTEX
  5
39F
100
AcDbEntity
  8
1
390
0
 62
     7
100
AcDbVertex
100
AcDb2dVertex
 10
84.73796
 20
75.062712
 30
0.0
  0
VERTEX
  5
3A0
100
AcDbEntity
  8
1
390
0
 62
     7
100
AcDbVertex
100
AcDb2dVertex
 10
84.733657
 20
75.039815
 30
0.0
  0
VERTEX
  5
3A1
100
AcDbEntity
  8
1
390
0
 62
     7
100
AcDbVertex
100
AcDb2dVertex
 10
84.728379
 20
75.017085
 30
0.0
  0
VERTEX
  5
3A2
100
AcDbEntity
  8
1
390
0
 62
     7
100
AcDbVertex
100
AcDb2dVertex
 10
84.722141
 20
74.994583
 30
0.0
  0
VERTEX
  5
3A3
100
AcDbEntity
  8
1
390
0
 62
     7
100
AcDbVertex
100
AcDb2dVertex
 10
84.714956
 20
74.972374
 30
0.0
  0
VERTEX
  5
3A4
100
AcDbEntity
  8
1
390
0
 62
     7
100
AcDbVertex
100
AcDb2dVertex
 10
84.707065
 20
74.951083
 30
0.0
  0
VERTEX
  5
3A5
100
AcDbEntity
  8
1
390
0
 62
     7
100
AcDbVertex
100
AcDb2dVertex
 10
84.698289
 20
74.930106
 30
0.0
  0
VERTEX
  5
3A6
100
AcDbEntity
  8
1
390
0
 62
     7
100
AcDbVertex
100
AcDb2dVertex
 10
84.688652
 20
74.909499
 30
0.0
  0
VERTEX
  5
3A7
100
AcDbEntity
  8
1
390
0
 62
     7
100
AcDbVertex
100
AcDb2dVertex
 10
84.678176
 20
74.889316
 30
0.0
  0
VERTEX
  5
3A8
100
AcDbEntity
  8
1
390
0
 62
     7
100
AcDbVertex
100
AcDb2dVertex
 10
84.666519
 20
74.869002
 30
0.0
  0
VERTEX
  5
3A9
100
AcDbEntity
  8
1
390
0
 62
     7
100
AcDbVertex
100
AcDb2dVertex
 10
84.653993
 20
74.849177
 30
0.0
  0
VERTEX
  5
3AA
100
AcDbEntity
  8
1
390
0
 62
     7
100
AcDbVertex
100
AcDb2dVertex
 10
84.640631
 20
74.829896
 30
0.0
  0
VERTEX
  5
3AB
100
AcDbEntity
  8
1
390
0
 62
     7
100
AcDbVertex
100
AcDb2dVertex
 10
84.62647
 20
74.811216
 30
0.0
  0
VERTEX
  5
3AC
100
AcDbEntity
  8
1
390
0
 62
     7
100
AcDbVertex
100
AcDb2dVertex
 10
84.612097
 20
74.793825
 30
0.0
  0
VERTEX
  5
3AD
100
AcDbEntity
  8
1
390
0
 62
     7
100
AcDbVertex
100
AcDb2dVertex
 10
84.597009
 20
74.777021
 30
0.0
  0
VERTEX
  5
3AE
100
AcDbEntity
  8
1
390
0
 62
     7
100
AcDbVertex
100
AcDb2dVertex
 10
84.581245
 20
74.760849
 30
0.0
  0
VERTEX
  5
3AF
100
AcDbEntity
  8
1
390
0
 62
     7
100
AcDbVertex
100
AcDb2dVertex
 10
84.564845
 20
74.74535
 30
0.0
  0
VERTEX
  5
3B0
100
AcDbEntity
  8
1
390
0
 62
     7
100
AcDbVertex
100
AcDb2dVertex
 10
84.547314
 20
74.730118
 30
0.0
  0
VERTEX
  5
3B1
100
AcDbEntity
  8
1
390
0
 62
     7
100
AcDbVertex
100
AcDb2dVertex
 10
84.529141
 20
74.715627
 30
0.0
  0
VERTEX
  5
3B2
100
AcDbEntity
  8
1
390
0
 62
     7
100
AcDbVertex
100
AcDb2dVertex
 10
84.510379
 20
74.701918
 30
0.0
  0
VERTEX
  5
3B3
100
AcDbEntity
  8
1
390
0
 62
     7
100
AcDbVertex
100
AcDb2dVertex
 10
84.491076
 20
74.689027
 30
0.0
  0
VERTEX
  5
3B4
100
AcDbEntity
  8
1
390
0
 62
     7
100
AcDbVertex
100
AcDb2dVertex
 10
84.471899
 20
74.677346
 30
0.0
  0
VERTEX
  5
3B5
100
AcDbEntity
  8
1
390
0
 62
     7
100
AcDbVertex
100
AcDb2dVertex
 10
84.452252
 20
74.666451
 30
0.0
  0
VERTEX
  5
3B6
100
AcDbEntity
  8
1
390
0
 62
     7
100
AcDbVertex
100
AcDb2dVertex
 10
84.432184
 20
74.656369
 30
0.0
  0
VERTEX
  5
3B7
100
AcDbEntity
  8
1
390
0
 62
     7
100
AcDbVertex
100
AcDb2dVertex
 10
84.41175
 20
74.647126
 30
0.0
  0
VERTEX
  5
3B8
100
AcDbEntity
  8
1
390
0
 62
     7
100
AcDbVertex
100
AcDb2dVertex
 10
84.390363
 20
74.638503
 30
0.0
  0
VERTEX
  5
3B9
100
AcDbEntity
  8
1
390
0
 62
     7
100
AcDbVertex
100
AcDb2dVertex
 10
84.368626
 20
74.630781
 30
0.0
  0
VERTEX
  5
3BA
100
AcDbEntity
  8
1
390
0
 62
     7
100
AcDbVertex
100
AcDb2dVertex
 10
84.346598
 20
74.623977
 30
0.0
  0
VERTEX
  5
3BB
100
AcDbEntity
  8
1
390
0
 62
     7
100
AcDbVertex
100
AcDb2dVertex
 10
84.324338
 20
74.618111
 30
0.0
  0
VERTEX
  5
3BC
100
AcDbEntity
  8
1
390
0
 62
     7
100
AcDbVertex
100
AcDb2dVertex
 10
84.298884
 20
74.612612
 30
0.0
  0
VERTEX
  5
3BD
100
AcDbEntity
  8
1
390
0
 62
     7
100
AcDbVertex
100
AcDb2dVertex
 10
84.273174
 20
74.608322
 30
0.0
  0
VERTEX
  5
3BE
100
AcDbEntity
  8
1
390
0
 62
     7
100
AcDbVertex
100
AcDb2dVertex
 10
84.247296
 20
74.605248
 30
0.0
  0
VERTEX
  5
3BF
100
AcDbEntity
  8
1
390
0
 62
     7
100
AcDbVertex
100
AcDb2dVertex
 10
84.221337
 20
74.603399
 30
0.0
  0
VERTEX
  5
3C0
100
AcDbEntity
  8
1
390
0
 62
     7
100
AcDbVertex
100
AcDb2dVertex
 10
84.195385
 20
74.60278
 30
0.0
  0
SEQEND
  5
3C1
100
AcDbEntity
  8
0
390
0
  0
LINE
  5
3C2
100
AcDbEntity
  8
1
390
0
  6
Continuous
 62
     7
100
AcDbLine
 10
83.312052
 20
74.60278
 30
0.0
 11
84.195385
 21
74.60278
 31
0.0
  0
LINE
  5
3C3
100
AcDbEntity
  8
1
390
0
  6
Continuous
 62
     7
100
AcDbLine
 10
83.312052
 20
73.869447
 30
0.0
 11
83.312052
 21
74.60278
 31
0.0
  0
LINE
  5
3C4
100
AcDbEntity
  8
1
390
0
  6
Continuous
 62
     7
100
AcDbLine
 10
84.195385
 20
73.869447
 30
0.0
 11
83.312052
 21
73.869447
 31
0.0
  0
POLYLINE
  5
3C5
100
AcDbEntity
  8
1
390
0
  6
Continuous
 62
     7
100
AcDb2dPolyline
 66
     1
 10
0.0
 20
0.0
 30
0.0
 40
3.0
 41
3.0
  0
VERTEX
  5
3C6
100
AcDbEntity
  8
1
390
0
 62
     7
100
AcDbVertex
100
AcDb2dVertex
 10
84.195385
 20
73.869447
 30
0.0
  0
VERTEX
  5
3C7
100
AcDbEntity
  8
1
390
0
 62
     7
100
AcDbVertex
100
AcDb2dVertex
 10
84.217964
 20
73.868982
 30
0.0
  0
VERTEX
  5
3C8
100
AcDbEntity
  8
1
390
0
 62
     7
100
AcDbVertex
100
AcDb2dVertex
 10
84.240541
 20
73.867587
 30
0.0
  0
VERTEX
  5
3C9
100
AcDbEntity
  8
1
390
0
 62
     7
100
AcDbVertex
100
AcDb2dVertex
 10
84.263056
 20
73.865266
 30
0.0
  0
VERTEX
  5
3CA
100
AcDbEntity
  8
1
390
0
 62
     7
100
AcDbVertex
100
AcDb2dVertex
 10
84.285454
 20
73.862022
 30
0.0
  0
VERTEX
  5
3CB
100
AcDbEntity
  8
1
390
0
 62
     7
100
AcDbVertex
100
AcDb2dVertex
 10
84.308351
 20
73.857719
 30
0.0
  0
VERTEX
  5
3CC
100
AcDbEntity
  8
1
390
0
 62
     7
100
AcDbVertex
100
AcDb2dVertex
 10
84.331081
 20
73.852441
 30
0.0
  0
VERTEX
  5
3CD
100
AcDbEntity
  8
1
390
0
 62
     7
100
AcDbVertex
100
AcDb2dVertex
 10
84.353582
 20
73.846203
 30
0.0
  0
VERTEX
  5
3CE
100
AcDbEntity
  8
1
390
0
 62
     7
100
AcDbVertex
100
AcDb2dVertex
 10
84.375792
 20
73.839018
 30
0.0
  0
VERTEX
  5
3CF
100
AcDbEntity
  8
1
390
0
 62
     7
100
AcDbVertex
100
AcDb2dVertex
 10
84.397083
 20
73.831127
 30
0.0
  0
VERTEX
  5
3D0
100
AcDbEntity
  8
1
390
0
 62
     7
100
AcDbVertex
100
AcDb2dVertex
 10
84.41806
 20
73.822351
 30
0.0
  0
VERTEX
  5
3D1
100
AcDbEntity
  8
1
390
0
 62
     7
100
AcDbVertex
100
AcDb2dVertex
 10
84.438667
 20
73.812714
 30
0.0
  0
VERTEX
  5
3D2
100
AcDbEntity
  8
1
390
0
 62
     7
100
AcDbVertex
100
AcDb2dVertex
 10
84.458849
 20
73.802238
 30
0.0
  0
VERTEX
  5
3D3
100
AcDbEntity
  8
1
390
0
 62
     7
100
AcDbVertex
100
AcDb2dVertex
 10
84.479164
 20
73.790581
 30
0.0
  0
VERTEX
  5
3D4
100
AcDbEntity
  8
1
390
0
 62
     7
100
AcDbVertex
100
AcDb2dVertex
 10
84.498989
 20
73.778054
 30
0.0
  0
VERTEX
  5
3D5
100
AcDbEntity
  8
1
390
0
 62
     7
100
AcDbVertex
100
AcDb2dVertex
 10
84.518269
 20
73.764692
 30
0.0
  0
VERTEX
  5
3D6
100
AcDbEntity
  8
1
390
0
 62
     7
100
AcDbVertex
100
AcDb2dVertex
 10
84.53695
 20
73.750531
 30
0.0
  0
VERTEX
  5
3D7
100
AcDbEntity
  8
1
390
0
 62
     7
100
AcDbVertex
100
AcDb2dVertex
 10
84.554341
 20
73.736159
 30
0.0
  0
VERTEX
  5
3D8
100
AcDbEntity
  8
1
390
0
 62
     7
100
AcDbVertex
100
AcDb2dVertex
 10
84.571144
 20
73.72107
 30
0.0
  0
VERTEX
  5
3D9
100
AcDbEntity
  8
1
390
0
 62
     7
100
AcDbVertex
100
AcDb2dVertex
 10
84.587317
 20
73.705306
 30
0.0
  0
VERTEX
  5
3DA
100
AcDbEntity
  8
1
390
0
 62
     7
100
AcDbVertex
100
AcDb2dVertex
 10
84.602816
 20
73.688907
 30
0.0
  0
VERTEX
  5
3DB
100
AcDbEntity
  8
1
390
0
 62
     7
100
AcDbVertex
100
AcDb2dVertex
 10
84.618048
 20
73.671376
 30
0.0
  0
VERTEX
  5
3DC
100
AcDbEntity
  8
1
390
0
 62
     7
100
AcDbVertex
100
AcDb2dVertex
 10
84.632538
 20
73.653203
 30
0.0
  0
VERTEX
  5
3DD
100
AcDbEntity
  8
1
390
0
 62
     7
100
AcDbVertex
100
AcDb2dVertex
 10
84.646248
 20
73.63444
 30
0.0
  0
VERTEX
  5
3DE
100
AcDbEntity
  8
1
390
0
 62
     7
100
AcDbVertex
100
AcDb2dVertex
 10
84.659138
 20
73.615138
 30
0.0
  0
VERTEX
  5
3DF
100
AcDbEntity
  8
1
390
0
 62
     7
100
AcDbVertex
100
AcDb2dVertex
 10
84.67082
 20
73.595961
 30
0.0
  0
VERTEX
  5
3E0
100
AcDbEntity
  8
1
390
0
 62
     7
100
AcDbVertex
100
AcDb2dVertex
 10
84.681715
 20
73.576313
 30
0.0
  0
VERTEX
  5
3E1
100
AcDbEntity
  8
1
390
0
 62
     7
100
AcDbVertex
100
AcDb2dVertex
 10
84.691797
 20
73.556246
 30
0.0
  0
VERTEX
  5
3E2
100
AcDbEntity
  8
1
390
0
 62
     7
100
AcDbVertex
100
AcDb2dVertex
 10
84.70104
 20
73.535811
 30
0.0
  0
VERTEX
  5
3E3
100
AcDbEntity
  8
1
390
0
 62
     7
100
AcDbVertex
100
AcDb2dVertex
 10
84.709663
 20
73.514425
 30
0.0
  0
VERTEX
  5
3E4
100
AcDbEntity
  8
1
390
0
 62
     7
100
AcDbVertex
100
AcDb2dVertex
 10
84.717385
 20
73.492688
 30
0.0
  0
VERTEX
  5
3E5
100
AcDbEntity
  8
1
390
0
 62
     7
100
AcDbVertex
100
AcDb2dVertex
 10
84.724188
 20
73.47066
 30
0.0
  0
VERTEX
  5
3E6
100
AcDbEntity
  8
1
390
0
 62
     7
100
AcDbVertex
100
AcDb2dVertex
 10
84.730055
 20
73.4484
 30
0.0
  0
VERTEX
  5
3E7
100
AcDbEntity
  8
1
390
0
 62
     7
100
AcDbVertex
100
AcDb2dVertex
 10
84.735554
 20
73.422946
 30
0.0
  0
VERTEX
  5
3E8
100
AcDbEntity
  8
1
390
0
 62
     7
100
AcDbVertex
100
AcDb2dVertex
 10
84.739844
 20
73.397236
 30
0.0
  0
VERTEX
  5
3E9
100
AcDbEntity
  8
1
390
0
 62
     7
100
AcDbVertex
100
AcDb2dVertex
 10
84.742917
 20
73.371358
 30
0.0
  0
VERTEX
  5
3EA
100
AcDbEntity
  8
1
390
0
 62
     7
100
AcDbVertex
100
AcDb2dVertex
 10
84.744767
 20
73.345399
 30
0.0
  0
VERTEX
  5
3EB
100
AcDbEntity
  8
1
390
0
 62
     7
100
AcDbVertex
100
AcDb2dVertex
 10
84.745385
 20
73.319447
 30
0.0
  0
SEQEND
  5
3EC
100
AcDbEntity
  8
0
390
0
  0
LINE
  5
3ED
100
AcDbEntity
  8
1
390
0
  6
Continuous
 62
     7
100
AcDbLine
 10
84.745385
 20
72.436114
 30
0.0
 11
84.745385
 21
73.319447
 31
0.0
  0
LINE
  5
3EE
100
AcDbEntity
  8
1
390
0
  6
Continuous
 62
     7
100
AcDbLine
 10
85.478719
 20
72.436114
 30
0.0
 11
84.745385
 21
72.436114
 31
0.0
  0
LINE
  5
3EF
100
AcDbEntity
  8
1
390
0
  6
Continuous
 62
     7
100
AcDbLine
 10
85.478719
 20
73.319447
 30
0.0
 11
85.478719
 21
72.436114
 31
0.0
  0
POLYLINE
  5
3F0
100
AcDbEntity
  8
1
390
0
  6
Continuous
 62
     7
100
AcDb2dPolyline
 66
     1
 10
0.0
 20
0.0
 30
0.0
 40
3.0
 41
3.0
  0
VERTEX
  5
3F1
100
AcDbEntity
  8
1
390
0
 62
     7
100
AcDbVertex
100
AcDb2dVertex
 10
85.478719
 20
73.319447
 30
0.0
  0
VERTEX
  5
3F2
100
AcDbEntity
  8
1
390
0
 62
     7
100
AcDbVertex
100
AcDb2dVertex
 10
85.479184
 20
73.342026
 30
0.0
  0
VERTEX
  5
3F3
100
AcDbEntity
  8
1
390
0
 62
     7
100
AcDbVertex
100
AcDb2dVertex
 10
85.480579
 20
73.364602
 30
0.0
  0
VERTEX
  5
3F4
100
AcDbEntity
  8
1
390
0
 62
     7
100
AcDbVertex
100
AcDb2dVertex
 10
85.482899
 20
73.387118
 30
0.0
  0
VERTEX
  5
3F5
100
AcDbEntity
  8
1
390
0
 62
     7
100
AcDbVertex
100
AcDb2dVertex
 10
85.486144
 20
73.409516
 30
0.0
  0
VERTEX
  5
3F6
100
AcDbEntity
  8
1
390
0
 62
     7
100
AcDbVertex
100
AcDb2dVertex
 10
85.490447
 20
73.432413
 30
0.0
  0
VERTEX
  5
3F7
100
AcDbEntity
  8
1
390
0
 62
     7
100
AcDbVertex
100
AcDb2dVertex
 10
85.495725
 20
73.455143
 30
0.0
  0
VERTEX
  5
3F8
100
AcDbEntity
  8
1
390
0
 62
     7
100
AcDbVertex
100
AcDb2dVertex
 10
85.501963
 20
73.477644
 30
0.0
  0
VERTEX
  5
3F9
100
AcDbEntity
  8
1
390
0
 62
     7
100
AcDbVertex
100
AcDb2dVertex
 10
85.509148
 20
73.499853
 30
0.0
  0
VERTEX
  5
3FA
100
AcDbEntity
  8
1
390
0
 62
     7
100
AcDbVertex
100
AcDb2dVertex
 10
85.517039
 20
73.521145
 30
0.0
  0
VERTEX
  5
3FB
100
AcDbEntity
  8
1
390
0
 62
     7
100
AcDbVertex
100
AcDb2dVertex
 10
85.525815
 20
73.542122
 30
0.0
  0
VERTEX
  5
3FC
100
AcDbEntity
  8
1
390
0
 62
     7
100
AcDbVertex
100
AcDb2dVertex
 10
85.535452
 20
73.562729
 30
0.0
  0
VERTEX
  5
3FD
100
AcDbEntity
  8
1
390
0
 62
     7
100
AcDbVertex
100
AcDb2dVertex
 10
85.545928
 20
73.582911
 30
0.0
  0
VERTEX
  5
3FE
100
AcDbEntity
  8
1
390
0
 62
     7
100
AcDbVertex
100
AcDb2dVertex
 10
85.557584
 20
73.603225
 30
0.0
  0
VERTEX
  5
3FF
100
AcDbEntity
  8
1
390
0
 62
     7
100
AcDbVertex
100
AcDb2dVertex
 10
85.570111
 20
73.623051
 30
0.0
  0
VERTEX
  5
400
100
AcDbEntity
  8
1
390
0
 62
     7
100
AcDbVertex
100
AcDb2dVertex
 10
85.583473
 20
73.642331
 30
0.0
  0
VERTEX
  5
401
100
AcDbEntity
  8
1
390
0
 62
     7
100
AcDbVertex
100
AcDb2dVertex
 10
85.597634
 20
73.661012
 30
0.0
  0
VERTEX
  5
402
100
AcDbEntity
  8
1
390
0
 62
     7
100
AcDbVertex
100
AcDb2dVertex
 10
85.612007
 20
73.678403
 30
0.0
  0
VERTEX
  5
403
100
AcDbEntity
  8
1
390
0
 62
     7
100
AcDbVertex
100
AcDb2dVertex
 10
85.627095
 20
73.695206
 30
0.0
  0
VERTEX
  5
404
100
AcDbEntity
  8
1
390
0
 62
     7
100
AcDbVertex
100
AcDb2dVertex
 10
85.642859
 20
73.711379
 30
0.0
  0
VERTEX
  5
405
100
AcDbEntity
  8
1
390
0
 62
     7
100
AcDbVertex
100
AcDb2dVertex
 10
85.659259
 20
73.726878
 30
0.0
  0
VERTEX
  5
406
100
AcDbEntity
  8
1
390
0
 62
     7
100
AcDbVertex
100
AcDb2dVertex
 10
85.67679
 20
73.74211
 30
0.0
  0
VERTEX
  5
407
100
AcDbEntity
  8
1
390
0
 62
     7
100
AcDbVertex
100
AcDb2dVertex
 10
85.694962
 20
73.7566
 30
0.0
  0
VERTEX
  5
408
100
AcDbEntity
  8
1
390
0
 62
     7
100
AcDbVertex
100
AcDb2dVertex
 10
85.713725
 20
73.77031
 30
0.0
  0
VERTEX
  5
409
100
AcDbEntity
  8
1
390
0
 62
     7
100
AcDbVertex
100
AcDb2dVertex
 10
85.733028
 20
73.7832
 30
0.0
  0
VERTEX
  5
40A
100
AcDbEntity
  8
1
390
0
 62
     7
100
AcDbVertex
100
AcDb2dVertex
 10
85.752205
 20
73.794882
 30
0.0
  0
VERTEX
  5
40B
100
AcDbEntity
  8
1
390
0
 62
     7
100
AcDbVertex
100
AcDb2dVertex
 10
85.771852
 20
73.805776
 30
0.0
  0
VERTEX
  5
40C
100
AcDbEntity
  8
1
390
0
 62
     7
100
AcDbVertex
100
AcDb2dVertex
 10
85.79192
 20
73.815858
 30
0.0
  0
VERTEX
  5
40D
100
AcDbEntity
  8
1
390
0
 62
     7
100
AcDbVertex
100
AcDb2dVertex
 10
85.812354
 20
73.825102
 30
0.0
  0
VERTEX
  5
40E
100
AcDbEntity
  8
1
390
0
 62
     7
100
AcDbVertex
100
AcDb2dVertex
 10
85.833741
 20
73.833725
 30
0.0
  0
VERTEX
  5
40F
100
AcDbEntity
  8
1
390
0
 62
     7
100
AcDbVertex
100
AcDb2dVertex
 10
85.855478
 20
73.841447
 30
0.0
  0
VERTEX
  5
410
100
AcDbEntity
  8
1
390
0
 62
     7
100
AcDbVertex
100
AcDb2dVertex
 10
85.877506
 20
73.84825
 30
0.0
  0
VERTEX
  5
411
100
AcDbEntity
  8
1
390
0
 62
     7
100
AcDbVertex
100
AcDb2dVertex
 10
85.899766
 20
73.854116
 30
0.0
  0
VERTEX
  5
412
100
AcDbEntity
  8
1
390
0
 62
     7
100
AcDbVertex
100
AcDb2dVertex
 10
85.92522
 20
73.859615
 30
0.0
  0
VERTEX
  5
413
100
AcDbEntity
  8
1
390
0
 62
     7
100
AcDbVertex
100
AcDb2dVertex
 10
85.95093
 20
73.863906
 30
0.0
  0
VERTEX
  5
414
100
AcDbEntity
  8
1
390
0
 62
     7
100
AcDbVertex
100
AcDb2dVertex
 10
85.976808
 20
73.866979
 30
0.0
  0
VERTEX
  5
415
100
AcDbEntity
  8
1
390
0
 62
     7
100
AcDbVertex
100
AcDb2dVertex
 10
86.002767
 20
73.868829
 30
0.0
  0
VERTEX
  5
416
100
AcDbEntity
  8
1
390
0
 62
     7
100
AcDbVertex
100
AcDb2dVertex
 10
86.028719
 20
73.869447
 30
0.0
  0
SEQEND
  5
417
100
AcDbEntity
  8
0
390
0
  0
LINE
  5
418
100
AcDbEntity
  8
1
390
0
  6
Continuous
 62
     7
100
AcDbLine
 10
86.912052
 20
73.869447
 30
0.0
 11
86.028719
 21
73.869447
 31
0.0
  0
LINE
  5
419
100
AcDbEntity
  8
1
390
0
  6
Continuous
 62
     7
100
AcDbLine
 10
86.912052
 20
74.60278
 30
0.0
 11
86.912052
 21
73.869447
 31
0.0
  0
LINE
  5
41A
100
AcDbEntity
  8
1
390
0
  6
Continuous
 62
     7
100
AcDbLine
 10
86.028719
 20
74.60278
 30
0.0
 11
86.912052
 21
74.60278
 31
0.0
  0
POLYLINE
  5
41B
100
AcDbEntity
  8
1
390
0
  6
Continuous
 62
     7
100
AcDb2dPolyline
 66
     1
 10
0.0
 20
0.0
 30
0.0
 40
3.0
 41
3.0
  0
VERTEX
  5
41C
100
AcDbEntity
  8
1
390
0
 62
     7
100
AcDbVertex
100
AcDb2dVertex
 10
86.028719
 20
74.60278
 30
0.0
  0
VERTEX
  5
41D
100
AcDbEntity
  8
1
390
0
 62
     7
100
AcDbVertex
100
AcDb2dVertex
 10
86.00614
 20
74.603246
 30
0.0
  0
VERTEX
  5
41E
100
AcDbEntity
  8
1
390
0
 62
     7
100
AcDbVertex
100
AcDb2dVertex
 10
85.983563
 20
74.60464
 30
0.0
  0
VERTEX
  5
41F
100
AcDbEntity
  8
1
390
0
 62
     7
100
AcDbVertex
100
AcDb2dVertex
 10
85.961048
 20
74.606961
 30
0.0
  0
VERTEX
  5
420
100
AcDbEntity
  8
1
390
0
 62
     7
100
AcDbVertex
100
AcDb2dVertex
 10
85.93865
 20
74.610205
 30
0.0
  0
VERTEX
  5
421
100
AcDbEntity
  8
1
390
0
 62
     7
100
AcDbVertex
100
AcDb2dVertex
 10
85.915753
 20
74.614509
 30
0.0
  0
VERTEX
  5
422
100
AcDbEntity
  8
1
390
0
 62
     7
100
AcDbVertex
100
AcDb2dVertex
 10
85.893023
 20
74.619786
 30
0.0
  0
VERTEX
  5
423
100
AcDbEntity
  8
1
390
0
 62
     7
100
AcDbVertex
100
AcDb2dVertex
 10
85.870522
 20
74.626025
 30
0.0
  0
VERTEX
  5
424
100
AcDbEntity
  8
1
390
0
 62
     7
100
AcDbVertex
100
AcDb2dVertex
 10
85.848312
 20
74.63321
 30
0.0
  0
VERTEX
  5
425
100
AcDbEntity
  8
1
390
0
 62
     7
100
AcDbVertex
100
AcDb2dVertex
 10
85.827021
 20
74.641101
 30
0.0
  0
VERTEX
  5
426
100
AcDbEntity
  8
1
390
0
 62
     7
100
AcDbVertex
100
AcDb2dVertex
 10
85.806044
 20
74.649876
 30
0.0
  0
VERTEX
  5
427
100
AcDbEntity
  8
1
390
0
 62
     7
100
AcDbVertex
100
AcDb2dVertex
 10
85.785437
 20
74.659514
 30
0.0
  0
VERTEX
  5
428
100
AcDbEntity
  8
1
390
0
 62
     7
100
AcDbVertex
100
AcDb2dVertex
 10
85.765255
 20
74.66999
 30
0.0
  0
VERTEX
  5
429
100
AcDbEntity
  8
1
390
0
 62
     7
100
AcDbVertex
100
AcDb2dVertex
 10
85.74494
 20
74.681646
 30
0.0
  0
VERTEX
  5
42A
100
AcDbEntity
  8
1
390
0
 62
     7
100
AcDbVertex
100
AcDb2dVertex
 10
85.725115
 20
74.694173
 30
0.0
  0
VERTEX
  5
42B
100
AcDbEntity
  8
1
390
0
 62
     7
100
AcDbVertex
100
AcDb2dVertex
 10
85.705835
 20
74.707535
 30
0.0
  0
VERTEX
  5
42C
100
AcDbEntity
  8
1
390
0
 62
     7
100
AcDbVertex
100
AcDb2dVertex
 10
85.687154
 20
74.721696
 30
0.0
  0
VERTEX
  5
42D
100
AcDbEntity
  8
1
390
0
 62
     7
100
AcDbVertex
100
AcDb2dVertex
 10
85.669763
 20
74.736069
 30
0.0
  0
VERTEX
  5
42E
100
AcDbEntity
  8
1
390
0
 62
     7
100
AcDbVertex
100
AcDb2dVertex
 10
85.652959
 20
74.751157
 30
0.0
  0
VERTEX
  5
42F
100
AcDbEntity
  8
1
390
0
 62
     7
100
AcDbVertex
100
AcDb2dVertex
 10
85.636787
 20
74.766921
 30
0.0
  0
VERTEX
  5
430
100
AcDbEntity
  8
1
390
0
 62
     7
100
AcDbVertex
100
AcDb2dVertex
 10
85.621288
 20
74.783321
 30
0.0
  0
VERTEX
  5
431
100
AcDbEntity
  8
1
390
0
 62
     7
100
AcDbVertex
100
AcDb2dVertex
 10
85.606056
 20
74.800852
 30
0.0
  0
VERTEX
  5
432
100
AcDbEntity
  8
1
390
0
 62
     7
100
AcDbVertex
100
AcDb2dVertex
 10
85.591566
 20
74.819024
 30
0.0
  0
VERTEX
  5
433
100
AcDbEntity
  8
1
390
0
 62
     7
100
AcDbVertex
100
AcDb2dVertex
 10
85.577856
 20
74.837787
 30
0.0
  0
VERTEX
  5
434
100
AcDbEntity
  8
1
390
0
 62
     7
100
AcDbVertex
100
AcDb2dVertex
 10
85.564966
 20
74.857089
 30
0.0
  0
VERTEX
  5
435
100
AcDbEntity
  8
1
390
0
 62
     7
100
AcDbVertex
100
AcDb2dVertex
 10
85.553284
 20
74.876266
 30
0.0
  0
VERTEX
  5
436
100
AcDbEntity
  8
1
390
0
 62
     7
100
AcDbVertex
100
AcDb2dVertex
 10
85.542389
 20
74.895914
 30
0.0
  0
VERTEX
  5
437
100
AcDbEntity
  8
1
390
0
 62
     7
100
AcDbVertex
100
AcDb2dVertex
 10
85.532307
 20
74.915981
 30
0.0
  0
VERTEX
  5
438
100
AcDbEntity
  8
1
390
0
 62
     7
100
AcDbVertex
100
AcDb2dVertex
 10
85.523064
 20
74.936416
 30
0.0
  0
VERTEX
  5
439
100
AcDbEntity
  8
1
390
0
 62
     7
100
AcDbVertex
100
AcDb2dVertex
 10
85.514441
 20
74.957803
 30
0.0
  0
VERTEX
  5
43A
100
AcDbEntity
  8
1
390
0
 62
     7
100
AcDbVertex
100
AcDb2dVertex
 10
85.506719
 20
74.97954
 30
0.0
  0
VERTEX
  5
43B
100
AcDbEntity
  8
1
390
0
 62
     7
100
AcDbVertex
100
AcDb2dVertex
 10
85.499916
 20
75.001568
 30
0.0
  0
VERTEX
  5
43C
100
AcDbEntity
  8
1
390
0
 62
     7
100
AcDbVertex
100
AcDb2dVertex
 10
85.494049
 20
75.023828
 30
0.0
  0
VERTEX
  5
43D
100
AcDbEntity
  8
1
390
0
 62
     7
100
AcDbVertex
100
AcDb2dVertex
 10
85.48855
 20
75.049282
 30
0.0
  0
VERTEX
  5
43E
100
AcDbEntity
  8
1
390
0
 62
     7
100
AcDbVertex
100
AcDb2dVertex
 10
85.48426
 20
75.074991
 30
0.0
  0
VERTEX
  5
43F
100
AcDbEntity
  8
1
390
0
 62
     7
100
AcDbVertex
100
AcDb2dVertex
 10
85.481187
 20
75.100869
 30
0.0
  0
VERTEX
  5
440
100
AcDbEntity
  8
1
390
0
 62
     7
100
AcDbVertex
100
AcDb2dVertex
 10
85.479337
 20
75.126828
 30
0.0
  0
VERTEX
  5
441
100
AcDbEntity
  8
1
390
0
 62
     7
100
AcDbVertex
100
AcDb2dVertex
 10
85.478719
 20
75.15278
 30
0.0
  0
SEQEND
  5
442
100
AcDbEntity
  8
0
390
0
  0
LINE
  5
443
100
AcDbEntity
  8
1
390
0
  6
Continuous
 62
     7
100
AcDbLine
 10
85.478719
 20
76.036114
 30
0.0
 11
85.478719
 21
75.15278
 31
0.0
  0
LINE
  5
444
100
AcDbEntity
  8
1
390
0
  6
Continuous
 62
     7
100
AcDbLine
 10
84.745385
 20
76.036114
 30
0.0
 11
85.478719
 21
76.036114
 31
0.0
  0
LINE
  5
445
100
AcDbEntity
  8
1
390
0
  6
Continuous
 62
     7
100
AcDbLine
 10
84.745385
 20
75.15278
 30
0.0
 11
84.745385
 21
76.036114
 31
0.0
  0
LINE
  5
446
100
AcDbEntity
  8
1
390
0
  6
Continuous
 62
     7
100
AcDbLine
 10
103.812052
 20
69.60278
 30
0.0
 11
104.695385
 21
69.60278
 31
0.0
  0
LINE
  5
447
100
AcDbEntity
  8
1
390
0
  6
Continuous
 62
     7
100
AcDbLine
 10
103.812052
 20
68.869447
 30
0.0
 11
103.812052
 21
69.60278
 31
0.0
  0
LINE
  5
448
100
AcDbEntity
  8
1
390
0
  6
Continuous
 62
     7
100
AcDbLine
 10
104.695385
 20
68.869447
 30
0.0
 11
103.812052
 21
68.869447
 31
0.0
  0
LINE
  5
449
100
AcDbEntity
  8
1
390
0
  6
Continuous
 62
     7
100
AcDbLine
 10
105.245385
 20
67.436114
 30
0.0
 11
105.245385
 21
68.319447
 31
0.0
  0
LINE
  5
44A
100
AcDbEntity
  8
1
390
0
  6
Continuous
 62
     7
100
AcDbLine
 10
105.978719
 20
67.436114
 30
0.0
 11
105.245385
 21
67.436114
 31
0.0
  0
LINE
  5
44B
100
AcDbEntity
  8
1
390
0
  6
Continuous
 62
     7
100
AcDbLine
 10
105.978719
 20
68.319447
 30
0.0
 11
105.978719
 21
67.436114
 31
0.0
  0
POLYLINE
  5
44C
100
AcDbEntity
  8
1
390
0
  6
Continuous
 62
     7
100
AcDb2dPolyline
 66
     1
 10
0.0
 20
0.0
 30
0.0
 40
3.0
 41
3.0
  0
VERTEX
  5
44D
100
AcDbEntity
  8
1
390
0
 62
     7
100
AcDbVertex
100
AcDb2dVertex
 10
105.978719
 20
68.319447
 30
0.0
  0
VERTEX
  5
44E
100
AcDbEntity
  8
1
390
0
 62
     7
100
AcDbVertex
100
AcDb2dVertex
 10
105.979184
 20
68.342026
 30
0.0
  0
VERTEX
  5
44F
100
AcDbEntity
  8
1
390
0
 62
     7
100
AcDbVertex
100
AcDb2dVertex
 10
105.980579
 20
68.364602
 30
0.0
  0
VERTEX
  5
450
100
AcDbEntity
  8
1
390
0
 62
     7
100
AcDbVertex
100
AcDb2dVertex
 10
105.982899
 20
68.387118
 30
0.0
  0
VERTEX
  5
451
100
AcDbEntity
  8
1
390
0
 62
     7
100
AcDbVertex
100
AcDb2dVertex
 10
105.986144
 20
68.409516
 30
0.0
  0
VERTEX
  5
452
100
AcDbEntity
  8
1
390
0
 62
     7
100
AcDbVertex
100
AcDb2dVertex
 10
105.990447
 20
68.432413
 30
0.0
  0
VERTEX
  5
453
100
AcDbEntity
  8
1
390
0
 62
     7
100
AcDbVertex
100
AcDb2dVertex
 10
105.995725
 20
68.455143
 30
0.0
  0
VERTEX
  5
454
100
AcDbEntity
  8
1
390
0
 62
     7
100
AcDbVertex
100
AcDb2dVertex
 10
106.001963
 20
68.477644
 30
0.0
  0
VERTEX
  5
455
100
AcDbEntity
  8
1
390
0
 62
     7
100
AcDbVertex
100
AcDb2dVertex
 10
106.009148
 20
68.499853
 30
0.0
  0
VERTEX
  5
456
100
AcDbEntity
  8
1
390
0
 62
     7
100
AcDbVertex
100
AcDb2dVertex
 10
106.017039
 20
68.521145
 30
0.0
  0
VERTEX
  5
457
100
AcDbEntity
  8
1
390
0
 62
     7
100
AcDbVertex
100
AcDb2dVertex
 10
106.025815
 20
68.542122
 30
0.0
  0
VERTEX
  5
458
100
AcDbEntity
  8
1
390
0
 62
     7
100
AcDbVertex
100
AcDb2dVertex
 10
106.035452
 20
68.562729
 30
0.0
  0
VERTEX
  5
459
100
AcDbEntity
  8
1
390
0
 62
     7
100
AcDbVertex
100
AcDb2dVertex
 10
106.045928
 20
68.582911
 30
0.0
  0
VERTEX
  5
45A
100
AcDbEntity
  8
1
390
0
 62
     7
100
AcDbVertex
100
AcDb2dVertex
 10
106.057584
 20
68.603225
 30
0.0
  0
VERTEX
  5
45B
100
AcDbEntity
  8
1
390
0
 62
     7
100
AcDbVertex
100
AcDb2dVertex
 10
106.070111
 20
68.623051
 30
0.0
  0
VERTEX
  5
45C
100
AcDbEntity
  8
1
390
0
 62
     7
100
AcDbVertex
100
AcDb2dVertex
 10
106.083473
 20
68.642331
 30
0.0
  0
VERTEX
  5
45D
100
AcDbEntity
  8
1
390
0
 62
     7
100
AcDbVertex
100
AcDb2dVertex
 10
106.097634
 20
68.661012
 30
0.0
  0
VERTEX
  5
45E
100
AcDbEntity
  8
1
390
0
 62
     7
100
AcDbVertex
100
AcDb2dVertex
 10
106.112007
 20
68.678403
 30
0.0
  0
VERTEX
  5
45F
100
AcDbEntity
  8
1
390
0
 62
     7
100
AcDbVertex
100
AcDb2dVertex
 10
106.127095
 20
68.695206
 30
0.0
  0
VERTEX
  5
460
100
AcDbEntity
  8
1
390
0
 62
     7
100
AcDbVertex
100
AcDb2dVertex
 10
106.142859
 20
68.711379
 30
0.0
  0
VERTEX
  5
461
100
AcDbEntity
  8
1
390
0
 62
     7
100
AcDbVertex
100
AcDb2dVertex
 10
106.159259
 20
68.726878
 30
0.0
  0
VERTEX
  5
462
100
AcDbEntity
  8
1
390
0
 62
     7
100
AcDbVertex
100
AcDb2dVertex
 10
106.17679
 20
68.74211
 30
0.0
  0
VERTEX
  5
463
100
AcDbEntity
  8
1
390
0
 62
     7
100
AcDbVertex
100
AcDb2dVertex
 10
106.194962
 20
68.7566
 30
0.0
  0
VERTEX
  5
464
100
AcDbEntity
  8
1
390
0
 62
     7
100
AcDbVertex
100
AcDb2dVertex
 10
106.213725
 20
68.77031
 30
0.0
  0
VERTEX
  5
465
100
AcDbEntity
  8
1
390
0
 62
     7
100
AcDbVertex
100
AcDb2dVertex
 10
106.233028
 20
68.7832
 30
0.0
  0
VERTEX
  5
466
100
AcDbEntity
  8
1
390
0
 62
     7
100
AcDbVertex
100
AcDb2dVertex
 10
106.252205
 20
68.794882
 30
0.0
  0
VERTEX
  5
467
100
AcDbEntity
  8
1
390
0
 62
     7
100
AcDbVertex
100
AcDb2dVertex
 10
106.271852
 20
68.805776
 30
0.0
  0
VERTEX
  5
468
100
AcDbEntity
  8
1
390
0
 62
     7
100
AcDbVertex
100
AcDb2dVertex
 10
106.29192
 20
68.815858
 30
0.0
  0
VERTEX
  5
469
100
AcDbEntity
  8
1
390
0
 62
     7
100
AcDbVertex
100
AcDb2dVertex
 10
106.312354
 20
68.825102
 30
0.0
  0
VERTEX
  5
46A
100
AcDbEntity
  8
1
390
0
 62
     7
100
AcDbVertex
100
AcDb2dVertex
 10
106.333741
 20
68.833725
 30
0.0
  0
VERTEX
  5
46B
100
AcDbEntity
  8
1
390
0
 62
     7
100
AcDbVertex
100
AcDb2dVertex
 10
106.355478
 20
68.841447
 30
0.0
  0
VERTEX
  5
46C
100
AcDbEntity
  8
1
390
0
 62
     7
100
AcDbVertex
100
AcDb2dVertex
 10
106.377506
 20
68.84825
 30
0.0
  0
VERTEX
  5
46D
100
AcDbEntity
  8
1
390
0
 62
     7
100
AcDbVertex
100
AcDb2dVertex
 10
106.399766
 20
68.854116
 30
0.0
  0
VERTEX
  5
46E
100
AcDbEntity
  8
1
390
0
 62
     7
100
AcDbVertex
100
AcDb2dVertex
 10
106.42522
 20
68.859615
 30
0.0
  0
VERTEX
  5
46F
100
AcDbEntity
  8
1
390
0
 62
     7
100
AcDbVertex
100
AcDb2dVertex
 10
106.45093
 20
68.863906
 30
0.0
  0
VERTEX
  5
470
100
AcDbEntity
  8
1
390
0
 62
     7
100
AcDbVertex
100
AcDb2dVertex
 10
106.476808
 20
68.866979
 30
0.0
  0
VERTEX
  5
471
100
AcDbEntity
  8
1
390
0
 62
     7
100
AcDbVertex
100
AcDb2dVertex
 10
106.502767
 20
68.868829
 30
0.0
  0
VERTEX
  5
472
100
AcDbEntity
  8
1
390
0
 62
     7
100
AcDbVertex
100
AcDb2dVertex
 10
106.528719
 20
68.869447
 30
0.0
  0
SEQEND
  5
473
100
AcDbEntity
  8
0
390
0
  0
LINE
  5
474
100
AcDbEntity
  8
1
390
0
  6
Continuous
 62
     7
100
AcDbLine
 10
107.412052
 20
68.869447
 30
0.0
 11
106.528719
 21
68.869447
 31
0.0
  0
LINE
  5
475
100
AcDbEntity
  8
1
390
0
  6
Continuous
 62
     7
100
AcDbLine
 10
107.412052
 20
69.60278
 30
0.0
 11
107.412052
 21
68.869447
 31
0.0
  0
LINE
  5
476
100
AcDbEntity
  8
1
390
0
  6
Continuous
 62
     7
100
AcDbLine
 10
106.528719
 20
69.60278
 30
0.0
 11
107.412052
 21
69.60278
 31
0.0
  0
LINE
  5
477
100
AcDbEntity
  8
1
390
0
  6
Continuous
 62
     7
100
AcDbLine
 10
105.978719
 20
71.036114
 30
0.0
 11
105.978719
 21
70.15278
 31
0.0
  0
LINE
  5
478
100
AcDbEntity
  8
1
390
0
  6
Continuous
 62
     7
100
AcDbLine
 10
105.245385
 20
71.036114
 30
0.0
 11
105.978719
 21
71.036114
 31
0.0
  0
LINE
  5
479
100
AcDbEntity
  8
1
390
0
  6
Continuous
 62
     7
100
AcDbLine
 10
105.245385
 20
70.15278
 30
0.0
 11
105.245385
 21
71.036114
 31
0.0
  0
POLYLINE
  5
47A
100
AcDbEntity
  8
1
390
0
  6
Continuous
 62
     7
100
AcDb2dPolyline
 66
     1
 10
0.0
 20
0.0
 30
0.0
 40
3.0
 41
3.0
  0
VERTEX
  5
47B
100
AcDbEntity
  8
1
390
0
 62
     7
100
AcDbVertex
100
AcDb2dVertex
 10
106.528719
 20
69.60278
 30
0.0
  0
VERTEX
  5
47C
100
AcDbEntity
  8
1
390
0
 62
     7
100
AcDbVertex
100
AcDb2dVertex
 10
106.50614
 20
69.603246
 30
0.0
  0
VERTEX
  5
47D
100
AcDbEntity
  8
1
390
0
 62
     7
100
AcDbVertex
100
AcDb2dVertex
 10
106.483563
 20
69.60464
 30
0.0
  0
VERTEX
  5
47E
100
AcDbEntity
  8
1
390
0
 62
     7
100
AcDbVertex
100
AcDb2dVertex
 10
106.461048
 20
69.606961
 30
0.0
  0
VERTEX
  5
47F
100
AcDbEntity
  8
1
390
0
 62
     7
100
AcDbVertex
100
AcDb2dVertex
 10
106.43865
 20
69.610205
 30
0.0
  0
VERTEX
  5
480
100
AcDbEntity
  8
1
390
0
 62
     7
100
AcDbVertex
100
AcDb2dVertex
 10
106.415753
 20
69.614509
 30
0.0
  0
VERTEX
  5
481
100
AcDbEntity
  8
1
390
0
 62
     7
100
AcDbVertex
100
AcDb2dVertex
 10
106.393023
 20
69.619786
 30
0.0
  0
VERTEX
  5
482
100
AcDbEntity
  8
1
390
0
 62
     7
100
AcDbVertex
100
AcDb2dVertex
 10
106.370522
 20
69.626025
 30
0.0
  0
VERTEX
  5
483
100
AcDbEntity
  8
1
390
0
 62
     7
100
AcDbVertex
100
AcDb2dVertex
 10
106.348312
 20
69.63321
 30
0.0
  0
VERTEX
  5
484
100
AcDbEntity
  8
1
390
0
 62
     7
100
AcDbVertex
100
AcDb2dVertex
 10
106.327021
 20
69.641101
 30
0.0
  0
VERTEX
  5
485
100
AcDbEntity
  8
1
390
0
 62
     7
100
AcDbVertex
100
AcDb2dVertex
 10
106.306044
 20
69.649876
 30
0.0
  0
VERTEX
  5
486
100
AcDbEntity
  8
1
390
0
 62
     7
100
AcDbVertex
100
AcDb2dVertex
 10
106.285437
 20
69.659514
 30
0.0
  0
VERTEX
  5
487
100
AcDbEntity
  8
1
390
0
 62
     7
100
AcDbVertex
100
AcDb2dVertex
 10
106.265255
 20
69.66999
 30
0.0
  0
VERTEX
  5
488
100
AcDbEntity
  8
1
390
0
 62
     7
100
AcDbVertex
100
AcDb2dVertex
 10
106.24494
 20
69.681646
 30
0.0
  0
VERTEX
  5
489
100
AcDbEntity
  8
1
390
0
 62
     7
100
AcDbVertex
100
AcDb2dVertex
 10
106.225115
 20
69.694173
 30
0.0
  0
VERTEX
  5
48A
100
AcDbEntity
  8
1
390
0
 62
     7
100
AcDbVertex
100
AcDb2dVertex
 10
106.205835
 20
69.707535
 30
0.0
  0
VERTEX
  5
48B
100
AcDbEntity
  8
1
390
0
 62
     7
100
AcDbVertex
100
AcDb2dVertex
 10
106.187154
 20
69.721696
 30
0.0
  0
VERTEX
  5
48C
100
AcDbEntity
  8
1
390
0
 62
     7
100
AcDbVertex
100
AcDb2dVertex
 10
106.169763
 20
69.736069
 30
0.0
  0
VERTEX
  5
48D
100
AcDbEntity
  8
1
390
0
 62
     7
100
AcDbVertex
100
AcDb2dVertex
 10
106.152959
 20
69.751157
 30
0.0
  0
VERTEX
  5
48E
100
AcDbEntity
  8
1
390
0
 62
     7
100
AcDbVertex
100
AcDb2dVertex
 10
106.136787
 20
69.766921
 30
0.0
  0
VERTEX
  5
48F
100
AcDbEntity
  8
1
390
0
 62
     7
100
AcDbVertex
100
AcDb2dVertex
 10
106.121288
 20
69.783321
 30
0.0
  0
VERTEX
  5
490
100
AcDbEntity
  8
1
390
0
 62
     7
100
AcDbVertex
100
AcDb2dVertex
 10
106.106056
 20
69.800852
 30
0.0
  0
VERTEX
  5
491
100
AcDbEntity
  8
1
390
0
 62
     7
100
AcDbVertex
100
AcDb2dVertex
 10
106.091566
 20
69.819024
 30
0.0
  0
VERTEX
  5
492
100
AcDbEntity
  8
1
390
0
 62
     7
100
AcDbVertex
100
AcDb2dVertex
 10
106.077856
 20
69.837787
 30
0.0
  0
VERTEX
  5
493
100
AcDbEntity
  8
1
390
0
 62
     7
100
AcDbVertex
100
AcDb2dVertex
 10
106.064966
 20
69.857089
 30
0.0
  0
VERTEX
  5
494
100
AcDbEntity
  8
1
390
0
 62
     7
100
AcDbVertex
100
AcDb2dVertex
 10
106.053284
 20
69.876266
 30
0.0
  0
VERTEX
  5
495
100
AcDbEntity
  8
1
390
0
 62
     7
100
AcDbVertex
100
AcDb2dVertex
 10
106.042389
 20
69.895914
 30
0.0
  0
VERTEX
  5
496
100
AcDbEntity
  8
1
390
0
 62
     7
100
AcDbVertex
100
AcDb2dVertex
 10
106.032307
 20
69.915981
 30
0.0
  0
VERTEX
  5
497
100
AcDbEntity
  8
1
390
0
 62
     7
100
AcDbVertex
100
AcDb2dVertex
 10
106.023064
 20
69.936416
 30
0.0
  0
VERTEX
  5
498
100
AcDbEntity
  8
1
390
0
 62
     7
100
AcDbVertex
100
AcDb2dVertex
 10
106.014441
 20
69.957803
 30
0.0
  0
VERTEX
  5
499
100
AcDbEntity
  8
1
390
0
 62
     7
100
AcDbVertex
100
AcDb2dVertex
 10
106.006719
 20
69.97954
 30
0.0
  0
VERTEX
  5
49A
100
AcDbEntity
  8
1
390
0
 62
     7
100
AcDbVertex
100
AcDb2dVertex
 10
105.999916
 20
70.001568
 30
0.0
  0
VERTEX
  5
49B
100
AcDbEntity
  8
1
390
0
 62
     7
100
AcDbVertex
100
AcDb2dVertex
 10
105.994049
 20
70.023828
 30
0.0
  0
VERTEX
  5
49C
100
AcDbEntity
  8
1
390
0
 62
     7
100
AcDbVertex
100
AcDb2dVertex
 10
105.98855
 20
70.049282
 30
0.0
  0
VERTEX
  5
49D
100
AcDbEntity
  8
1
390
0
 62
     7
100
AcDbVertex
100
AcDb2dVertex
 10
105.98426
 20
70.074991
 30
0.0
  0
VERTEX
  5
49E
100
AcDbEntity
  8
1
390
0
 62
     7
100
AcDbVertex
100
AcDb2dVertex
 10
105.981187
 20
70.100869
 30
0.0
  0
VERTEX
  5
49F
100
AcDbEntity
  8
1
390
0
 62
     7
100
AcDbVertex
100
AcDb2dVertex
 10
105.979337
 20
70.126828
 30
0.0
  0
VERTEX
  5
4A0
100
AcDbEntity
  8
1
390
0
 62
     7
100
AcDbVertex
100
AcDb2dVertex
 10
105.978719
 20
70.15278
 30
0.0
  0
SEQEND
  5
4A1
100
AcDbEntity
  8
0
390
0
  0
POLYLINE
  5
4A2
100
AcDbEntity
  8
1
390
0
  6
Continuous
 62
     7
100
AcDb2dPolyline
 66
     1
 10
0.0
 20
0.0
 30
0.0
 40
3.0
 41
3.0
  0
VERTEX
  5
4A3
100
AcDbEntity
  8
1
390
0
 62
     7
100
AcDbVertex
100
AcDb2dVertex
 10
105.245385
 20
70.15278
 30
0.0
  0
VERTEX
  5
4A4
100
AcDbEntity
  8
1
390
0
 62
     7
100
AcDbVertex
100
AcDb2dVertex
 10
105.24492
 20
70.130201
 30
0.0
  0
VERTEX
  5
4A5
100
AcDbEntity
  8
1
390
0
 62
     7
100
AcDbVertex
100
AcDb2dVertex
 10
105.243525
 20
70.107625
 30
0.0
  0
VERTEX
  5
4A6
100
AcDbEntity
  8
1
390
0
 62
     7
100
AcDbVertex
100
AcDb2dVertex
 10
105.241205
 20
70.085109
 30
0.0
  0
VERTEX
  5
4A7
100
AcDbEntity
  8
1
390
0
 62
     7
100
AcDbVertex
100
AcDb2dVertex
 10
105.23796
 20
70.062712
 30
0.0
  0
VERTEX
  5
4A8
100
AcDbEntity
  8
1
390
0
 62
     7
100
AcDbVertex
100
AcDb2dVertex
 10
105.233657
 20
70.039815
 30
0.0
  0
VERTEX
  5
4A9
100
AcDbEntity
  8
1
390
0
 62
     7
100
AcDbVertex
100
AcDb2dVertex
 10
105.228379
 20
70.017085
 30
0.0
  0
VERTEX
  5
4AA
100
AcDbEntity
  8
1
390
0
 62
     7
100
AcDbVertex
100
AcDb2dVertex
 10
105.222141
 20
69.994583
 30
0.0
  0
VERTEX
  5
4AB
100
AcDbEntity
  8
1
390
0
 62
     7
100
AcDbVertex
100
AcDb2dVertex
 10
105.214956
 20
69.972374
 30
0.0
  0
VERTEX
  5
4AC
100
AcDbEntity
  8
1
390
0
 62
     7
100
AcDbVertex
100
AcDb2dVertex
 10
105.207065
 20
69.951083
 30
0.0
  0
VERTEX
  5
4AD
100
AcDbEntity
  8
1
390
0
 62
     7
100
AcDbVertex
100
AcDb2dVertex
 10
105.198289
 20
69.930106
 30
0.0
  0
VERTEX
  5
4AE
100
AcDbEntity
  8
1
390
0
 62
     7
100
AcDbVertex
100
AcDb2dVertex
 10
105.188652
 20
69.909499
 30
0.0
  0
VERTEX
  5
4AF
100
AcDbEntity
  8
1
390
0
 62
     7
100
AcDbVertex
100
AcDb2dVertex
 10
105.178176
 20
69.889316
 30
0.0
  0
VERTEX
  5
4B0
100
AcDbEntity
  8
1
390
0
 62
     7
100
AcDbVertex
100
AcDb2dVertex
 10
105.166519
 20
69.869002
 30
0.0
  0
VERTEX
  5
4B1
100
AcDbEntity
  8
1
390
0
 62
     7
100
AcDbVertex
100
AcDb2dVertex
 10
105.153993
 20
69.849177
 30
0.0
  0
VERTEX
  5
4B2
100
AcDbEntity
  8
1
390
0
 62
     7
100
AcDbVertex
100
AcDb2dVertex
 10
105.140631
 20
69.829896
 30
0.0
  0
VERTEX
  5
4B3
100
AcDbEntity
  8
1
390
0
 62
     7
100
AcDbVertex
100
AcDb2dVertex
 10
105.12647
 20
69.811216
 30
0.0
  0
VERTEX
  5
4B4
100
AcDbEntity
  8
1
390
0
 62
     7
100
AcDbVertex
100
AcDb2dVertex
 10
105.112097
 20
69.793825
 30
0.0
  0
VERTEX
  5
4B5
100
AcDbEntity
  8
1
390
0
 62
     7
100
AcDbVertex
100
AcDb2dVertex
 10
105.097009
 20
69.777021
 30
0.0
  0
VERTEX
  5
4B6
100
AcDbEntity
  8
1
390
0
 62
     7
100
AcDbVertex
100
AcDb2dVertex
 10
105.081245
 20
69.760849
 30
0.0
  0
VERTEX
  5
4B7
100
AcDbEntity
  8
1
390
0
 62
     7
100
AcDbVertex
100
AcDb2dVertex
 10
105.064845
 20
69.74535
 30
0.0
  0
VERTEX
  5
4B8
100
AcDbEntity
  8
1
390
0
 62
     7
100
AcDbVertex
100
AcDb2dVertex
 10
105.047314
 20
69.730118
 30
0.0
  0
VERTEX
  5
4B9
100
AcDbEntity
  8
1
390
0
 62
     7
100
AcDbVertex
100
AcDb2dVertex
 10
105.029141
 20
69.715627
 30
0.0
  0
VERTEX
  5
4BA
100
AcDbEntity
  8
1
390
0
 62
     7
100
AcDbVertex
100
AcDb2dVertex
 10
105.010379
 20
69.701918
 30
0.0
  0
VERTEX
  5
4BB
100
AcDbEntity
  8
1
390
0
 62
     7
100
AcDbVertex
100
AcDb2dVertex
 10
104.991076
 20
69.689027
 30
0.0
  0
VERTEX
  5
4BC
100
AcDbEntity
  8
1
390
0
 62
     7
100
AcDbVertex
100
AcDb2dVertex
 10
104.971899
 20
69.677346
 30
0.0
  0
VERTEX
  5
4BD
100
AcDbEntity
  8
1
390
0
 62
     7
100
AcDbVertex
100
AcDb2dVertex
 10
104.952252
 20
69.666451
 30
0.0
  0
VERTEX
  5
4BE
100
AcDbEntity
  8
1
390
0
 62
     7
100
AcDbVertex
100
AcDb2dVertex
 10
104.932184
 20
69.656369
 30
0.0
  0
VERTEX
  5
4BF
100
AcDbEntity
  8
1
390
0
 62
     7
100
AcDbVertex
100
AcDb2dVertex
 10
104.91175
 20
69.647126
 30
0.0
  0
VERTEX
  5
4C0
100
AcDbEntity
  8
1
390
0
 62
     7
100
AcDbVertex
100
AcDb2dVertex
 10
104.890363
 20
69.638503
 30
0.0
  0
VERTEX
  5
4C1
100
AcDbEntity
  8
1
390
0
 62
     7
100
AcDbVertex
100
AcDb2dVertex
 10
104.868626
 20
69.630781
 30
0.0
  0
VERTEX
  5
4C2
100
AcDbEntity
  8
1
390
0
 62
     7
100
AcDbVertex
100
AcDb2dVertex
 10
104.846598
 20
69.623977
 30
0.0
  0
VERTEX
  5
4C3
100
AcDbEntity
  8
1
390
0
 62
     7
100
AcDbVertex
100
AcDb2dVertex
 10
104.824338
 20
69.618111
 30
0.0
  0
VERTEX
  5
4C4
100
AcDbEntity
  8
1
390
0
 62
     7
100
AcDbVertex
100
AcDb2dVertex
 10
104.798884
 20
69.612612
 30
0.0
  0
VERTEX
  5
4C5
100
AcDbEntity
  8
1
390
0
 62
     7
100
AcDbVertex
100
AcDb2dVertex
 10
104.773174
 20
69.608322
 30
0.0
  0
VERTEX
  5
4C6
100
AcDbEntity
  8
1
390
0
 62
     7
100
AcDbVertex
100
AcDb2dVertex
 10
104.747296
 20
69.605248
 30
0.0
  0
VERTEX
  5
4C7
100
AcDbEntity
  8
1
390
0
 62
     7
100
AcDbVertex
100
AcDb2dVertex
 10
104.721337
 20
69.603399
 30
0.0
  0
VERTEX
  5
4C8
100
AcDbEntity
  8
1
390
0
 62
     7
100
AcDbVertex
100
AcDb2dVertex
 10
104.695385
 20
69.60278
 30
0.0
  0
SEQEND
  5
4C9
100
AcDbEntity
  8
0
390
0
  0
POLYLINE
  5
4CA
100
AcDbEntity
  8
1
390
0
  6
Continuous
 62
     7
100
AcDb2dPolyline
 66
     1
 10
0.0
 20
0.0
 30
0.0
 40
3.0
 41
3.0
  0
VERTEX
  5
4CB
100
AcDbEntity
  8
1
390
0
 62
     7
100
AcDbVertex
100
AcDb2dVertex
 10
104.695385
 20
68.869447
 30
0.0
  0
VERTEX
  5
4CC
100
AcDbEntity
  8
1
390
0
 62
     7
100
AcDbVertex
100
AcDb2dVertex
 10
104.717964
 20
68.868982
 30
0.0
  0
VERTEX
  5
4CD
100
AcDbEntity
  8
1
390
0
 62
     7
100
AcDbVertex
100
AcDb2dVertex
 10
104.740541
 20
68.867587
 30
0.0
  0
VERTEX
  5
4CE
100
AcDbEntity
  8
1
390
0
 62
     7
100
AcDbVertex
100
AcDb2dVertex
 10
104.763056
 20
68.865266
 30
0.0
  0
VERTEX
  5
4CF
100
AcDbEntity
  8
1
390
0
 62
     7
100
AcDbVertex
100
AcDb2dVertex
 10
104.785454
 20
68.862022
 30
0.0
  0
VERTEX
  5
4D0
100
AcDbEntity
  8
1
390
0
 62
     7
100
AcDbVertex
100
AcDb2dVertex
 10
104.808351
 20
68.857719
 30
0.0
  0
VERTEX
  5
4D1
100
AcDbEntity
  8
1
390
0
 62
     7
100
AcDbVertex
100
AcDb2dVertex
 10
104.831081
 20
68.852441
 30
0.0
  0
VERTEX
  5
4D2
100
AcDbEntity
  8
1
390
0
 62
     7
100
AcDbVertex
100
AcDb2dVertex
 10
104.853582
 20
68.846203
 30
0.0
  0
VERTEX
  5
4D3
100
AcDbEntity
  8
1
390
0
 62
     7
100
AcDbVertex
100
AcDb2dVertex
 10
104.875792
 20
68.839018
 30
0.0
  0
VERTEX
  5
4D4
100
AcDbEntity
  8
1
390
0
 62
     7
100
AcDbVertex
100
AcDb2dVertex
 10
104.897083
 20
68.831127
 30
0.0
  0
VERTEX
  5
4D5
100
AcDbEntity
  8
1
390
0
 62
     7
100
AcDbVertex
100
AcDb2dVertex
 10
104.91806
 20
68.822351
 30
0.0
  0
VERTEX
  5
4D6
100
AcDbEntity
  8
1
390
0
 62
     7
100
AcDbVertex
100
AcDb2dVertex
 10
104.938667
 20
68.812714
 30
0.0
  0
VERTEX
  5
4D7
100
AcDbEntity
  8
1
390
0
 62
     7
100
AcDbVertex
100
AcDb2dVertex
 10
104.958849
 20
68.802238
 30
0.0
  0
VERTEX
  5
4D8
100
AcDbEntity
  8
1
390
0
 62
     7
100
AcDbVertex
100
AcDb2dVertex
 10
104.979164
 20
68.790581
 30
0.0
  0
VERTEX
  5
4D9
100
AcDbEntity
  8
1
390
0
 62
     7
100
AcDbVertex
100
AcDb2dVertex
 10
104.998989
 20
68.778054
 30
0.0
  0
VERTEX
  5
4DA
100
AcDbEntity
  8
1
390
0
 62
     7
100
AcDbVertex
100
AcDb2dVertex
 10
105.018269
 20
68.764692
 30
0.0
  0
VERTEX
  5
4DB
100
AcDbEntity
  8
1
390
0
 62
     7
100
AcDbVertex
100
AcDb2dVertex
 10
105.03695
 20
68.750531
 30
0.0
  0
VERTEX
  5
4DC
100
AcDbEntity
  8
1
390
0
 62
     7
100
AcDbVertex
100
AcDb2dVertex
 10
105.054341
 20
68.736159
 30
0.0
  0
VERTEX
  5
4DD
100
AcDbEntity
  8
1
390
0
 62
     7
100
AcDbVertex
100
AcDb2dVertex
 10
105.071144
 20
68.72107
 30
0.0
  0
VERTEX
  5
4DE
100
AcDbEntity
  8
1
390
0
 62
     7
100
AcDbVertex
100
AcDb2dVertex
 10
105.087317
 20
68.705306
 30
0.0
  0
VERTEX
  5
4DF
100
AcDbEntity
  8
1
390
0
 62
     7
100
AcDbVertex
100
AcDb2dVertex
 10
105.102816
 20
68.688907
 30
0.0
  0
VERTEX
  5
4E0
100
AcDbEntity
  8
1
390
0
 62
     7
100
AcDbVertex
100
AcDb2dVertex
 10
105.118048
 20
68.671376
 30
0.0
  0
VERTEX
  5
4E1
100
AcDbEntity
  8
1
390
0
 62
     7
100
AcDbVertex
100
AcDb2dVertex
 10
105.132538
 20
68.653203
 30
0.0
  0
VERTEX
  5
4E2
100
AcDbEntity
  8
1
390
0
 62
     7
100
AcDbVertex
100
AcDb2dVertex
 10
105.146248
 20
68.63444
 30
0.0
  0
VERTEX
  5
4E3
100
AcDbEntity
  8
1
390
0
 62
     7
100
AcDbVertex
100
AcDb2dVertex
 10
105.159138
 20
68.615138
 30
0.0
  0
VERTEX
  5
4E4
100
AcDbEntity
  8
1
390
0
 62
     7
100
AcDbVertex
100
AcDb2dVertex
 10
105.17082
 20
68.595961
 30
0.0
  0
VERTEX
  5
4E5
100
AcDbEntity
  8
1
390
0
 62
     7
100
AcDbVertex
100
AcDb2dVertex
 10
105.181715
 20
68.576313
 30
0.0
  0
VERTEX
  5
4E6
100
AcDbEntity
  8
1
390
0
 62
     7
100
AcDbVertex
100
AcDb2dVertex
 10
105.191797
 20
68.556246
 30
0.0
  0
VERTEX
  5
4E7
100
AcDbEntity
  8
1
390
0
 62
     7
100
AcDbVertex
100
AcDb2dVertex
 10
105.20104
 20
68.535811
 30
0.0
  0
VERTEX
  5
4E8
100
AcDbEntity
  8
1
390
0
 62
     7
100
AcDbVertex
100
AcDb2dVertex
 10
105.209663
 20
68.514425
 30
0.0
  0
VERTEX
  5
4E9
100
AcDbEntity
  8
1
390
0
 62
     7
100
AcDbVertex
100
AcDb2dVertex
 10
105.217385
 20
68.492688
 30
0.0
  0
VERTEX
  5
4EA
100
AcDbEntity
  8
1
390
0
 62
     7
100
AcDbVertex
100
AcDb2dVertex
 10
105.224188
 20
68.47066
 30
0.0
  0
VERTEX
  5
4EB
100
AcDbEntity
  8
1
390
0
 62
     7
100
AcDbVertex
100
AcDb2dVertex
 10
105.230055
 20
68.4484
 30
0.0
  0
VERTEX
  5
4EC
100
AcDbEntity
  8
1
390
0
 62
     7
100
AcDbVertex
100
AcDb2dVertex
 10
105.235554
 20
68.422946
 30
0.0
  0
VERTEX
  5
4ED
100
AcDbEntity
  8
1
390
0
 62
     7
100
AcDbVertex
100
AcDb2dVertex
 10
105.239844
 20
68.397236
 30
0.0
  0
VERTEX
  5
4EE
100
AcDbEntity
  8
1
390
0
 62
     7
100
AcDbVertex
100
AcDb2dVertex
 10
105.242917
 20
68.371358
 30
0.0
  0
VERTEX
  5
4EF
100
AcDbEntity
  8
1
390
0
 62
     7
100
AcDbVertex
100
AcDb2dVertex
 10
105.244767
 20
68.345399
 30
0.0
  0
VERTEX
  5
4F0
100
AcDbEntity
  8
1
390
0
 62
     7
100
AcDbVertex
100
AcDb2dVertex
 10
105.245385
 20
68.319447
 30
0.0
  0
SEQEND
  5
4F1
100
AcDbEntity
  8
0
390
0
  0
POLYLINE
  5
4F2
100
AcDbEntity
  8
1
390
0
  6
Continuous
 62
     7
100
AcDb2dPolyline
 66
     1
 10
0.0
 20
0.0
 30
0.0
 40
3.0
 41
3.0
  0
VERTEX
  5
4F3
100
AcDbEntity
  8
1
390
0
 62
     7
100
AcDbVertex
100
AcDb2dVertex
 10
139.245385
 20
70.15278
 30
0.0
  0
VERTEX
  5
4F4
100
AcDbEntity
  8
1
390
0
 62
     7
100
AcDbVertex
100
AcDb2dVertex
 10
139.24492
 20
70.130201
 30
0.0
  0
VERTEX
  5
4F5
100
AcDbEntity
  8
1
390
0
 62
     7
100
AcDbVertex
100
AcDb2dVertex
 10
139.243525
 20
70.107625
 30
0.0
  0
VERTEX
  5
4F6
100
AcDbEntity
  8
1
390
0
 62
     7
100
AcDbVertex
100
AcDb2dVertex
 10
139.241205
 20
70.085109
 30
0.0
  0
VERTEX
  5
4F7
100
AcDbEntity
  8
1
390
0
 62
     7
100
AcDbVertex
100
AcDb2dVertex
 10
139.23796
 20
70.062712
 30
0.0
  0
VERTEX
  5
4F8
100
AcDbEntity
  8
1
390
0
 62
     7
100
AcDbVertex
100
AcDb2dVertex
 10
139.233657
 20
70.039815
 30
0.0
  0
VERTEX
  5
4F9
100
AcDbEntity
  8
1
390
0
 62
     7
100
AcDbVertex
100
AcDb2dVertex
 10
139.228379
 20
70.017085
 30
0.0
  0
VERTEX
  5
4FA
100
AcDbEntity
  8
1
390
0
 62
     7
100
AcDbVertex
100
AcDb2dVertex
 10
139.222141
 20
69.994583
 30
0.0
  0
VERTEX
  5
4FB
100
AcDbEntity
  8
1
390
0
 62
     7
100
AcDbVertex
100
AcDb2dVertex
 10
139.214956
 20
69.972374
 30
0.0
  0
VERTEX
  5
4FC
100
AcDbEntity
  8
1
390
0
 62
     7
100
AcDbVertex
100
AcDb2dVertex
 10
139.207065
 20
69.951083
 30
0.0
  0
VERTEX
  5
4FD
100
AcDbEntity
  8
1
390
0
 62
     7
100
AcDbVertex
100
AcDb2dVertex
 10
139.198289
 20
69.930106
 30
0.0
  0
VERTEX
  5
4FE
100
AcDbEntity
  8
1
390
0
 62
     7
100
AcDbVertex
100
AcDb2dVertex
 10
139.188652
 20
69.909499
 30
0.0
  0
VERTEX
  5
4FF
100
AcDbEntity
  8
1
390
0
 62
     7
100
AcDbVertex
100
AcDb2dVertex
 10
139.178176
 20
69.889316
 30
0.0
  0
VERTEX
  5
500
100
AcDbEntity
  8
1
390
0
 62
     7
100
AcDbVertex
100
AcDb2dVertex
 10
139.166519
 20
69.869002
 30
0.0
  0
VERTEX
  5
501
100
AcDbEntity
  8
1
390
0
 62
     7
100
AcDbVertex
100
AcDb2dVertex
 10
139.153993
 20
69.849177
 30
0.0
  0
VERTEX
  5
502
100
AcDbEntity
  8
1
390
0
 62
     7
100
AcDbVertex
100
AcDb2dVertex
 10
139.140631
 20
69.829896
 30
0.0
  0
VERTEX
  5
503
100
AcDbEntity
  8
1
390
0
 62
     7
100
AcDbVertex
100
AcDb2dVertex
 10
139.12647
 20
69.811216
 30
0.0
  0
VERTEX
  5
504
100
AcDbEntity
  8
1
390
0
 62
     7
100
AcDbVertex
100
AcDb2dVertex
 10
139.112097
 20
69.793825
 30
0.0
  0
VERTEX
  5
505
100
AcDbEntity
  8
1
390
0
 62
     7
100
AcDbVertex
100
AcDb2dVertex
 10
139.097009
 20
69.777021
 30
0.0
  0
VERTEX
  5
506
100
AcDbEntity
  8
1
390
0
 62
     7
100
AcDbVertex
100
AcDb2dVertex
 10
139.081245
 20
69.760849
 30
0.0
  0
VERTEX
  5
507
100
AcDbEntity
  8
1
390
0
 62
     7
100
AcDbVertex
100
AcDb2dVertex
 10
139.064845
 20
69.74535
 30
0.0
  0
VERTEX
  5
508
100
AcDbEntity
  8
1
390
0
 62
     7
100
AcDbVertex
100
AcDb2dVertex
 10
139.047314
 20
69.730118
 30
0.0
  0
VERTEX
  5
509
100
AcDbEntity
  8
1
390
0
 62
     7
100
AcDbVertex
100
AcDb2dVertex
 10
139.029141
 20
69.715627
 30
0.0
  0
VERTEX
  5
50A
100
AcDbEntity
  8
1
390
0
 62
     7
100
AcDbVertex
100
AcDb2dVertex
 10
139.010379
 20
69.701918
 30
0.0
  0
VERTEX
  5
50B
100
AcDbEntity
  8
1
390
0
 62
     7
100
AcDbVertex
100
AcDb2dVertex
 10
138.991076
 20
69.689027
 30
0.0
  0
VERTEX
  5
50C
100
AcDbEntity
  8
1
390
0
 62
     7
100
AcDbVertex
100
AcDb2dVertex
 10
138.971899
 20
69.677346
 30
0.0
  0
VERTEX
  5
50D
100
AcDbEntity
  8
1
390
0
 62
     7
100
AcDbVertex
100
AcDb2dVertex
 10
138.952252
 20
69.666451
 30
0.0
  0
VERTEX
  5
50E
100
AcDbEntity
  8
1
390
0
 62
     7
100
AcDbVertex
100
AcDb2dVertex
 10
138.932184
 20
69.656369
 30
0.0
  0
VERTEX
  5
50F
100
AcDbEntity
  8
1
390
0
 62
     7
100
AcDbVertex
100
AcDb2dVertex
 10
138.91175
 20
69.647126
 30
0.0
  0
VERTEX
  5
510
100
AcDbEntity
  8
1
390
0
 62
     7
100
AcDbVertex
100
AcDb2dVertex
 10
138.890363
 20
69.638503
 30
0.0
  0
VERTEX
  5
511
100
AcDbEntity
  8
1
390
0
 62
     7
100
AcDbVertex
100
AcDb2dVertex
 10
138.868626
 20
69.630781
 30
0.0
  0
VERTEX
  5
512
100
AcDbEntity
  8
1
390
0
 62
     7
100
AcDbVertex
100
AcDb2dVertex
 10
138.846598
 20
69.623977
 30
0.0
  0
VERTEX
  5
513
100
AcDbEntity
  8
1
390
0
 62
     7
100
AcDbVertex
100
AcDb2dVertex
 10
138.824338
 20
69.618111
 30
0.0
  0
VERTEX
  5
514
100
AcDbEntity
  8
1
390
0
 62
     7
100
AcDbVertex
100
AcDb2dVertex
 10
138.798884
 20
69.612612
 30
0.0
  0
VERTEX
  5
515
100
AcDbEntity
  8
1
390
0
 62
     7
100
AcDbVertex
100
AcDb2dVertex
 10
138.773174
 20
69.608322
 30
0.0
  0
VERTEX
  5
516
100
AcDbEntity
  8
1
390
0
 62
     7
100
AcDbVertex
100
AcDb2dVertex
 10
138.747296
 20
69.605248
 30
0.0
  0
VERTEX
  5
517
100
AcDbEntity
  8
1
390
0
 62
     7
100
AcDbVertex
100
AcDb2dVertex
 10
138.721337
 20
69.603399
 30
0.0
  0
VERTEX
  5
518
100
AcDbEntity
  8
1
390
0
 62
     7
100
AcDbVertex
100
AcDb2dVertex
 10
138.695385
 20
69.60278
 30
0.0
  0
SEQEND
  5
519
100
AcDbEntity
  8
0
390
0
  0
LINE
  5
51A
100
AcDbEntity
  8
1
390
0
  6
Continuous
 62
     7
100
AcDbLine
 10
137.812052
 20
69.60278
 30
0.0
 11
138.695385
 21
69.60278
 31
0.0
  0
LINE
  5
51B
100
AcDbEntity
  8
1
390
0
  6
Continuous
 62
     7
100
AcDbLine
 10
137.812052
 20
68.869447
 30
0.0
 11
137.812052
 21
69.60278
 31
0.0
  0
LINE
  5
51C
100
AcDbEntity
  8
1
390
0
  6
Continuous
 62
     7
100
AcDbLine
 10
138.695385
 20
68.869447
 30
0.0
 11
137.812052
 21
68.869447
 31
0.0
  0
LINE
  5
51D
100
AcDbEntity
  8
1
390
0
  6
Continuous
 62
     7
100
AcDbLine
 10
139.245385
 20
67.436114
 30
0.0
 11
139.245385
 21
68.319447
 31
0.0
  0
LINE
  5
51E
100
AcDbEntity
  8
1
390
0
  6
Continuous
 62
     7
100
AcDbLine
 10
139.978719
 20
67.436114
 30
0.0
 11
139.245385
 21
67.436114
 31
0.0
  0
LINE
  5
51F
100
AcDbEntity
  8
1
390
0
  6
Continuous
 62
     7
100
AcDbLine
 10
139.978719
 20
68.319447
 30
0.0
 11
139.978719
 21
67.436114
 31
0.0
  0
POLYLINE
  5
520
100
AcDbEntity
  8
1
390
0
  6
Continuous
 62
     7
100
AcDb2dPolyline
 66
     1
 10
0.0
 20
0.0
 30
0.0
 40
3.0
 41
3.0
  0
VERTEX
  5
521
100
AcDbEntity
  8
1
390
0
 62
     7
100
AcDbVertex
100
AcDb2dVertex
 10
139.978719
 20
68.319447
 30
0.0
  0
VERTEX
  5
522
100
AcDbEntity
  8
1
390
0
 62
     7
100
AcDbVertex
100
AcDb2dVertex
 10
139.979184
 20
68.342026
 30
0.0
  0
VERTEX
  5
523
100
AcDbEntity
  8
1
390
0
 62
     7
100
AcDbVertex
100
AcDb2dVertex
 10
139.980579
 20
68.364602
 30
0.0
  0
VERTEX
  5
524
100
AcDbEntity
  8
1
390
0
 62
     7
100
AcDbVertex
100
AcDb2dVertex
 10
139.982899
 20
68.387118
 30
0.0
  0
VERTEX
  5
525
100
AcDbEntity
  8
1
390
0
 62
     7
100
AcDbVertex
100
AcDb2dVertex
 10
139.986144
 20
68.409516
 30
0.0
  0
VERTEX
  5
526
100
AcDbEntity
  8
1
390
0
 62
     7
100
AcDbVertex
100
AcDb2dVertex
 10
139.990447
 20
68.432413
 30
0.0
  0
VERTEX
  5
527
100
AcDbEntity
  8
1
390
0
 62
     7
100
AcDbVertex
100
AcDb2dVertex
 10
139.995725
 20
68.455143
 30
0.0
  0
VERTEX
  5
528
100
AcDbEntity
  8
1
390
0
 62
     7
100
AcDbVertex
100
AcDb2dVertex
 10
140.001963
 20
68.477644
 30
0.0
  0
VERTEX
  5
529
100
AcDbEntity
  8
1
390
0
 62
     7
100
AcDbVertex
100
AcDb2dVertex
 10
140.009148
 20
68.499853
 30
0.0
  0
VERTEX
  5
52A
100
AcDbEntity
  8
1
390
0
 62
     7
100
AcDbVertex
100
AcDb2dVertex
 10
140.017039
 20
68.521145
 30
0.0
  0
VERTEX
  5
52B
100
AcDbEntity
  8
1
390
0
 62
     7
100
AcDbVertex
100
AcDb2dVertex
 10
140.025815
 20
68.542122
 30
0.0
  0
VERTEX
  5
52C
100
AcDbEntity
  8
1
390
0
 62
     7
100
AcDbVertex
100
AcDb2dVertex
 10
140.035452
 20
68.562729
 30
0.0
  0
VERTEX
  5
52D
100
AcDbEntity
  8
1
390
0
 62
     7
100
AcDbVertex
100
AcDb2dVertex
 10
140.045928
 20
68.582911
 30
0.0
  0
VERTEX
  5
52E
100
AcDbEntity
  8
1
390
0
 62
     7
100
AcDbVertex
100
AcDb2dVertex
 10
140.057584
 20
68.603225
 30
0.0
  0
VERTEX
  5
52F
100
AcDbEntity
  8
1
390
0
 62
     7
100
AcDbVertex
100
AcDb2dVertex
 10
140.070111
 20
68.623051
 30
0.0
  0
VERTEX
  5
530
100
AcDbEntity
  8
1
390
0
 62
     7
100
AcDbVertex
100
AcDb2dVertex
 10
140.083473
 20
68.642331
 30
0.0
  0
VERTEX
  5
531
100
AcDbEntity
  8
1
390
0
 62
     7
100
AcDbVertex
100
AcDb2dVertex
 10
140.097634
 20
68.661012
 30
0.0
  0
VERTEX
  5
532
100
AcDbEntity
  8
1
390
0
 62
     7
100
AcDbVertex
100
AcDb2dVertex
 10
140.112007
 20
68.678403
 30
0.0
  0
VERTEX
  5
533
100
AcDbEntity
  8
1
390
0
 62
     7
100
AcDbVertex
100
AcDb2dVertex
 10
140.127095
 20
68.695206
 30
0.0
  0
VERTEX
  5
534
100
AcDbEntity
  8
1
390
0
 62
     7
100
AcDbVertex
100
AcDb2dVertex
 10
140.142859
 20
68.711379
 30
0.0
  0
VERTEX
  5
535
100
AcDbEntity
  8
1
390
0
 62
     7
100
AcDbVertex
100
AcDb2dVertex
 10
140.159259
 20
68.726878
 30
0.0
  0
VERTEX
  5
536
100
AcDbEntity
  8
1
390
0
 62
     7
100
AcDbVertex
100
AcDb2dVertex
 10
140.17679
 20
68.74211
 30
0.0
  0
VERTEX
  5
537
100
AcDbEntity
  8
1
390
0
 62
     7
100
AcDbVertex
100
AcDb2dVertex
 10
140.194962
 20
68.7566
 30
0.0
  0
VERTEX
  5
538
100
AcDbEntity
  8
1
390
0
 62
     7
100
AcDbVertex
100
AcDb2dVertex
 10
140.213725
 20
68.77031
 30
0.0
  0
VERTEX
  5
539
100
AcDbEntity
  8
1
390
0
 62
     7
100
AcDbVertex
100
AcDb2dVertex
 10
140.233028
 20
68.7832
 30
0.0
  0
VERTEX
  5
53A
100
AcDbEntity
  8
1
390
0
 62
     7
100
AcDbVertex
100
AcDb2dVertex
 10
140.252205
 20
68.794882
 30
0.0
  0
VERTEX
  5
53B
100
AcDbEntity
  8
1
390
0
 62
     7
100
AcDbVertex
100
AcDb2dVertex
 10
140.271852
 20
68.805776
 30
0.0
  0
VERTEX
  5
53C
100
AcDbEntity
  8
1
390
0
 62
     7
100
AcDbVertex
100
AcDb2dVertex
 10
140.29192
 20
68.815858
 30
0.0
  0
VERTEX
  5
53D
100
AcDbEntity
  8
1
390
0
 62
     7
100
AcDbVertex
100
AcDb2dVertex
 10
140.312354
 20
68.825102
 30
0.0
  0
VERTEX
  5
53E
100
AcDbEntity
  8
1
390
0
 62
     7
100
AcDbVertex
100
AcDb2dVertex
 10
140.333741
 20
68.833725
 30
0.0
  0
VERTEX
  5
53F
100
AcDbEntity
  8
1
390
0
 62
     7
100
AcDbVertex
100
AcDb2dVertex
 10
140.355478
 20
68.841447
 30
0.0
  0
VERTEX
  5
540
100
AcDbEntity
  8
1
390
0
 62
     7
100
AcDbVertex
100
AcDb2dVertex
 10
140.377506
 20
68.84825
 30
0.0
  0
VERTEX
  5
541
100
AcDbEntity
  8
1
390
0
 62
     7
100
AcDbVertex
100
AcDb2dVertex
 10
140.399766
 20
68.854116
 30
0.0
  0
VERTEX
  5
542
100
AcDbEntity
  8
1
390
0
 62
     7
100
AcDbVertex
100
AcDb2dVertex
 10
140.42522
 20
68.859615
 30
0.0
  0
VERTEX
  5
543
100
AcDbEntity
  8
1
390
0
 62
     7
100
AcDbVertex
100
AcDb2dVertex
 10
140.45093
 20
68.863906
 30
0.0
  0
VERTEX
  5
544
100
AcDbEntity
  8
1
390
0
 62
     7
100
AcDbVertex
100
AcDb2dVertex
 10
140.476808
 20
68.866979
 30
0.0
  0
VERTEX
  5
545
100
AcDbEntity
  8
1
390
0
 62
     7
100
AcDbVertex
100
AcDb2dVertex
 10
140.502767
 20
68.868829
 30
0.0
  0
VERTEX
  5
546
100
AcDbEntity
  8
1
390
0
 62
     7
100
AcDbVertex
100
AcDb2dVertex
 10
140.528719
 20
68.869447
 30
0.0
  0
SEQEND
  5
547
100
AcDbEntity
  8
0
390
0
  0
LINE
  5
548
100
AcDbEntity
  8
1
390
0
  6
Continuous
 62
     7
100
AcDbLine
 10
141.412052
 20
68.869447
 30
0.0
 11
140.528719
 21
68.869447
 31
0.0
  0
LINE
  5
549
100
AcDbEntity
  8
1
390
0
  6
Continuous
 62
     7
100
AcDbLine
 10
141.412052
 20
69.60278
 30
0.0
 11
141.412052
 21
68.869447
 31
0.0
  0
LINE
  5
54A
100
AcDbEntity
  8
1
390
0
  6
Continuous
 62
     7
100
AcDbLine
 10
140.528719
 20
69.60278
 30
0.0
 11
141.412052
 21
69.60278
 31
0.0
  0
LINE
  5
54B
100
AcDbEntity
  8
1
390
0
  6
Continuous
 62
     7
100
AcDbLine
 10
139.978719
 20
71.036114
 30
0.0
 11
139.978719
 21
70.15278
 31
0.0
  0
LINE
  5
54C
100
AcDbEntity
  8
1
390
0
  6
Continuous
 62
     7
100
AcDbLine
 10
139.245385
 20
71.036114
 30
0.0
 11
139.978719
 21
71.036114
 31
0.0
  0
LINE
  5
54D
100
AcDbEntity
  8
1
390
0
  6
Continuous
 62
     7
100
AcDbLine
 10
139.245385
 20
70.15278
 30
0.0
 11
139.245385
 21
71.036114
 31
0.0
  0
POLYLINE
  5
54E
100
AcDbEntity
  8
1
390
0
  6
Continuous
 62
     7
100
AcDb2dPolyline
 66
     1
 10
0.0
 20
0.0
 30
0.0
 40
3.0
 41
3.0
  0
VERTEX
  5
54F
100
AcDbEntity
  8
1
390
0
 62
     7
100
AcDbVertex
100
AcDb2dVertex
 10
138.695385
 20
68.869447
 30
0.0
  0
VERTEX
  5
550
100
AcDbEntity
  8
1
390
0
 62
     7
100
AcDbVertex
100
AcDb2dVertex
 10
138.717964
 20
68.868982
 30
0.0
  0
VERTEX
  5
551
100
AcDbEntity
  8
1
390
0
 62
     7
100
AcDbVertex
100
AcDb2dVertex
 10
138.740541
 20
68.867587
 30
0.0
  0
VERTEX
  5
552
100
AcDbEntity
  8
1
390
0
 62
     7
100
AcDbVertex
100
AcDb2dVertex
 10
138.763056
 20
68.865266
 30
0.0
  0
VERTEX
  5
553
100
AcDbEntity
  8
1
390
0
 62
     7
100
AcDbVertex
100
AcDb2dVertex
 10
138.785454
 20
68.862022
 30
0.0
  0
VERTEX
  5
554
100
AcDbEntity
  8
1
390
0
 62
     7
100
AcDbVertex
100
AcDb2dVertex
 10
138.808351
 20
68.857719
 30
0.0
  0
VERTEX
  5
555
100
AcDbEntity
  8
1
390
0
 62
     7
100
AcDbVertex
100
AcDb2dVertex
 10
138.831081
 20
68.852441
 30
0.0
  0
VERTEX
  5
556
100
AcDbEntity
  8
1
390
0
 62
     7
100
AcDbVertex
100
AcDb2dVertex
 10
138.853582
 20
68.846203
 30
0.0
  0
VERTEX
  5
557
100
AcDbEntity
  8
1
390
0
 62
     7
100
AcDbVertex
100
AcDb2dVertex
 10
138.875792
 20
68.839018
 30
0.0
  0
VERTEX
  5
558
100
AcDbEntity
  8
1
390
0
 62
     7
100
AcDbVertex
100
AcDb2dVertex
 10
138.897083
 20
68.831127
 30
0.0
  0
VERTEX
  5
559
100
AcDbEntity
  8
1
390
0
 62
     7
100
AcDbVertex
100
AcDb2dVertex
 10
138.91806
 20
68.822351
 30
0.0
  0
VERTEX
  5
55A
100
AcDbEntity
  8
1
390
0
 62
     7
100
AcDbVertex
100
AcDb2dVertex
 10
138.938667
 20
68.812714
 30
0.0
  0
VERTEX
  5
55B
100
AcDbEntity
  8
1
390
0
 62
     7
100
AcDbVertex
100
AcDb2dVertex
 10
138.958849
 20
68.802238
 30
0.0
  0
VERTEX
  5
55C
100
AcDbEntity
  8
1
390
0
 62
     7
100
AcDbVertex
100
AcDb2dVertex
 10
138.979164
 20
68.790581
 30
0.0
  0
VERTEX
  5
55D
100
AcDbEntity
  8
1
390
0
 62
     7
100
AcDbVertex
100
AcDb2dVertex
 10
138.998989
 20
68.778054
 30
0.0
  0
VERTEX
  5
55E
100
AcDbEntity
  8
1
390
0
 62
     7
100
AcDbVertex
100
AcDb2dVertex
 10
139.018269
 20
68.764692
 30
0.0
  0
VERTEX
  5
55F
100
AcDbEntity
  8
1
390
0
 62
     7
100
AcDbVertex
100
AcDb2dVertex
 10
139.03695
 20
68.750531
 30
0.0
  0
VERTEX
  5
560
100
AcDbEntity
  8
1
390
0
 62
     7
100
AcDbVertex
100
AcDb2dVertex
 10
139.054341
 20
68.736159
 30
0.0
  0
VERTEX
  5
561
100
AcDbEntity
  8
1
390
0
 62
     7
100
AcDbVertex
100
AcDb2dVertex
 10
139.071144
 20
68.72107
 30
0.0
  0
VERTEX
  5
562
100
AcDbEntity
  8
1
390
0
 62
     7
100
AcDbVertex
100
AcDb2dVertex
 10
139.087317
 20
68.705306
 30
0.0
  0
VERTEX
  5
563
100
AcDbEntity
  8
1
390
0
 62
     7
100
AcDbVertex
100
AcDb2dVertex
 10
139.102816
 20
68.688907
 30
0.0
  0
VERTEX
  5
564
100
AcDbEntity
  8
1
390
0
 62
     7
100
AcDbVertex
100
AcDb2dVertex
 10
139.118048
 20
68.671376
 30
0.0
  0
VERTEX
  5
565
100
AcDbEntity
  8
1
390
0
 62
     7
100
AcDbVertex
100
AcDb2dVertex
 10
139.132538
 20
68.653203
 30
0.0
  0
VERTEX
  5
566
100
AcDbEntity
  8
1
390
0
 62
     7
100
AcDbVertex
100
AcDb2dVertex
 10
139.146248
 20
68.63444
 30
0.0
  0
VERTEX
  5
567
100
AcDbEntity
  8
1
390
0
 62
     7
100
AcDbVertex
100
AcDb2dVertex
 10
139.159138
 20
68.615138
 30
0.0
  0
VERTEX
  5
568
100
AcDbEntity
  8
1
390
0
 62
     7
100
AcDbVertex
100
AcDb2dVertex
 10
139.17082
 20
68.595961
 30
0.0
  0
VERTEX
  5
569
100
AcDbEntity
  8
1
390
0
 62
     7
100
AcDbVertex
100
AcDb2dVertex
 10
139.181715
 20
68.576313
 30
0.0
  0
VERTEX
  5
56A
100
AcDbEntity
  8
1
390
0
 62
     7
100
AcDbVertex
100
AcDb2dVertex
 10
139.191797
 20
68.556246
 30
0.0
  0
VERTEX
  5
56B
100
AcDbEntity
  8
1
390
0
 62
     7
100
AcDbVertex
100
AcDb2dVertex
 10
139.20104
 20
68.535811
 30
0.0
  0
VERTEX
  5
56C
100
AcDbEntity
  8
1
390
0
 62
     7
100
AcDbVertex
100
AcDb2dVertex
 10
139.209663
 20
68.514425
 30
0.0
  0
VERTEX
  5
56D
100
AcDbEntity
  8
1
390
0
 62
     7
100
AcDbVertex
100
AcDb2dVertex
 10
139.217385
 20
68.492688
 30
0.0
  0
VERTEX
  5
56E
100
AcDbEntity
  8
1
390
0
 62
     7
100
AcDbVertex
100
AcDb2dVertex
 10
139.224188
 20
68.47066
 30
0.0
  0
VERTEX
  5
56F
100
AcDbEntity
  8
1
390
0
 62
     7
100
AcDbVertex
100
AcDb2dVertex
 10
139.230055
 20
68.4484
 30
0.0
  0
VERTEX
  5
570
100
AcDbEntity
  8
1
390
0
 62
     7
100
AcDbVertex
100
AcDb2dVertex
 10
139.235554
 20
68.422946
 30
0.0
  0
VERTEX
  5
571
100
AcDbEntity
  8
1
390
0
 62
     7
100
AcDbVertex
100
AcDb2dVertex
 10
139.239844
 20
68.397236
 30
0.0
  0
VERTEX
  5
572
100
AcDbEntity
  8
1
390
0
 62
     7
100
AcDbVertex
100
AcDb2dVertex
 10
139.242917
 20
68.371358
 30
0.0
  0
VERTEX
  5
573
100
AcDbEntity
  8
1
390
0
 62
     7
100
AcDbVertex
100
AcDb2dVertex
 10
139.244767
 20
68.345399
 30
0.0
  0
VERTEX
  5
574
100
AcDbEntity
  8
1
390
0
 62
     7
100
AcDbVertex
100
AcDb2dVertex
 10
139.245385
 20
68.319447
 30
0.0
  0
SEQEND
  5
575
100
AcDbEntity
  8
0
390
0
  0
POLYLINE
  5
576
100
AcDbEntity
  8
1
390
0
  6
Continuous
 62
     7
100
AcDb2dPolyline
 66
     1
 10
0.0
 20
0.0
 30
0.0
 40
3.0
 41
3.0
  0
VERTEX
  5
577
100
AcDbEntity
  8
1
390
0
 62
     7
100
AcDbVertex
100
AcDb2dVertex
 10
140.528719
 20
69.60278
 30
0.0
  0
VERTEX
  5
578
100
AcDbEntity
  8
1
390
0
 62
     7
100
AcDbVertex
100
AcDb2dVertex
 10
140.50614
 20
69.603246
 30
0.0
  0
VERTEX
  5
579
100
AcDbEntity
  8
1
390
0
 62
     7
100
AcDbVertex
100
AcDb2dVertex
 10
140.483563
 20
69.60464
 30
0.0
  0
VERTEX
  5
57A
100
AcDbEntity
  8
1
390
0
 62
     7
100
AcDbVertex
100
AcDb2dVertex
 10
140.461048
 20
69.606961
 30
0.0
  0
VERTEX
  5
57B
100
AcDbEntity
  8
1
390
0
 62
     7
100
AcDbVertex
100
AcDb2dVertex
 10
140.43865
 20
69.610205
 30
0.0
  0
VERTEX
  5
57C
100
AcDbEntity
  8
1
390
0
 62
     7
100
AcDbVertex
100
AcDb2dVertex
 10
140.415753
 20
69.614509
 30
0.0
  0
VERTEX
  5
57D
100
AcDbEntity
  8
1
390
0
 62
     7
100
AcDbVertex
100
AcDb2dVertex
 10
140.393023
 20
69.619786
 30
0.0
  0
VERTEX
  5
57E
100
AcDbEntity
  8
1
390
0
 62
     7
100
AcDbVertex
100
AcDb2dVertex
 10
140.370522
 20
69.626025
 30
0.0
  0
VERTEX
  5
57F
100
AcDbEntity
  8
1
390
0
 62
     7
100
AcDbVertex
100
AcDb2dVertex
 10
140.348312
 20
69.63321
 30
0.0
  0
VERTEX
  5
580
100
AcDbEntity
  8
1
390
0
 62
     7
100
AcDbVertex
100
AcDb2dVertex
 10
140.327021
 20
69.641101
 30
0.0
  0
VERTEX
  5
581
100
AcDbEntity
  8
1
390
0
 62
     7
100
AcDbVertex
100
AcDb2dVertex
 10
140.306044
 20
69.649876
 30
0.0
  0
VERTEX
  5
582
100
AcDbEntity
  8
1
390
0
 62
     7
100
AcDbVertex
100
AcDb2dVertex
 10
140.285437
 20
69.659514
 30
0.0
  0
VERTEX
  5
583
100
AcDbEntity
  8
1
390
0
 62
     7
100
AcDbVertex
100
AcDb2dVertex
 10
140.265255
 20
69.66999
 30
0.0
  0
VERTEX
  5
584
100
AcDbEntity
  8
1
390
0
 62
     7
100
AcDbVertex
100
AcDb2dVertex
 10
140.24494
 20
69.681646
 30
0.0
  0
VERTEX
  5
585
100
AcDbEntity
  8
1
390
0
 62
     7
100
AcDbVertex
100
AcDb2dVertex
 10
140.225115
 20
69.694173
 30
0.0
  0
VERTEX
  5
586
100
AcDbEntity
  8
1
390
0
 62
     7
100
AcDbVertex
100
AcDb2dVertex
 10
140.205835
 20
69.707535
 30
0.0
  0
VERTEX
  5
587
100
AcDbEntity
  8
1
390
0
 62
     7
100
AcDbVertex
100
AcDb2dVertex
 10
140.187154
 20
69.721696
 30
0.0
  0
VERTEX
  5
588
100
AcDbEntity
  8
1
390
0
 62
     7
100
AcDbVertex
100
AcDb2dVertex
 10
140.169763
 20
69.736069
 30
0.0
  0
VERTEX
  5
589
100
AcDbEntity
  8
1
390
0
 62
     7
100
AcDbVertex
100
AcDb2dVertex
 10
140.152959
 20
69.751157
 30
0.0
  0
VERTEX
  5
58A
100
AcDbEntity
  8
1
390
0
 62
     7
100
AcDbVertex
100
AcDb2dVertex
 10
140.136787
 20
69.766921
 30
0.0
  0
VERTEX
  5
58B
100
AcDbEntity
  8
1
390
0
 62
     7
100
AcDbVertex
100
AcDb2dVertex
 10
140.121288
 20
69.783321
 30
0.0
  0
VERTEX
  5
58C
100
AcDbEntity
  8
1
390
0
 62
     7
100
AcDbVertex
100
AcDb2dVertex
 10
140.106056
 20
69.800852
 30
0.0
  0
VERTEX
  5
58D
100
AcDbEntity
  8
1
390
0
 62
     7
100
AcDbVertex
100
AcDb2dVertex
 10
140.091566
 20
69.819024
 30
0.0
  0
VERTEX
  5
58E
100
AcDbEntity
  8
1
390
0
 62
     7
100
AcDbVertex
100
AcDb2dVertex
 10
140.077856
 20
69.837787
 30
0.0
  0
VERTEX
  5
58F
100
AcDbEntity
  8
1
390
0
 62
     7
100
AcDbVertex
100
AcDb2dVertex
 10
140.064966
 20
69.857089
 30
0.0
  0
VERTEX
  5
590
100
AcDbEntity
  8
1
390
0
 62
     7
100
AcDbVertex
100
AcDb2dVertex
 10
140.053284
 20
69.876266
 30
0.0
  0
VERTEX
  5
591
100
AcDbEntity
  8
1
390
0
 62
     7
100
AcDbVertex
100
AcDb2dVertex
 10
140.042389
 20
69.895914
 30
0.0
  0
VERTEX
  5
592
100
AcDbEntity
  8
1
390
0
 62
     7
100
AcDbVertex
100
AcDb2dVertex
 10
140.032307
 20
69.915981
 30
0.0
  0
VERTEX
  5
593
100
AcDbEntity
  8
1
390
0
 62
     7
100
AcDbVertex
100
AcDb2dVertex
 10
140.023064
 20
69.936416
 30
0.0
  0
VERTEX
  5
594
100
AcDbEntity
  8
1
390
0
 62
     7
100
AcDbVertex
100
AcDb2dVertex
 10
140.014441
 20
69.957803
 30
0.0
  0
VERTEX
  5
595
100
AcDbEntity
  8
1
390
0
 62
     7
100
AcDbVertex
100
AcDb2dVertex
 10
140.006719
 20
69.97954
 30
0.0
  0
VERTEX
  5
596
100
AcDbEntity
  8
1
390
0
 62
     7
100
AcDbVertex
100
AcDb2dVertex
 10
139.999916
 20
70.001568
 30
0.0
  0
VERTEX
  5
597
100
AcDbEntity
  8
1
390
0
 62
     7
100
AcDbVertex
100
AcDb2dVertex
 10
139.994049
 20
70.023828
 30
0.0
  0
VERTEX
  5
598
100
AcDbEntity
  8
1
390
0
 62
     7
100
AcDbVertex
100
AcDb2dVertex
 10
139.98855
 20
70.049282
 30
0.0
  0
VERTEX
  5
599
100
AcDbEntity
  8
1
390
0
 62
     7
100
AcDbVertex
100
AcDb2dVertex
 10
139.98426
 20
70.074991
 30
0.0
  0
VERTEX
  5
59A
100
AcDbEntity
  8
1
390
0
 62
     7
100
AcDbVertex
100
AcDb2dVertex
 10
139.981187
 20
70.100869
 30
0.0
  0
VERTEX
  5
59B
100
AcDbEntity
  8
1
390
0
 62
     7
100
AcDbVertex
100
AcDb2dVertex
 10
139.979337
 20
70.126828
 30
0.0
  0
VERTEX
  5
59C
100
AcDbEntity
  8
1
390
0
 62
     7
100
AcDbVertex
100
AcDb2dVertex
 10
139.978719
 20
70.15278
 30
0.0
  0
SEQEND
  5
59D
100
AcDbEntity
  8
0
390
0
  0
CIRCLE
  5
59E
100
AcDbEntity
  8
1
390
0
  6
Continuous
 62
     7
100
AcDbCircle
 10
98.612052
 20
76.236114
 30
0.0
 40
3.8
210
0.0
220
0.0
230
1.0
  0
CIRCLE
  5
59F
100
AcDbEntity
  8
1
390
0
  6
Continuous
 62
     7
100
AcDbCircle
 10
98.612052
 20
76.236114
 30
0.0
 40
4.0
210
0.0
220
0.0
230
1.0
  0
LINE
  5
5A0
100
AcDbEntity
  8
1
390
0
  6
Continuous
 62
     7
100
AcDbLine
 10
112.312052
 20
78.718048
 30
0.0
 11
112.312052
 21
78.969701
 31
0.0
  0
ARC
  5
5A1
100
AcDbEntity
  8
1
390
0
  6
Continuous
 62
     7
100
AcDbCircle
 10
112.612052
 20
76.236114
 30
0.0
 40
2.5
210
0.0
220
0.0
230
1.0
100
AcDbArc
 50
96.892103
 51
83.107897
  0
CIRCLE
  5
5A2
100
AcDbEntity
  8
1
390
0
  6
Continuous
 62
     7
100
AcDbCircle
 10
112.612052
 20
76.236114
 30
0.0
 40
3.8
210
0.0
220
0.0
230
1.0
  0
ARC
  5
5A3
100
AcDbEntity
  8
1
390
0
  6
Continuous
 62
     7
100
AcDbCircle
 10
112.612052
 20
76.236114
 30
0.0
 40
2.75
210
0.0
220
0.0
230
1.0
100
AcDbArc
 50
83.737087
 51
96.262913
  0
LINE
  5
5A4
100
AcDbEntity
  8
1
390
0
  6
Continuous
 62
     7
100
AcDbLine
 10
112.912052
 20
78.969701
 30
0.0
 11
112.912052
 21
78.718048
 31
0.0
  0
ARC
  5
5A5
100
AcDbEntity
  8
1
390
0
  6
Continuous
 62
     7
100
AcDbCircle
 10
146.612052
 20
76.236114
 30
0.0
 40
2.75
210
0.0
220
0.0
230
1.0
100
AcDbArc
 50
83.737087
 51
96.262913
  0
ARC
  5
5A6
100
AcDbEntity
  8
1
390
0
  6
Continuous
 62
     7
100
AcDbCircle
 10
146.612052
 20
76.236114
 30
0.0
 40
2.5
210
0.0
220
0.0
230
1.0
100
AcDbArc
 50
96.892103
 51
83.107897
  0
CIRCLE
  5
5A7
100
AcDbEntity
  8
1
390
0
  6
Continuous
 62
     7
100
AcDbCircle
 10
146.612052
 20
76.236114
 30
0.0
 40
3.8
210
0.0
220
0.0
230
1.0
  0
LINE
  5
5A8
100
AcDbEntity
  8
1
390
0
  6
Continuous
 62
     7
100
AcDbLine
 10
146.912052
 20
78.969701
 30
0.0
 11
146.912052
 21
78.718048
 31
0.0
  0
LINE
  5
5A9
100
AcDbEntity
  8
1
390
0
  6
Continuous
 62
     7
100
AcDbLine
 10
146.312052
 20
78.718048
 30
0.0
 11
146.312052
 21
78.969701
 31
0.0
  0
LINE
  5
5AA
100
AcDbEntity
  8
1
390
0
  6
Continuous
 62
     7
100
AcDbLine
 10
132.912052
 20
78.969701
 30
0.0
 11
132.912052
 21
78.718048
 31
0.0
  0
ARC
  5
5AB
100
AcDbEntity
  8
1
390
0
  6
Continuous
 62
     7
100
AcDbCircle
 10
132.612052
 20
76.236114
 30
0.0
 40
2.75
210
0.0
220
0.0
230
1.0
100
AcDbArc
 50
83.737087
 51
96.262913
  0
LINE
  5
5AC
100
AcDbEntity
  8
1
390
0
  6
Continuous
 62
     7
100
AcDbLine
 10
132.312052
 20
78.718048
 30
0.0
 11
132.312052
 21
78.969701
 31
0.0
  0
ARC
  5
5AD
100
AcDbEntity
  8
1
390
0
  6
Continuous
 62
     7
100
AcDbCircle
 10
132.612052
 20
76.236114
 30
0.0
 40
2.5
210
0.0
220
0.0
230
1.0
100
AcDbArc
 50
96.892103
 51
83.107897
  0
CIRCLE
  5
5AE
100
AcDbEntity
  8
1
390
0
  6
Continuous
 62
     7
100
AcDbCircle
 10
132.612052
 20
76.236114
 30
0.0
 40
3.8
210
0.0
220
0.0
230
1.0
  0
CIRCLE
  5
5AF
100
AcDbEntity
  8
1
390
0
  6
Continuous
 62
     7
100
AcDbCircle
 10
132.612052
 20
76.236114
 30
0.0
 40
4.0
210
0.0
220
0.0
230
1.0
  0
LINE
  5
5B0
100
AcDbEntity
  8
1
390
0
  6
Continuous
 62
     7
100
AcDbLine
 10
98.912052
 20
78.969701
 30
0.0
 11
98.912052
 21
78.718048
 31
0.0
  0
ARC
  5
5B1
100
AcDbEntity
  8
1
390
0
  6
Continuous
 62
     7
100
AcDbCircle
 10
98.612052
 20
76.236114
 30
0.0
 40
2.75
210
0.0
220
0.0
230
1.0
100
AcDbArc
 50
83.737087
 51
96.262913
  0
ARC
  5
5B2
100
AcDbEntity
  8
1
390
0
  6
Continuous
 62
     7
100
AcDbCircle
 10
98.612052
 20
76.236114
 30
0.0
 40
2.5
210
0.0
220
0.0
230
1.0
100
AcDbArc
 50
96.892103
 51
83.107897
  0
LINE
  5
5B3
100
AcDbEntity
  8
1
390
0
  6
Continuous
 62
     7
100
AcDbLine
 10
98.312052
 20
78.718048
 30
0.0
 11
98.312052
 21
78.969701
 31
0.0
  0
CIRCLE
  5
5B4
100
AcDbEntity
  8
1
390
0
  6
Continuous
 62
     7
100
AcDbCircle
 10
146.612052
 20
76.236114
 30
0.0
 40
4.0
210
0.0
220
0.0
230
1.0
  0
CIRCLE
  5
5B5
100
AcDbEntity
  8
1
390
0
  6
Continuous
 62
     7
100
AcDbCircle
 10
112.612052
 20
76.236114
 30
0.0
 40
4.0
210
0.0
220
0.0
230
1.0
  0
CIRCLE
  5
5B6
100
AcDbEntity
  8
1
390
0
  6
Continuous
 62
     7
100
AcDbCircle
 10
160.112052
 20
74.236114
 30
0.0
 40
2.75
210
0.0
220
0.0
230
1.0
  0
CIRCLE
  5
5B7
100
AcDbEntity
  8
1
390
0
  6
Continuous
 62
     7
100
AcDbCircle
 10
105.612052
 20
69.236114
 30
0.0
 40
2.75
210
0.0
220
0.0
230
1.0
  0
CIRCLE
  5
5B8
100
AcDbEntity
  8
1
390
0
  6
Continuous
 62
     7
100
AcDbCircle
 10
85.112052
 20
74.236114
 30
0.0
 40
2.75
210
0.0
220
0.0
230
1.0
  0
CIRCLE
  5
5B9
100
AcDbEntity
  8
1
390
0
  6
Continuous
 62
     7
100
AcDbCircle
 10
139.612052
 20
69.236114
 30
0.0
 40
2.75
210
0.0
220
0.0
230
1.0
  0
CIRCLE
  5
5BA
100
AcDbEntity
  8
1
390
0
  6
Continuous
 62
     7
100
AcDbCircle
 10
112.612052
 20
76.236114
 30
0.0
 40
1.5
210
0.0
220
0.0
230
1.0
  0
CIRCLE
  5
5BB
100
AcDbEntity
  8
1
390
0
  6
Continuous
 62
     7
100
AcDbCircle
 10
112.612052
 20
76.236114
 30
0.0
 40
1.3
210
0.0
220
0.0
230
1.0
  0
CIRCLE
  5
5BC
100
AcDbEntity
  8
1
390
0
  6
Continuous
 62
     7
100
AcDbCircle
 10
98.612052
 20
76.236114
 30
0.0
 40
1.3
210
0.0
220
0.0
230
1.0
  0
CIRCLE
  5
5BD
100
AcDbEntity
  8
1
390
0
  6
Continuous
 62
     7
100
AcDbCircle
 10
98.612052
 20
77.036114
 30
0.0
 40
0.3
210
0.0
220
0.0
230
1.0
  0
CIRCLE
  5
5BE
100
AcDbEntity
  8
1
390
0
  6
Continuous
 62
     7
100
AcDbCircle
 10
97.919232
 20
75.836114
 30
0.0
 40
0.3
210
0.0
220
0.0
230
1.0
  0
CIRCLE
  5
5BF
100
AcDbEntity
  8
1
390
0
  6
Continuous
 62
     7
100
AcDbCircle
 10
99.304872
 20
75.836114
 30
0.0
 40
0.3
210
0.0
220
0.0
230
1.0
  0
CIRCLE
  5
5C0
100
AcDbEntity
  8
1
390
0
  6
Continuous
 62
     7
100
AcDbCircle
 10
146.612052
 20
76.236114
 30
0.0
 40
1.3
210
0.0
220
0.0
230
1.0
  0
CIRCLE
  5
5C1
100
AcDbEntity
  8
1
390
0
  6
Continuous
 62
     7
100
AcDbCircle
 10
146.612052
 20
77.036114
 30
0.0
 40
0.3
210
0.0
220
0.0
230
1.0
  0
CIRCLE
  5
5C2
100
AcDbEntity
  8
1
390
0
  6
Continuous
 62
     7
100
AcDbCircle
 10
145.919232
 20
75.836114
 30
0.0
 40
0.3
210
0.0
220
0.0
230
1.0
  0
CIRCLE
  5
5C3
100
AcDbEntity
  8
1
390
0
  6
Continuous
 62
     7
100
AcDbCircle
 10
147.304872
 20
75.836114
 30
0.0
 40
0.3
210
0.0
220
0.0
230
1.0
  0
CIRCLE
  5
5C4
100
AcDbEntity
  8
1
390
0
  6
Continuous
 62
     7
100
AcDbCircle
 10
146.612052
 20
76.236114
 30
0.0
 40
1.5
210
0.0
220
0.0
230
1.0
  0
LINE
  5
5C5
100
AcDbEntity
  8
1
390
0
  6
Continuous
 62
     7
100
AcDbLine
 10
82.612052
 20
84.236114
 30
0.0
 11
162.612052
 21
84.236114
 31
0.0
  0
ARC
  5
5C6
100
AcDbEntity
  8
1
390
0
  6
Continuous
 62
     7
100
AcDbCircle
 10
162.612052
 20
83.236114
 30
0.0
 40
1.0
210
0.0
220
0.0
230
1.0
100
AcDbArc
 50
0.0
 51
90.0
  0
LINE
  5
5C7
100
AcDbEntity
  8
1
390
0
  6
Continuous
 62
     7
100
AcDbLine
 10
162.612052
 20
64.236114
 30
0.0
 11
82.612052
 21
64.236114
 31
0.0
  0
ARC
  5
5C8
100
AcDbEntity
  8
1
390
0
  6
Continuous
 62
     7
100
AcDbCircle
 10
82.612052
 20
65.236114
 30
0.0
 40
1.0
210
0.0
220
0.0
230
1.0
100
AcDbArc
 50
180.0
 51
270.0
  0
ARC
  5
5C9
100
AcDbEntity
  8
1
390
0
  6
Continuous
 62
     7
100
AcDbCircle
 10
82.612052
 20
83.236114
 30
0.0
 40
1.0
210
0.0
220
0.0
230
1.0
100
AcDbArc
 50
90.0
 51
180.0
  0
LINE
  5
5CA
100
AcDbEntity
  8
1
390
0
  6
Continuous
 62
     7
100
AcDbLine
 10
81.612052
 20
65.236114
 30
0.0
 11
81.612052
 21
83.236114
 31
0.0
  0
LINE
  5
5CB
100
AcDbEntity
  8
1
390
0
  6
Continuous
 62
     7
100
AcDbLine
 10
163.612052
 20
83.236114
 30
0.0
 11
163.612052
 21
65.236114
 31
0.0
  0
ARC
  5
5CC
100
AcDbEntity
  8
1
390
0
  6
Continuous
 62
     7
100
AcDbCircle
 10
162.612052
 20
65.236114
 30
0.0
 40
1.0
210
0.0
220
0.0
230
1.0
100
AcDbArc
 50
270.0
 51
360.0
  0
CIRCLE
  5
5CD
100
AcDbEntity
  8
1
390
0
  6
Continuous
 62
     7
100
AcDbCircle
 10
132.612052
 20
76.236114
 30
0.0
 40
1.5
210
0.0
220
0.0
230
1.0
  0
CIRCLE
  5
5CE
100
AcDbEntity
  8
1
390
0
  6
Continuous
 62
     7
100
AcDbCircle
 10
132.612052
 20
76.236114
 30
0.0
 40
1.3
210
0.0
220
0.0
230
1.0
  0
CIRCLE
  5
5CF
100
AcDbEntity
  8
1
390
0
  6
Continuous
 62
     7
100
AcDbCircle
 10
132.612052
 20
77.036114
 30
0.0
 40
0.3
210
0.0
220
0.0
230
1.0
  0
CIRCLE
  5
5D0
100
AcDbEntity
  8
1
390
0
  6
Continuous
 62
     7
100
AcDbCircle
 10
131.919232
 20
75.836114
 30
0.0
 40
0.3
210
0.0
220
0.0
230
1.0
  0
CIRCLE
  5
5D1
100
AcDbEntity
  8
1
390
0
  6
Continuous
 62
     7
100
AcDbCircle
 10
133.304872
 20
75.836114
 30
0.0
 40
0.3
210
0.0
220
0.0
230
1.0
  0
CIRCLE
  5
5D2
100
AcDbEntity
  8
1
390
0
  6
Continuous
 62
     7
100
AcDbCircle
 10
98.612052
 20
76.236114
 30
0.0
 40
1.5
210
0.0
220
0.0
230
1.0
  0
CIRCLE
  5
5D3
100
AcDbEntity
  8
1
390
0
  6
Continuous
 62
     7
100
AcDbCircle
 10
112.612052
 20
77.036114
 30
0.0
 40
0.3
210
0.0
220
0.0
230
1.0
  0
CIRCLE
  5
5D4
100
AcDbEntity
  8
1
390
0
  6
Continuous
 62
     7
100
AcDbCircle
 10
111.919232
 20
75.836114
 30
0.0
 40
0.3
210
0.0
220
0.0
230
1.0
  0
CIRCLE
  5
5D5
100
AcDbEntity
  8
1
390
0
  6
Continuous
 62
     7
100
AcDbCircle
 10
113.304872
 20
75.836114
 30
0.0
 40
0.3
210
0.0
220
0.0
230
1.0
  0
LINE
  5
5D6
100
AcDbEntity
  8
1
390
0
  6
Continuous
 62
     7
100
AcDbLine
 10
65.112052
 20
60.736114
 30
0.0
 11
63.112052
 21
60.736114
 31
0.0
  0
LINE
  5
5D7
100
AcDbEntity
  8
1
390
0
  6
Continuous
 62
     7
100
AcDbLine
 10
63.112052
 20
60.736114
 30
0.0
 11
63.112052
 21
62.236114
 31
0.0
  0
LINE
  5
5D8
100
AcDbEntity
  8
1
390
0
  6
Continuous
 62
     7
100
AcDbLine
 10
65.112052
 20
62.236114
 30
0.0
 11
63.112052
 21
62.236114
 31
0.0
  0
LINE
  5
5D9
100
AcDbEntity
  8
1
390
0
  6
Continuous
 62
     7
100
AcDbLine
 10
180.112052
 20
60.736114
 30
0.0
 11
65.112052
 21
60.736114
 31
0.0
  0
LINE
  5
5DA
100
AcDbEntity
  8
1
390
0
  6
Continuous
 62
     7
100
AcDbLine
 10
180.112052
 20
62.236114
 30
0.0
 11
65.112052
 21
62.236114
 31
0.0
  0
LINE
  5
5DB
100
AcDbEntity
  8
1
390
0
  6
Continuous
 62
     7
100
AcDbLine
 10
182.112052
 20
60.736114
 30
0.0
 11
182.112052
 21
62.236114
 31
0.0
  0
LINE
  5
5DC
100
AcDbEntity
  8
1
390
0
  6
Continuous
 62
     7
100
AcDbLine
 10
182.112052
 20
60.736114
 30
0.0
 11
180.112052
 21
60.736114
 31
0.0
  0
LINE
  5
5DD
100
AcDbEntity
  8
1
390
0
  6
Continuous
 62
     7
100
AcDbLine
 10
182.112052
 20
62.236114
 30
0.0
 11
180.112052
 21
62.236114
 31
0.0
  0
LINE
  5
5DE
100
AcDbEntity
  8
1
390
0
  6
Continuous
 62
     7
100
AcDbLine
 10
77.612052
 20
62.436114
 30
0.0
 11
167.612052
 21
62.436114
 31
0.0
  0
ARC
  5
5DF
100
AcDbEntity
  8
1
390
0
  6
Continuous
 62
     7
100
AcDbCircle
 10
167.612052
 20
61.436114
 30
0.0
 40
1.0
210
0.0
220
0.0
230
1.0
100
AcDbArc
 50
53.130102
 51
90.0
  0
LINE
  5
5E0
100
AcDbEntity
  8
1
390
0
  6
Continuous
 62
     7
100
AcDbLine
 10
168.612052
 20
85.236114
 30
0.0
 11
168.612052
 21
62.436114
 31
0.0
  0
LINE
  5
5E1
100
AcDbEntity
  8
1
390
0
  6
Continuous
 62
     7
100
AcDbLine
 10
168.612052
 20
62.436114
 30
0.0
 11
168.412052
 21
62.236114
 31
0.0
  0
LINE
  5
5E2
100
AcDbEntity
  8
1
390
0
  6
Continuous
 62
     7
100
AcDbLine
 10
77.612052
 20
86.236114
 30
0.0
 11
167.612052
 21
86.236114
 31
0.0
  0
ARC
  5
5E3
100
AcDbEntity
  8
1
390
0
  6
Continuous
 62
     7
100
AcDbCircle
 10
77.612052
 20
85.236114
 30
0.0
 40
1.0
210
0.0
220
0.0
230
1.0
100
AcDbArc
 50
90.0
 51
180.0
  0
ARC
  5
5E4
100
AcDbEntity
  8
1
390
0
  6
Continuous
 62
     7
100
AcDbCircle
 10
77.612052
 20
61.436114
 30
0.0
 40
1.0
210
0.0
220
0.0
230
1.0
100
AcDbArc
 50
90.0
 51
126.869898
  0
LINE
  5
5E5
100
AcDbEntity
  8
1
390
0
  6
Continuous
 62
     7
100
AcDbLine
 10
76.812052
 20
62.236114
 30
0.0
 11
76.612052
 21
62.436114
 31
0.0
  0
LINE
  5
5E6
100
AcDbEntity
  8
1
390
0
  6
Continuous
 62
     7
100
AcDbLine
 10
76.612052
 20
62.436114
 30
0.0
 11
76.612052
 21
85.236114
 31
0.0
  0
ARC
  5
5E7
100
AcDbEntity
  8
1
390
0
  6
Continuous
 62
     7
100
AcDbCircle
 10
167.612052
 20
85.236114
 30
0.0
 40
1.0
210
0.0
220
0.0
230
1.0
100
AcDbArc
 50
0.0
 51
90.0
  0
LINE
  5
5E8
100
AcDbEntity
  8
1
390
0
  6
Continuous
 62
     7
100
AcDbLine
 10
169.612052
 20
67.036114
 30
0.0
 11
169.612052
 21
69.436114
 31
0.0
  0
LINE
  5
5E9
100
AcDbEntity
  8
1
390
0
  6
Continuous
 62
     7
100
AcDbLine
 10
168.812052
 20
66.236114
 30
0.0
 11
168.812052
 21
70.236114
 31
0.0
  0
LINE
  5
5EA
100
AcDbEntity
  8
1
390
0
  6
Continuous
 62
     7
100
AcDbLine
 10
76.412052
 20
66.236114
 30
0.0
 11
76.412052
 21
70.236114
 31
0.0
  0
LINE
  5
5EB
100
AcDbEntity
  8
1
390
0
  6
Continuous
 62
     7
100
AcDbLine
 10
75.612052
 20
67.036114
 30
0.0
 11
75.612052
 21
69.436114
 31
0.0
  0
LINE
  5
5EC
100
AcDbEntity
  8
1
390
0
  6
Continuous
 62
     7
100
AcDbLine
 10
165.112052
 20
86.336114
 30
0.0
 11
165.112052
 21
86.236114
 31
0.0
  0
LINE
  5
5ED
100
AcDbEntity
  8
1
390
0
  6
Continuous
 62
     7
100
AcDbLine
 10
80.112052
 20
86.336114
 30
0.0
 11
80.112052
 21
86.236114
 31
0.0
  0
LINE
  5
5EE
100
AcDbEntity
  8
1
390
0
  6
Continuous
 62
     7
100
AcDbLine
 10
165.112052
 20
86.336114
 30
0.0
 11
80.112052
 21
86.336114
 31
0.0
  0
LINE
  5
5EF
100
AcDbEntity
  8
1
390
0
  6
DOT
 62
     9
100
AcDbLine
 10
169.612052
 20
68.536114
 30
0.0
 11
169.112052
 21
68.536114
 31
0.0
  0
LINE
  5
5F0
100
AcDbEntity
  8
1
390
0
  6
DOT
 62
     9
100
AcDbLine
 10
169.612052
 20
67.936114
 30
0.0
 11
169.112052
 21
67.936114
 31
0.0
  0
LINE
  5
5F1
100
AcDbEntity
  8
1
390
0
  6
DOT
 62
     9
100
AcDbLine
 10
169.112052
 20
68.536114
 30
0.0
 11
169.112052
 21
67.936114
 31
0.0
  0
LINE
  5
5F2
100
AcDbEntity
  8
1
390
0
  6
DOT
 62
     9
100
AcDbLine
 10
75.612052
 20
68.536114
 30
0.0
 11
76.112052
 21
68.536114
 31
0.0
  0
LINE
  5
5F3
100
AcDbEntity
  8
1
390
0
  6
DOT
 62
     9
100
AcDbLine
 10
76.112052
 20
68.536114
 30
0.0
 11
76.112052
 21
67.936114
 31
0.0
  0
LINE
  5
5F4
100
AcDbEntity
  8
1
390
0
  6
DOT
 62
     9
100
AcDbLine
 10
75.612052
 20
67.936114
 30
0.0
 11
76.112052
 21
67.936114
 31
0.0
  0
LINE
  5
5F5
100
AcDbEntity
  8
1
390
0
  6
DOT
 62
     9
100
AcDbLine
 10
169.112052
 20
68.536114
 30
0.0
 11
169.112052
 21
68.736114
 31
0.0
  0
LINE
  5
5F6
100
AcDbEntity
  8
1
390
0
  6
DOT
 62
     9
100
AcDbLine
 10
169.112052
 20
67.736114
 30
0.0
 11
169.112052
 21
67.936114
 31
0.0
  0
LINE
  5
5F7
100
AcDbEntity
  8
1
390
0
  6
DOT
 62
     9
100
AcDbLine
 10
76.112052
 20
67.736114
 30
0.0
 11
76.112052
 21
67.936114
 31
0.0
  0
LINE
  5
5F8
100
AcDbEntity
  8
1
390
0
  6
DOT
 62
     9
100
AcDbLine
 10
76.112052
 20
68.536114
 30
0.0
 11
76.112052
 21
68.736114
 31
0.0
  0
LINE
  5
5F9
100
AcDbEntity
  8
1
390
0
  6
DOT
 62
     9
100
AcDbLine
 10
169.112052
 20
67.736114
 30
0.0
 11
169.112052
 21
67.236114
 31
0.0
  0
LINE
  5
5FA
100
AcDbEntity
  8
1
390
0
  6
DOT
 62
     9
100
AcDbLine
 10
169.112052
 20
69.236114
 30
0.0
 11
169.112052
 21
68.736114
 31
0.0
  0
LINE
  5
5FB
100
AcDbEntity
  8
1
390
0
  6
DOT
 62
     9
100
AcDbLine
 10
169.612052
 20
67.236114
 30
0.0
 11
169.112052
 21
67.236114
 31
0.0
  0
LINE
  5
5FC
100
AcDbEntity
  8
1
390
0
  6
DOT
 62
     9
100
AcDbLine
 10
76.112052
 20
69.236114
 30
0.0
 11
76.112052
 21
68.736114
 31
0.0
  0
LINE
  5
5FD
100
AcDbEntity
  8
1
390
0
  6
DOT
 62
     9
100
AcDbLine
 10
75.612052
 20
69.236114
 30
0.0
 11
76.112052
 21
69.236114
 31
0.0
  0
LINE
  5
5FE
100
AcDbEntity
  8
1
390
0
  6
DOT
 62
     9
100
AcDbLine
 10
75.612052
 20
67.236114
 30
0.0
 11
76.112052
 21
67.236114
 31
0.0
  0
LINE
  5
5FF
100
AcDbEntity
  8
1
390
0
  6
DOT
 62
     9
100
AcDbLine
 10
76.112052
 20
67.736114
 30
0.0
 11
76.112052
 21
67.236114
 31
0.0
  0
LINE
  5
600
100
AcDbEntity
  8
1
390
0
  6
DOT
 62
     9
100
AcDbLine
 10
169.612052
 20
69.236114
 30
0.0
 11
169.112052
 21
69.236114
 31
0.0
  0
CIRCLE
  5
601
100
AcDbEntity
  8
1
390
0
  6
DOT
 62
     9
100
AcDbCircle
 10
122.612052
 20
74.236114
 30
0.0
 40
3.0
210
0.0
220
0.0
230
1.0
  0
CIRCLE
  5
602
100
AcDbEntity
  8
1
390
0
  6
DOT
 62
     9
100
AcDbCircle
 10
122.612052
 20
74.236114
 30
0.0
 40
9.25
210
0.0
220
0.0
230
1.0
  0
LINE
  5
603
100
AcDbEntity
  8
1
390
0
  6
DOT
 62
     9
100
AcDbLine
 10
123.862052
 20
79.077343
 30
0.0
 11
123.862052
 21
80.236114
 31
0.0
  0
LINE
  5
604
100
AcDbEntity
  8
1
390
0
  6
DOT
 62
     9
100
AcDbLine
 10
123.862052
 20
80.236114
 30
0.0
 11
121.362052
 21
80.236114
 31
0.0
  0
CIRCLE
  5
605
100
AcDbEntity
  8
1
390
0
  6
DOT
 62
     9
100
AcDbCircle
 10
120.791764
 20
72.913597
 30
0.0
 40
0.5
210
0.0
220
0.0
230
1.0
  0
CIRCLE
  5
606
100
AcDbEntity
  8
1
390
0
  6
DOT
 62
     9
100
AcDbCircle
 10
121.612052
 20
74.236114
 30
0.0
 40
0.5
210
0.0
220
0.0
230
1.0
  0
CIRCLE
  5
607
100
AcDbEntity
  8
1
390
0
  6
DOT
 62
     9
100
AcDbCircle
 10
122.612052
 20
75.236114
 30
0.0
 40
0.5
210
0.0
220
0.0
230
1.0
  0
CIRCLE
  5
608
100
AcDbEntity
  8
1
390
0
  6
DOT
 62
     9
100
AcDbCircle
 10
123.30734
 20
72.096237
 30
0.0
 40
0.5
210
0.0
220
0.0
230
1.0
  0
CIRCLE
  5
609
100
AcDbEntity
  8
1
390
0
  6
DOT
 62
     9
100
AcDbCircle
 10
124.862052
 20
74.236114
 30
0.0
 40
0.5
210
0.0
220
0.0
230
1.0
  0
CIRCLE
  5
60A
100
AcDbEntity
  8
1
390
0
  6
DOT
 62
     9
100
AcDbCircle
 10
124.43234
 20
75.558631
 30
0.0
 40
0.5
210
0.0
220
0.0
230
1.0
  0
CIRCLE
  5
60B
100
AcDbEntity
  8
1
390
0
  6
DOT
 62
     9
100
AcDbCircle
 10
120.791764
 20
75.558631
 30
0.0
 40
0.5
210
0.0
220
0.0
230
1.0
  0
CIRCLE
  5
60C
100
AcDbEntity
  8
1
390
0
  6
DOT
 62
     9
100
AcDbCircle
 10
122.612052
 20
73.236114
 30
0.0
 40
0.5
210
0.0
220
0.0
230
1.0
  0
CIRCLE
  5
60D
100
AcDbEntity
  8
1
390
0
  6
DOT
 62
     9
100
AcDbCircle
 10
120.362052
 20
74.236114
 30
0.0
 40
0.5
210
0.0
220
0.0
230
1.0
  0
CIRCLE
  5
60E
100
AcDbEntity
  8
1
390
0
  6
DOT
 62
     9
100
AcDbCircle
 10
121.916764
 20
76.375991
 30
0.0
 40
0.5
210
0.0
220
0.0
230
1.0
  0
CIRCLE
  5
60F
100
AcDbEntity
  8
1
390
0
  6
DOT
 62
     9
100
AcDbCircle
 10
123.612052
 20
74.236114
 30
0.0
 40
0.5
210
0.0
220
0.0
230
1.0
  0
CIRCLE
  5
610
100
AcDbEntity
  8
1
390
0
  6
DOT
 62
     9
100
AcDbCircle
 10
124.43234
 20
72.913597
 30
0.0
 40
0.5
210
0.0
220
0.0
230
1.0
  0
CIRCLE
  5
611
100
AcDbEntity
  8
1
390
0
  6
DOT
 62
     9
100
AcDbCircle
 10
121.916764
 20
72.096237
 30
0.0
 40
0.5
210
0.0
220
0.0
230
1.0
  0
CIRCLE
  5
612
100
AcDbEntity
  8
1
390
0
  6
DOT
 62
     9
100
AcDbCircle
 10
123.30734
 20
76.375991
 30
0.0
 40
0.5
210
0.0
220
0.0
230
1.0
  0
ARC
  5
613
100
AcDbEntity
  8
1
390
0
  6
DOT
 62
     9
100
AcDbCircle
 10
122.612052
 20
74.236114
 30
0.0
 40
5.0
210
0.0
220
0.0
230
1.0
100
AcDbArc
 50
104.477512
 51
75.522488
  0
LINE
  5
614
100
AcDbEntity
  8
1
390
0
  6
DOT
 62
     9
100
AcDbLine
 10
121.362052
 20
80.236114
 30
0.0
 11
121.362052
 21
79.077343
 31
0.0
  0
CIRCLE
  5
615
100
AcDbEntity
  8
1
390
0
  6
DOT
 62
     9
100
AcDbCircle
 10
122.612052
 20
74.236114
 30
0.0
 40
2.8
210
0.0
220
0.0
230
0.9999999999999999
  0
CIRCLE
  5
616
100
AcDbEntity
  8
1
390
0
  6
DOT
 62
     9
100
AcDbCircle
 10
122.612052
 20
74.236114
 30
0.0
 40
6.75
210
0.0
220
0.0
230
1.0
  0
LINE
  5
617
100
AcDbEntity
  8
1
390
0
  6
Continuous
 62
     7
100
AcDbLine
 10
168.812052
 20
66.236114
 30
0.0
 11
169.612052
 21
67.036114
 31
0.0
  0
LINE
  5
618
100
AcDbEntity
  8
1
390
0
  6
Continuous
 62
     7
100
AcDbLine
 10
169.612052
 20
69.436114
 30
0.0
 11
168.812052
 21
70.236114
 31
0.0
  0
LINE
  5
619
100
AcDbEntity
  8
1
390
0
  6
Continuous
 62
     7
100
AcDbLine
 10
76.612052
 20
70.236114
 30
0.0
 11
76.412052
 21
70.236114
 31
0.0
  0
LINE
  5
61A
100
AcDbEntity
  8
1
390
0
  6
Continuous
 62
     7
100
AcDbLine
 10
76.412052
 20
66.236114
 30
0.0
 11
76.612052
 21
66.236114
 31
0.0
  0
LINE
  5
61B
100
AcDbEntity
  8
1
390
0
  6
Continuous
 62
     7
100
AcDbLine
 10
76.412052
 20
70.236114
 30
0.0
 11
75.612052
 21
69.436114
 31
0.0
  0
LINE
  5
61C
100
AcDbEntity
  8
1
390
0
  6
Continuous
 62
     7
100
AcDbLine
 10
75.612052
 20
67.036114
 30
0.0
 11
76.412052
 21
66.236114
 31
0.0
  0
LINE
  5
61D
100
AcDbEntity
  8
1
390
0
  6
Continuous
 62
     7
100
AcDbLine
 10
168.612052
 20
66.236114
 30
0.0
 11
168.812052
 21
66.236114
 31
0.0
  0
LINE
  5
61E
100
AcDbEntity
  8
1
390
0
  6
Continuous
 62
     7
100
AcDbLine
 10
168.812052
 20
70.236114
 30
0.0
 11
168.612052
 21
70.236114
 31
0.0
  0
LINE
  5
61F
100
AcDbEntity
  8
1
390
0
  6
DOT
 62
     9
100
AcDbLine
 10
179.212052
 20
60.736114
 30
0.0
 11
179.212052
 21
62.236114
 31
0.0
  0
LINE
  5
620
100
AcDbEntity
  8
1
390
0
  6
DOT
 62
     9
100
AcDbLine
 10
175.012052
 20
62.236114
 30
0.0
 11
175.012052
 21
60.736114
 31
0.0
  0
LINE
  5
621
100
AcDbEntity
  8
1
390
0
  6
DOT
 62
     9
100
AcDbLine
 10
70.212052
 20
60.736114
 30
0.0
 11
70.212052
 21
62.236114
 31
0.0
  0
LINE
  5
622
100
AcDbEntity
  8
1
390
0
  6
DOT
 62
     9
100
AcDbLine
 10
66.012052
 20
62.236114
 30
0.0
 11
66.012052
 21
60.736114
 31
0.0
  0
LINE
  5
623
100
AcDbEntity
  8
1
390
0
  6
Continuous
 62
     7
100
AcDbLine
 10
301.347146
 20
177.379365
 30
0.0
 11
299.847146
 21
177.379365
 31
0.0
  0
LINE
  5
624
100
AcDbEntity
  8
1
390
0
  6
Continuous
 62
     7
100
AcDbLine
 10
299.847146
 20
177.379365
 30
0.0
 11
299.847146
 21
175.379365
 31
0.0
  0
LINE
  5
625
100
AcDbEntity
  8
1
390
0
  6
Continuous
 62
     7
100
AcDbLine
 10
301.347146
 20
177.379365
 30
0.0
 11
301.347146
 21
175.379365
 31
0.0
  0
LINE
  5
626
100
AcDbEntity
  8
1
390
0
  6
Continuous
 62
     7
100
AcDbLine
 10
299.847146
 20
175.379365
 30
0.0
 11
299.847146
 21
144.379365
 31
0.0
  0
LINE
  5
627
100
AcDbEntity
  8
1
390
0
  6
Continuous
 62
     7
100
AcDbLine
 10
301.347146
 20
175.379365
 30
0.0
 11
301.347146
 21
144.379365
 31
0.0
  0
LINE
  5
628
100
AcDbEntity
  8
1
390
0
  6
Continuous
 62
     7
100
AcDbLine
 10
301.347146
 20
142.379365
 30
0.0
 11
299.847146
 21
142.379365
 31
0.0
  0
LINE
  5
629
100
AcDbEntity
  8
1
390
0
  6
Continuous
 62
     7
100
AcDbLine
 10
299.847146
 20
144.379365
 30
0.0
 11
299.847146
 21
142.379365
 31
0.0
  0
LINE
  5
62A
100
AcDbEntity
  8
1
390
0
  6
Continuous
 62
     7
100
AcDbLine
 10
301.347146
 20
144.379365
 30
0.0
 11
301.347146
 21
142.379365
 31
0.0
  0
LINE
  5
62B
100
AcDbEntity
  8
1
390
0
  6
Continuous
 62
     7
100
AcDbLine
 10
294.147146
 20
145.379365
 30
0.0
 11
294.147146
 21
145.879365
 31
0.0
  0
ARC
  5
62C
100
AcDbEntity
  8
1
390
0
  6
Continuous
 62
     7
100
AcDbCircle
 10
294.347146
 20
145.879365
 30
0.0
 40
0.2
210
0.0
220
0.0
230
0.9999999999999999
100
AcDbArc
 50
90.0
 51
180.0
  0
LINE
  5
62D
100
AcDbEntity
  8
1
390
0
  6
Continuous
 62
     7
100
AcDbLine
 10
294.347146
 20
146.079365
 30
0.0
 11
294.847146
 21
146.079365
 31
0.0
  0
LINE
  5
62E
100
AcDbEntity
  8
1
390
0
  6
Continuous
 62
     7
100
AcDbLine
 10
294.847146
 20
146.079365
 30
0.0
 11
294.847146
 21
146.679365
 31
0.0
  0
LINE
  5
62F
100
AcDbEntity
  8
1
390
0
  6
Continuous
 62
     7
100
AcDbLine
 10
294.847146
 20
146.679365
 30
0.0
 11
294.347146
 21
146.679365
 31
0.0
  0
ARC
  5
630
100
AcDbEntity
  8
1
390
0
  6
Continuous
 62
     7
100
AcDbCircle
 10
294.347146
 20
146.879365
 30
0.0
 40
0.2
210
0.0
220
0.0
230
1.0
100
AcDbArc
 50
180.0
 51
270.0
  0
LINE
  5
631
100
AcDbEntity
  8
1
390
0
  6
Continuous
 62
     7
100
AcDbLine
 10
294.147146
 20
146.879365
 30
0.0
 11
294.147146
 21
147.379365
 31
0.0
  0
LINE
  5
632
100
AcDbEntity
  8
1
390
0
  6
Continuous
 62
     7
100
AcDbLine
 10
294.147146
 20
147.379365
 30
0.0
 11
293.547146
 21
147.379365
 31
0.0
  0
LINE
  5
633
100
AcDbEntity
  8
1
390
0
  6
Continuous
 62
     7
100
AcDbLine
 10
293.547146
 20
147.379365
 30
0.0
 11
293.547146
 21
146.879365
 31
0.0
  0
ARC
  5
634
100
AcDbEntity
  8
1
390
0
  6
Continuous
 62
     7
100
AcDbCircle
 10
293.347146
 20
146.879365
 30
0.0
 40
0.2
210
0.0
220
0.0
230
0.9999999999999999
100
AcDbArc
 50
270.0
 51
360.0
  0
LINE
  5
635
100
AcDbEntity
  8
1
390
0
  6
Continuous
 62
     7
100
AcDbLine
 10
293.347146
 20
146.679365
 30
0.0
 11
292.847146
 21
146.679365
 31
0.0
  0
LINE
  5
636
100
AcDbEntity
  8
1
390
0
  6
Continuous
 62
     7
100
AcDbLine
 10
292.847146
 20
146.679365
 30
0.0
 11
292.847146
 21
146.079365
 31
0.0
  0
LINE
  5
637
100
AcDbEntity
  8
1
390
0
  6
Continuous
 62
     7
100
AcDbLine
 10
292.847146
 20
146.079365
 30
0.0
 11
293.347146
 21
146.079365
 31
0.0
  0
ARC
  5
638
100
AcDbEntity
  8
1
390
0
  6
Continuous
 62
     7
100
AcDbCircle
 10
293.347146
 20
145.879365
 30
0.0
 40
0.2
210
0.0
220
0.0
230
1.0
100
AcDbArc
 50
0.0
 51
90.0
  0
LINE
  5
639
100
AcDbEntity
  8
1
390
0
  6
Continuous
 62
     7
100
AcDbLine
 10
293.547146
 20
145.879365
 30
0.0
 11
293.547146
 21
145.379365
 31
0.0
  0
LINE
  5
63A
100
AcDbEntity
  8
1
390
0
  6
Continuous
 62
     7
100
AcDbLine
 10
293.547146
 20
145.379365
 30
0.0
 11
294.147146
 21
145.379365
 31
0.0
  0
CIRCLE
  5
63B
100
AcDbEntity
  8
1
390
0
  6
Continuous
 62
     7
100
AcDbCircle
 10
293.847146
 20
146.379365
 30
0.0
 40
1.2
210
0.0
220
0.0
230
1.0
  0
LINE
  5
63C
100
AcDbEntity
  8
1
390
0
  6
Continuous
 62
     7
100
AcDbLine
 10
293.547146
 20
173.879365
 30
0.0
 11
293.547146
 21
174.379365
 31
0.0
  0
ARC
  5
63D
100
AcDbEntity
  8
1
390
0
  6
Continuous
 62
     7
100
AcDbCircle
 10
293.347146
 20
173.879365
 30
0.0
 40
0.2
210
0.0
220
0.0
230
0.9999999999999999
100
AcDbArc
 50
270.0
 51
360.0
  0
LINE
  5
63E
100
AcDbEntity
  8
1
390
0
  6
Continuous
 62
     7
100
AcDbLine
 10
292.847146
 20
173.679365
 30
0.0
 11
293.347146
 21
173.679365
 31
0.0
  0
LINE
  5
63F
100
AcDbEntity
  8
1
390
0
  6
Continuous
 62
     7
100
AcDbLine
 10
292.847146
 20
173.079365
 30
0.0
 11
292.847146
 21
173.679365
 31
0.0
  0
LINE
  5
640
100
AcDbEntity
  8
1
390
0
  6
Continuous
 62
     7
100
AcDbLine
 10
293.347146
 20
173.079365
 30
0.0
 11
292.847146
 21
173.079365
 31
0.0
  0
ARC
  5
641
100
AcDbEntity
  8
1
390
0
  6
Continuous
 62
     7
100
AcDbCircle
 10
293.347146
 20
172.879365
 30
0.0
 40
0.2
210
0.0
220
0.0
230
1.0
100
AcDbArc
 50
0.0
 51
90.0
  0
LINE
  5
642
100
AcDbEntity
  8
1
390
0
  6
Continuous
 62
     7
100
AcDbLine
 10
293.547146
 20
172.379365
 30
0.0
 11
293.547146
 21
172.879365
 31
0.0
  0
LINE
  5
643
100
AcDbEntity
  8
1
390
0
  6
Continuous
 62
     7
100
AcDbLine
 10
294.147146
 20
172.379365
 30
0.0
 11
293.547146
 21
172.379365
 31
0.0
  0
LINE
  5
644
100
AcDbEntity
  8
1
390
0
  6
Continuous
 62
     7
100
AcDbLine
 10
294.147146
 20
172.879365
 30
0.0
 11
294.147146
 21
172.379365
 31
0.0
  0
ARC
  5
645
100
AcDbEntity
  8
1
390
0
  6
Continuous
 62
     7
100
AcDbCircle
 10
294.347146
 20
172.879365
 30
0.0
 40
0.2
210
0.0
220
0.0
230
0.9999999999999999
100
AcDbArc
 50
90.0
 51
180.0
  0
LINE
  5
646
100
AcDbEntity
  8
1
390
0
  6
Continuous
 62
     7
100
AcDbLine
 10
294.847146
 20
173.679365
 30
0.0
 11
294.847146
 21
173.079365
 31
0.0
  0
LINE
  5
647
100
AcDbEntity
  8
1
390
0
  6
Continuous
 62
     7
100
AcDbLine
 10
294.347146
 20
173.679365
 30
0.0
 11
294.847146
 21
173.679365
 31
0.0
  0
ARC
  5
648
100
AcDbEntity
  8
1
390
0
  6
Continuous
 62
     7
100
AcDbCircle
 10
294.347146
 20
173.879365
 30
0.0
 40
0.2
210
0.0
220
0.0
230
1.0
100
AcDbArc
 50
180.0
 51
270.0
  0
LINE
  5
649
100
AcDbEntity
  8
1
390
0
  6
Continuous
 62
     7
100
AcDbLine
 10
294.147146
 20
174.379365
 30
0.0
 11
294.147146
 21
173.879365
 31
0.0
  0
LINE
  5
64A
100
AcDbEntity
  8
1
390
0
  6
Continuous
 62
     7
100
AcDbLine
 10
293.547146
 20
174.379365
 30
0.0
 11
294.147146
 21
174.379365
 31
0.0
  0
CIRCLE
  5
64B
100
AcDbEntity
  8
1
390
0
  6
Continuous
 62
     7
100
AcDbCircle
 10
293.847146
 20
173.379365
 30
0.0
 40
1.2
210
0.0
220
0.0
230
1.0
  0
LINE
  5
64C
100
AcDbEntity
  8
1
390
0
  6
Continuous
 62
     7
100
AcDbLine
 10
294.847146
 20
173.079365
 30
0.0
 11
294.347146
 21
173.079365
 31
0.0
  0
CIRCLE
  5
64D
100
AcDbEntity
  8
1
390
0
  6
Continuous
 62
     7
100
AcDbCircle
 10
293.847146
 20
173.379365
 30
0.0
 40
2.0
210
0.0
220
0.0
230
1.0
  0
CIRCLE
  5
64E
100
AcDbEntity
  8
1
390
0
  6
Continuous
 62
     7
100
AcDbCircle
 10
293.847146
 20
146.379365
 30
0.0
 40
2.0
210
0.0
220
0.0
230
1.0
  0
LINE
  5
64F
100
AcDbEntity
  8
1
390
0
  6
Continuous
 62
     7
100
AcDbLine
 10
299.647146
 20
143.379365
 30
0.0
 11
299.647146
 21
176.379365
 31
0.0
  0
ARC
  5
650
100
AcDbEntity
  8
1
390
0
  6
Continuous
 62
     7
100
AcDbCircle
 10
276.847146
 20
176.379365
 30
0.0
 40
1.0
210
0.0
220
0.0
230
1.0
100
AcDbArc
 50
90.0
 51
180.0
  0
ARC
  5
651
100
AcDbEntity
  8
1
390
0
  6
Continuous
 62
     7
100
AcDbCircle
 10
276.847146
 20
143.379365
 30
0.0
 40
1.0
210
0.0
220
0.0
230
1.0
100
AcDbArc
 50
180.0
 51
270.0
  0
LINE
  5
652
100
AcDbEntity
  8
1
390
0
  6
Continuous
 62
     7
100
AcDbLine
 10
275.847146
 20
143.379365
 30
0.0
 11
275.847146
 21
176.379365
 31
0.0
  0
POLYLINE
  5
653
100
AcDbEntity
  8
1
390
0
  6
Continuous
 62
     7
100
AcDb2dPolyline
 66
     1
 10
0.0
 20
0.0
 30
0.0
 40
3.0
 41
3.0
  0
VERTEX
  5
654
100
AcDbEntity
  8
1
390
0
 62
     7
100
AcDbVertex
100
AcDb2dVertex
 10
299.647146
 20
143.379365
 30
0.0
  0
VERTEX
  5
655
100
AcDbEntity
  8
1
390
0
 62
     7
100
AcDbVertex
100
AcDb2dVertex
 10
299.647954
 20
143.339157
 30
0.0
  0
VERTEX
  5
656
100
AcDbEntity
  8
1
390
0
 62
     7
100
AcDbVertex
100
AcDb2dVertex
 10
299.650379
 20
143.299014
 30
0.0
  0
VERTEX
  5
657
100
AcDbEntity
  8
1
390
0
 62
     7
100
AcDbVertex
100
AcDb2dVertex
 10
299.654416
 20
143.259001
 30
0.0
  0
VERTEX
  5
658
100
AcDbEntity
  8
1
390
0
 62
     7
100
AcDbVertex
100
AcDb2dVertex
 10
299.660058
 20
143.219183
 30
0.0
  0
VERTEX
  5
659
100
AcDbEntity
  8
1
390
0
 62
     7
100
AcDbVertex
100
AcDb2dVertex
 10
299.667297
 20
143.179624
 30
0.0
  0
VERTEX
  5
65A
100
AcDbEntity
  8
1
390
0
 62
     7
100
AcDbVertex
100
AcDb2dVertex
 10
299.676121
 20
143.140388
 30
0.0
  0
VERTEX
  5
65B
100
AcDbEntity
  8
1
390
0
 62
     7
100
AcDbVertex
100
AcDb2dVertex
 10
299.686515
 20
143.101538
 30
0.0
  0
VERTEX
  5
65C
100
AcDbEntity
  8
1
390
0
 62
     7
100
AcDbVertex
100
AcDb2dVertex
 10
299.698462
 20
143.063138
 30
0.0
  0
VERTEX
  5
65D
100
AcDbEntity
  8
1
390
0
 62
     7
100
AcDbVertex
100
AcDb2dVertex
 10
299.711944
 20
143.025249
 30
0.0
  0
VERTEX
  5
65E
100
AcDbEntity
  8
1
390
0
 62
     7
100
AcDbVertex
100
AcDb2dVertex
 10
299.726939
 20
142.987932
 30
0.0
  0
VERTEX
  5
65F
100
AcDbEntity
  8
1
390
0
 62
     7
100
AcDbVertex
100
AcDb2dVertex
 10
299.743422
 20
142.951249
 30
0.0
  0
VERTEX
  5
660
100
AcDbEntity
  8
1
390
0
 62
     7
100
AcDbVertex
100
AcDb2dVertex
 10
299.761366
 20
142.915259
 30
0.0
  0
VERTEX
  5
661
100
AcDbEntity
  8
1
390
0
 62
     7
100
AcDbVertex
100
AcDb2dVertex
 10
299.780743
 20
142.880019
 30
0.0
  0
VERTEX
  5
662
100
AcDbEntity
  8
1
390
0
 62
     7
100
AcDbVertex
100
AcDb2dVertex
 10
299.801522
 20
142.845586
 30
0.0
  0
VERTEX
  5
663
100
AcDbEntity
  8
1
390
0
 62
     7
100
AcDbVertex
100
AcDb2dVertex
 10
299.823668
 20
142.812017
 30
0.0
  0
VERTEX
  5
664
100
AcDbEntity
  8
1
390
0
 62
     7
100
AcDbVertex
100
AcDb2dVertex
 10
299.847146
 20
142.779365
 30
0.0
  0
SEQEND
  5
665
100
AcDbEntity
  8
0
390
0
  0
POLYLINE
  5
666
100
AcDbEntity
  8
1
390
0
  6
Continuous
 62
     7
100
AcDb2dPolyline
 66
     1
 10
0.0
 20
0.0
 30
0.0
 40
3.0
 41
3.0
  0
VERTEX
  5
667
100
AcDbEntity
  8
1
390
0
 62
     7
100
AcDbVertex
100
AcDb2dVertex
 10
299.847146
 20
176.979365
 30
0.0
  0
VERTEX
  5
668
100
AcDbEntity
  8
1
390
0
 62
     7
100
AcDbVertex
100
AcDb2dVertex
 10
299.823668
 20
176.946714
 30
0.0
  0
VERTEX
  5
669
100
AcDbEntity
  8
1
390
0
 62
     7
100
AcDbVertex
100
AcDb2dVertex
 10
299.801522
 20
176.913145
 30
0.0
  0
VERTEX
  5
66A
100
AcDbEntity
  8
1
390
0
 62
     7
100
AcDbVertex
100
AcDb2dVertex
 10
299.780743
 20
176.878712
 30
0.0
  0
VERTEX
  5
66B
100
AcDbEntity
  8
1
390
0
 62
     7
100
AcDbVertex
100
AcDb2dVertex
 10
299.761366
 20
176.843472
 30
0.0
  0
VERTEX
  5
66C
100
AcDbEntity
  8
1
390
0
 62
     7
100
AcDbVertex
100
AcDb2dVertex
 10
299.743422
 20
176.807481
 30
0.0
  0
VERTEX
  5
66D
100
AcDbEntity
  8
1
390
0
 62
     7
100
AcDbVertex
100
AcDb2dVertex
 10
299.726939
 20
176.770798
 30
0.0
  0
VERTEX
  5
66E
100
AcDbEntity
  8
1
390
0
 62
     7
100
AcDbVertex
100
AcDb2dVertex
 10
299.711944
 20
176.733482
 30
0.0
  0
VERTEX
  5
66F
100
AcDbEntity
  8
1
390
0
 62
     7
100
AcDbVertex
100
AcDb2dVertex
 10
299.698462
 20
176.695593
 30
0.0
  0
VERTEX
  5
670
100
AcDbEntity
  8
1
390
0
 62
     7
100
AcDbVertex
100
AcDb2dVertex
 10
299.686515
 20
176.657193
 30
0.0
  0
VERTEX
  5
671
100
AcDbEntity
  8
1
390
0
 62
     7
100
AcDbVertex
100
AcDb2dVertex
 10
299.676121
 20
176.618343
 30
0.0
  0
VERTEX
  5
672
100
AcDbEntity
  8
1
390
0
 62
     7
100
AcDbVertex
100
AcDb2dVertex
 10
299.667297
 20
176.579107
 30
0.0
  0
VERTEX
  5
673
100
AcDbEntity
  8
1
390
0
 62
     7
100
AcDbVertex
100
AcDb2dVertex
 10
299.660058
 20
176.539548
 30
0.0
  0
VERTEX
  5
674
100
AcDbEntity
  8
1
390
0
 62
     7
100
AcDbVertex
100
AcDb2dVertex
 10
299.654416
 20
176.499729
 30
0.0
  0
VERTEX
  5
675
100
AcDbEntity
  8
1
390
0
 62
     7
100
AcDbVertex
100
AcDb2dVertex
 10
299.650379
 20
176.459716
 30
0.0
  0
VERTEX
  5
676
100
AcDbEntity
  8
1
390
0
 62
     7
100
AcDbVertex
100
AcDb2dVertex
 10
299.647954
 20
176.419573
 30
0.0
  0
VERTEX
  5
677
100
AcDbEntity
  8
1
390
0
 62
     7
100
AcDbVertex
100
AcDb2dVertex
 10
299.647146
 20
176.379365
 30
0.0
  0
SEQEND
  5
678
100
AcDbEntity
  8
0
390
0
  0
LINE
  5
679
100
AcDbEntity
  8
1
390
0
  6
Continuous
 62
     7
100
AcDbLine
 10
299.847146
 20
142.579365
 30
0.0
 11
299.647146
 21
142.379365
 31
0.0
  0
LINE
  5
67A
100
AcDbEntity
  8
1
390
0
  6
Continuous
 62
     7
100
AcDbLine
 10
299.647146
 20
142.379365
 30
0.0
 11
276.847146
 21
142.379365
 31
0.0
  0
LINE
  5
67B
100
AcDbEntity
  8
1
390
0
  6
Continuous
 62
     7
100
AcDbLine
 10
276.847146
 20
177.379365
 30
0.0
 11
299.647146
 21
177.379365
 31
0.0
  0
LINE
  5
67C
100
AcDbEntity
  8
1
390
0
  6
Continuous
 62
     7
100
AcDbLine
 10
299.647146
 20
177.379365
 30
0.0
 11
299.847146
 21
177.179365
 31
0.0
  0
LINE
  5
67D
100
AcDbEntity
  8
1
390
0
  6
Continuous
 62
     7
100
AcDbLine
 10
275.747146
 20
144.879365
 30
0.0
 11
275.847146
 21
144.879365
 31
0.0
  0
LINE
  5
67E
100
AcDbEntity
  8
1
390
0
  6
Continuous
 62
     7
100
AcDbLine
 10
275.747146
 20
174.879365
 30
0.0
 11
275.747146
 21
144.879365
 31
0.0
  0
LINE
  5
67F
100
AcDbEntity
  8
1
390
0
  6
Continuous
 62
     7
100
AcDbLine
 10
275.747146
 20
174.879365
 30
0.0
 11
275.847146
 21
174.879365
 31
0.0
  0
LINE
  5
680
100
AcDbEntity
  8
1
390
0
  6
Continuous
 62
     7
100
AcDbLine
 10
297.847146
 20
140.779365
 30
0.0
 11
297.847146
 21
142.379365
 31
0.0
  0
LINE
  5
681
100
AcDbEntity
  8
1
390
0
  6
Continuous
 62
     7
100
AcDbLine
 10
296.847146
 20
140.779365
 30
0.0
 11
297.847146
 21
140.779365
 31
0.0
  0
LINE
  5
682
100
AcDbEntity
  8
1
390
0
  6
Continuous
 62
     7
100
AcDbLine
 10
277.847146
 20
140.779365
 30
0.0
 11
278.847146
 21
140.779365
 31
0.0
  0
LINE
  5
683
100
AcDbEntity
  8
1
390
0
  6
Continuous
 62
     7
100
AcDbLine
 10
277.847146
 20
140.779365
 30
0.0
 11
277.847146
 21
142.379365
 31
0.0
  0
LINE
  5
684
100
AcDbEntity
  8
1
390
0
  6
Continuous
 62
     7
100
AcDbLine
 10
278.847146
 20
140.779365
 30
0.0
 11
296.847146
 21
140.779365
 31
0.0
  0
LINE
  5
685
100
AcDbEntity
  8
1
390
0
  6
Continuous
 62
     7
100
AcDbLine
 10
286.047146
 20
139.014751
 30
0.0
 11
286.047146
 21
139.024696
 31
0.0
  0
LINE
  5
686
100
AcDbEntity
  8
1
390
0
  6
Continuous
 62
     7
100
AcDbLine
 10
289.647146
 20
139.024696
 30
0.0
 11
289.647146
 21
139.014751
 31
0.0
  0
ARC
  5
687
100
AcDbEntity
  8
1
390
0
  6
Continuous
 62
     7
100
AcDbCircle
 10
287.847146
 20
145.779365
 30
0.0
 40
6.99039
210
0.0
220
0.0
230
1.0
100
AcDbArc
 50
277.535034
 51
284.921556
  0
POLYLINE
  5
688
100
AcDbEntity
  8
1
390
0
  6
Continuous
 62
     7
100
AcDb2dPolyline
 66
     1
 10
0.0
 20
0.0
 30
0.0
 40
3.0
 41
3.0
  0
VERTEX
  5
689
100
AcDbEntity
  8
1
390
0
 62
     7
100
AcDbVertex
100
AcDb2dVertex
 10
288.763812
 20
138.849338
 30
0.0
 42
-0.040268
  0
VERTEX
  5
68A
100
AcDbEntity
  8
1
390
0
 62
     7
100
AcDbVertex
100
AcDb2dVertex
 10
288.31295
 20
138.820844
 30
0.0
  0
VERTEX
  5
68B
100
AcDbEntity
  8
1
390
0
 62
     7
100
AcDbVertex
100
AcDb2dVertex
 10
288.214431
 20
138.845988
 30
0.0
  0
VERTEX
  5
68C
100
AcDbEntity
  8
1
390
0
 62
     7
100
AcDbVertex
100
AcDb2dVertex
 10
288.213812
 20
138.849338
 30
0.0
  0
SEQEND
  5
68D
100
AcDbEntity
  8
0
390
0
  0
LINE
  5
68E
100
AcDbEntity
  8
1
390
0
  6
Continuous
 62
     7
100
AcDbLine
 10
288.213812
 20
139.024696
 30
0.0
 11
288.213812
 21
138.849338
 31
0.0
  0
ARC
  5
68F
100
AcDbEntity
  8
1
390
0
  6
Continuous
 62
     7
100
AcDbCircle
 10
287.847146
 20
145.779365
 30
0.0
 40
6.764614
210
0.0
220
0.0
230
1.0
100
AcDbArc
 50
266.892838
 51
273.107162
  0
LINE
  5
690
100
AcDbEntity
  8
1
390
0
  6
Continuous
 62
     7
100
AcDbLine
 10
287.480479
 20
138.849338
 30
0.0
 11
287.480479
 21
139.024696
 31
0.0
  0
POLYLINE
  5
691
100
AcDbEntity
  8
1
390
0
  6
Continuous
 62
     7
100
AcDb2dPolyline
 66
     1
 10
0.0
 20
0.0
 30
0.0
 40
3.0
 41
3.0
  0
VERTEX
  5
692
100
AcDbEntity
  8
1
390
0
 62
     7
100
AcDbVertex
100
AcDb2dVertex
 10
287.480479
 20
138.849338
 30
0.0
  0
VERTEX
  5
693
100
AcDbEntity
  8
1
390
0
 62
     7
100
AcDbVertex
100
AcDb2dVertex
 10
287.375724
 20
138.820545
 30
0.0
 42
-0.039052
  0
VERTEX
  5
694
100
AcDbEntity
  8
1
390
0
 62
     7
100
AcDbVertex
100
AcDb2dVertex
 10
286.930479
 20
138.849338
 30
0.0
  0
SEQEND
  5
695
100
AcDbEntity
  8
0
390
0
  0
ARC
  5
696
100
AcDbEntity
  8
1
390
0
  6
Continuous
 62
     7
100
AcDbCircle
 10
287.847146
 20
145.779365
 30
0.0
 40
6.99039
210
0.0
220
0.0
230
1.0
100
AcDbArc
 50
255.078444
 51
262.464966
  0
LINE
  5
697
100
AcDbEntity
  8
1
390
0
  6
DOT
 62
     9
100
AcDbLine
 10
288.213812
 20
139.779365
 30
0.0
 11
288.213812
 21
139.024696
 31
0.0
  0
LINE
  5
698
100
AcDbEntity
  8
1
390
0
  6
DOT
 62
     9
100
AcDbLine
 10
287.480479
 20
139.779365
 30
0.0
 11
287.480479
 21
139.024696
 31
0.0
  0
LINE
  5
699
100
AcDbEntity
  8
1
390
0
  6
DOT
 62
     9
100
AcDbLine
 10
287.480479
 20
139.779365
 30
0.0
 11
288.213812
 21
139.779365
 31
0.0
  0
LINE
  5
69A
100
AcDbEntity
  8
1
390
0
  6
DOT
 62
     9
100
AcDbLine
 10
288.213812
 20
139.779365
 30
0.0
 11
288.763812
 21
139.779365
 31
0.0
  0
LINE
  5
69B
100
AcDbEntity
  8
1
390
0
  6
DOT
 62
     9
100
AcDbLine
 10
286.930479
 20
139.779365
 30
0.0
 11
287.480479
 21
139.779365
 31
0.0
  0
LINE
  5
69C
100
AcDbEntity
  8
1
390
0
  6
DOT
 62
     9
100
AcDbLine
 10
288.763812
 20
139.779365
 30
0.0
 11
289.647146
 21
139.779365
 31
0.0
  0
LINE
  5
69D
100
AcDbEntity
  8
1
390
0
  6
DOT
 62
     9
100
AcDbLine
 10
289.647146
 20
139.779365
 30
0.0
 11
289.647146
 21
139.024696
 31
0.0
  0
LINE
  5
69E
100
AcDbEntity
  8
1
390
0
  6
DOT
 62
     9
100
AcDbLine
 10
286.047146
 20
139.779365
 30
0.0
 11
286.930479
 21
139.779365
 31
0.0
  0
LINE
  5
69F
100
AcDbEntity
  8
1
390
0
  6
DOT
 62
     9
100
AcDbLine
 10
286.047146
 20
139.779365
 30
0.0
 11
286.047146
 21
139.024696
 31
0.0
  0
LINE
  5
6A0
100
AcDbEntity
  8
1
390
0
  6
Continuous
 62
     7
100
AcDbLine
 10
282.047146
 20
139.779365
 30
0.0
 11
285.196669
 21
139.779365
 31
0.0
  0
LINE
  5
6A1
100
AcDbEntity
  8
1
390
0
  6
DOT
 62
     9
100
AcDbLine
 10
285.196669
 20
139.779365
 30
0.0
 11
286.047146
 21
139.779365
 31
0.0
  0
LINE
  5
6A2
100
AcDbEntity
  8
1
390
0
  6
DOT
 62
     9
100
AcDbLine
 10
289.847146
 20
139.979365
 30
0.0
 11
285.167137
 21
139.979365
 31
0.0
  0
LINE
  5
6A3
100
AcDbEntity
  8
1
390
0
  6
Continuous
 62
     7
100
AcDbLine
 10
285.167137
 20
139.979365
 30
0.0
 11
281.847146
 21
139.979365
 31
0.0
  0
LINE
  5
6A4
100
AcDbEntity
  8
1
390
0
  6
DOT
 62
     9
100
AcDbLine
 10
283.365211
 20
145.779365
 30
0.0
 11
288.347146
 21
145.779365
 31
0.0
  0
LINE
  5
6A5
100
AcDbEntity
  8
1
390
0
  6
DOT
 62
     9
100
AcDbLine
 10
283.365211
 20
145.779365
 30
0.0
 11
283.365211
 21
139.779365
 31
0.0
  0
LINE
  5
6A6
100
AcDbEntity
  8
1
390
0
  6
DOT
 62
     9
100
AcDbLine
 10
283.365211
 20
139.779365
 30
0.0
 11
283.365211
 21
140.779365
 31
0.0
  0
LINE
  5
6A7
100
AcDbEntity
  8
1
390
0
  6
DOT
 62
     9
100
AcDbLine
 10
283.365211
 20
140.779365
 30
0.0
 11
283.365211
 21
142.379365
 31
0.0
  0
LINE
  5
6A8
100
AcDbEntity
  8
1
390
0
  6
DOT
 62
     9
100
AcDbLine
 10
283.365211
 20
142.379365
 30
0.0
 11
283.365211
 21
145.779365
 31
0.0
  0
LINE
  5
6A9
100
AcDbEntity
  8
1
390
0
  6
DOT
 62
     9
100
AcDbLine
 10
284.347146
 20
140.979365
 30
0.0
 11
287.347146
 21
140.979365
 31
0.0
  0
LINE
  5
6AA
100
AcDbEntity
  8
1
390
0
  6
DOT
 62
     9
100
AcDbLine
 10
283.097146
 20
145.779365
 30
0.0
 11
283.113558
 21
145.779365
 31
0.0
  0
LINE
  5
6AB
100
AcDbEntity
  8
1
390
0
  6
DOT
 62
     9
100
AcDbLine
 10
283.113558
 20
145.779365
 30
0.0
 11
283.113558
 21
139.779365
 31
0.0
  0
LINE
  5
6AC
100
AcDbEntity
  8
1
390
0
  6
DOT
 62
     9
100
AcDbLine
 10
283.113558
 20
145.779365
 30
0.0
 11
283.365211
 21
145.779365
 31
0.0
  0
LINE
  5
6AD
100
AcDbEntity
  8
1
390
0
  6
Continuous
 62
     7
100
AcDbLine
 10
291.047146
 20
139.014751
 30
0.0
 11
291.047146
 21
139.024696
 31
0.0
  0
LINE
  5
6AE
100
AcDbEntity
  8
1
390
0
  6
Continuous
 62
     7
100
AcDbLine
 10
294.647146
 20
139.024696
 30
0.0
 11
294.647146
 21
139.014751
 31
0.0
  0
ARC
  5
6AF
100
AcDbEntity
  8
1
390
0
  6
Continuous
 62
     7
100
AcDbCircle
 10
292.847146
 20
145.779365
 30
0.0
 40
6.99039
210
0.0
220
0.0
230
1.0
100
AcDbArc
 50
277.535034
 51
284.921556
  0
POLYLINE
  5
6B0
100
AcDbEntity
  8
1
390
0
  6
Continuous
 62
     7
100
AcDb2dPolyline
 66
     1
 10
0.0
 20
0.0
 30
0.0
 40
3.0
 41
3.0
  0
VERTEX
  5
6B1
100
AcDbEntity
  8
1
390
0
 62
     7
100
AcDbVertex
100
AcDb2dVertex
 10
293.763812
 20
138.849338
 30
0.0
 42
-0.040268
  0
VERTEX
  5
6B2
100
AcDbEntity
  8
1
390
0
 62
     7
100
AcDbVertex
100
AcDb2dVertex
 10
293.31295
 20
138.820844
 30
0.0
  0
VERTEX
  5
6B3
100
AcDbEntity
  8
1
390
0
 62
     7
100
AcDbVertex
100
AcDb2dVertex
 10
293.214431
 20
138.845988
 30
0.0
  0
VERTEX
  5
6B4
100
AcDbEntity
  8
1
390
0
 62
     7
100
AcDbVertex
100
AcDb2dVertex
 10
293.213812
 20
138.849338
 30
0.0
  0
SEQEND
  5
6B5
100
AcDbEntity
  8
0
390
0
  0
LINE
  5
6B6
100
AcDbEntity
  8
1
390
0
  6
Continuous
 62
     7
100
AcDbLine
 10
293.213812
 20
139.024696
 30
0.0
 11
293.213812
 21
138.849338
 31
0.0
  0
ARC
  5
6B7
100
AcDbEntity
  8
1
390
0
  6
Continuous
 62
     7
100
AcDbCircle
 10
292.847146
 20
145.779365
 30
0.0
 40
6.764614
210
0.0
220
0.0
230
1.0
100
AcDbArc
 50
266.892838
 51
273.107162
  0
LINE
  5
6B8
100
AcDbEntity
  8
1
390
0
  6
Continuous
 62
     7
100
AcDbLine
 10
292.480479
 20
138.849338
 30
0.0
 11
292.480479
 21
139.024696
 31
0.0
  0
POLYLINE
  5
6B9
100
AcDbEntity
  8
1
390
0
  6
Continuous
 62
     7
100
AcDb2dPolyline
 66
     1
 10
0.0
 20
0.0
 30
0.0
 40
3.0
 41
3.0
  0
VERTEX
  5
6BA
100
AcDbEntity
  8
1
390
0
 62
     7
100
AcDbVertex
100
AcDb2dVertex
 10
292.480479
 20
138.849338
 30
0.0
  0
VERTEX
  5
6BB
100
AcDbEntity
  8
1
390
0
 62
     7
100
AcDbVertex
100
AcDb2dVertex
 10
292.375724
 20
138.820545
 30
0.0
 42
-0.039052
  0
VERTEX
  5
6BC
100
AcDbEntity
  8
1
390
0
 62
     7
100
AcDbVertex
100
AcDb2dVertex
 10
291.930479
 20
138.849338
 30
0.0
  0
SEQEND
  5
6BD
100
AcDbEntity
  8
0
390
0
  0
ARC
  5
6BE
100
AcDbEntity
  8
1
390
0
  6
Continuous
 62
     7
100
AcDbCircle
 10
292.847146
 20
145.779365
 30
0.0
 40
6.99039
210
0.0
220
0.0
230
1.0
100
AcDbArc
 50
255.078444
 51
262.464966
  0
LINE
  5
6BF
100
AcDbEntity
  8
1
390
0
  6
DOT
 62
     9
100
AcDbLine
 10
293.213812
 20
139.779365
 30
0.0
 11
293.213812
 21
139.024696
 31
0.0
  0
LINE
  5
6C0
100
AcDbEntity
  8
1
390
0
  6
DOT
 62
     9
100
AcDbLine
 10
292.480479
 20
139.779365
 30
0.0
 11
293.213812
 21
139.779365
 31
0.0
  0
LINE
  5
6C1
100
AcDbEntity
  8
1
390
0
  6
DOT
 62
     9
100
AcDbLine
 10
292.480479
 20
139.779365
 30
0.0
 11
292.480479
 21
139.024696
 31
0.0
  0
LINE
  5
6C2
100
AcDbEntity
  8
1
390
0
  6
DOT
 62
     9
100
AcDbLine
 10
291.930479
 20
139.779365
 30
0.0
 11
292.480479
 21
139.779365
 31
0.0
  0
LINE
  5
6C3
100
AcDbEntity
  8
1
390
0
  6
DOT
 62
     9
100
AcDbLine
 10
293.213812
 20
139.779365
 30
0.0
 11
293.763812
 21
139.779365
 31
0.0
  0
LINE
  5
6C4
100
AcDbEntity
  8
1
390
0
  6
DOT
 62
     9
100
AcDbLine
 10
293.763812
 20
139.779365
 30
0.0
 11
294.647146
 21
139.779365
 31
0.0
  0
LINE
  5
6C5
100
AcDbEntity
  8
1
390
0
  6
DOT
 62
     9
100
AcDbLine
 10
294.647146
 20
139.779365
 30
0.0
 11
294.647146
 21
139.024696
 31
0.0
  0
LINE
  5
6C6
100
AcDbEntity
  8
1
390
0
  6
DOT
 62
     9
100
AcDbLine
 10
291.047146
 20
139.779365
 30
0.0
 11
291.047146
 21
139.024696
 31
0.0
  0
LINE
  5
6C7
100
AcDbEntity
  8
1
390
0
  6
DOT
 62
     9
100
AcDbLine
 10
291.047146
 20
139.779365
 30
0.0
 11
291.930479
 21
139.779365
 31
0.0
  0
LINE
  5
6C8
100
AcDbEntity
  8
1
390
0
  6
Continuous
 62
     7
100
AcDbLine
 10
280.300329
 20
181.379365
 30
0.0
 11
295.393962
 21
181.379365
 31
0.0
  0
LINE
  5
6C9
100
AcDbEntity
  8
1
390
0
  6
Continuous
 62
     7
100
AcDbLine
 10
281.297146
 20
182.379365
 30
0.0
 11
294.397146
 21
182.379365
 31
0.0
  0
LINE
  5
6CA
100
AcDbEntity
  8
1
390
0
  6
DOT
 62
     9
100
AcDbLine
 10
283.005916
 20
182.379365
 30
0.0
 11
283.005916
 21
177.379365
 31
0.0
  0
LINE
  5
6CB
100
AcDbEntity
  8
1
390
0
  6
DOT
 62
     9
100
AcDbLine
 10
283.005916
 20
182.379365
 30
0.0
 11
283.005916
 21
181.379365
 31
0.0
  0
LINE
  5
6CC
100
AcDbEntity
  8
1
390
0
  6
DOT
 62
     9
100
AcDbLine
 10
283.005916
 20
181.379365
 30
0.0
 11
283.005916
 21
177.379365
 31
0.0
  0
LINE
  5
6CD
100
AcDbEntity
  8
1
390
0
  6
DOT
 62
     9
100
AcDbLine
 10
290.847146
 20
181.179365
 30
0.0
 11
284.847146
 21
181.179365
 31
0.0
  0
LINE
  5
6CE
100
AcDbEntity
  8
1
390
0
  6
DOT
 62
     9
100
AcDbLine
 10
281.847146
 20
182.379365
 30
0.0
 11
281.847146
 21
177.379365
 31
0.0
  0
LINE
  5
6CF
100
AcDbEntity
  8
1
390
0
  6
DOT
 62
     9
100
AcDbLine
 10
301.347146
 20
161.979365
 30
0.0
 11
299.847146
 21
161.979365
 31
0.0
  0
LINE
  5
6D0
100
AcDbEntity
  8
1
390
0
  6
DOT
 62
     9
100
AcDbLine
 10
299.847146
 20
157.779365
 30
0.0
 11
301.347146
 21
157.779365
 31
0.0
  0
LINE
  5
6D1
100
AcDbEntity
  8
1
390
0
  6
DOT
 62
     9
100
AcDbLine
 10
301.347146
 20
174.479365
 30
0.0
 11
299.847146
 21
174.479365
 31
0.0
  0
LINE
  5
6D2
100
AcDbEntity
  8
1
390
0
  6
DOT
 62
     9
100
AcDbLine
 10
299.847146
 20
170.279365
 30
0.0
 11
301.347146
 21
170.279365
 31
0.0
  0
LINE
  5
6D3
100
AcDbEntity
  8
1
390
0
  6
DOT
 62
     9
100
AcDbLine
 10
301.347146
 20
149.479365
 30
0.0
 11
299.847146
 21
149.479365
 31
0.0
  0
LINE
  5
6D4
100
AcDbEntity
  8
1
390
0
  6
DOT
 62
     9
100
AcDbLine
 10
299.847146
 20
145.279365
 30
0.0
 11
301.347146
 21
145.279365
 31
0.0
  0
LINE
  5
6D5
100
AcDbEntity
  8
1
390
0
  6
Continuous
 62
     7
100
AcDbLine
 10
285.097146
 20
140.779365
 30
0.0
 11
285.17127
 21
139.932116
 31
0.0
  0
LINE
  5
6D6
100
AcDbEntity
  8
1
390
0
  6
Continuous
 62
     7
100
AcDbLine
 10
290.523021
 20
139.932116
 30
0.0
 11
290.597146
 21
140.779365
 31
0.0
  0
ARC
  5
6D7
100
AcDbEntity
  8
1
390
0
  6
Continuous
 62
     7
100
AcDbCircle
 10
286.167465
 20
140.019272
 30
0.0
 40
1.0
210
0.0
220
0.0
230
1.0
100
AcDbArc
 50
185.0
 51
253.742972
  0
ARC
  5
6D8
100
AcDbEntity
  8
1
390
0
  6
Continuous
 62
     7
100
AcDbCircle
 10
289.526826
 20
140.019272
 30
0.0
 40
1.0
210
0.0
220
0.0
230
1.0
100
AcDbArc
 50
286.257028
 51
355.0
  0
LINE
  5
6D9
100
AcDbEntity
  8
1
390
0
  6
Continuous
 62
     7
100
AcDbLine
 10
281.847146
 20
139.979365
 30
0.0
 11
282.047146
 21
139.779365
 31
0.0
  0
LINE
  5
6DA
100
AcDbEntity
  8
1
390
0
  6
DOT
 62
     9
100
AcDbLine
 10
289.647146
 20
139.779365
 30
0.0
 11
289.847146
 21
139.979365
 31
0.0
  0
LINE
  5
6DB
100
AcDbEntity
  8
1
390
0
  6
Continuous
 62
     7
100
AcDbLine
 10
281.847146
 20
140.779365
 30
0.0
 11
281.847146
 21
139.979365
 31
0.0
  0
LINE
  5
6DC
100
AcDbEntity
  8
1
390
0
  6
DOT
 62
     9
100
AcDbLine
 10
289.847146
 20
139.979365
 30
0.0
 11
289.847146
 21
140.779365
 31
0.0
  0
LINE
  5
6DD
100
AcDbEntity
  8
1
390
0
  6
DOT
 62
     9
100
AcDbLine
 10
288.347146
 20
139.779365
 30
0.0
 11
288.347146
 21
145.779365
 31
0.0
  0
LINE
  5
6DE
100
AcDbEntity
  8
1
390
0
  6
DOT
 62
     9
100
AcDbLine
 10
287.347146
 20
140.979365
 30
0.0
 11
287.347146
 21
142.379365
 31
0.0
  0
LINE
  5
6DF
100
AcDbEntity
  8
1
390
0
  6
DOT
 62
     9
100
AcDbLine
 10
287.347146
 20
142.379365
 30
0.0
 11
287.347146
 21
145.779365
 31
0.0
  0
LINE
  5
6E0
100
AcDbEntity
  8
1
390
0
  6
DOT
 62
     9
100
AcDbLine
 10
284.347146
 20
145.779365
 30
0.0
 11
284.347146
 21
142.379365
 31
0.0
  0
LINE
  5
6E1
100
AcDbEntity
  8
1
390
0
  6
DOT
 62
     9
100
AcDbLine
 10
284.347146
 20
142.379365
 30
0.0
 11
284.347146
 21
140.979365
 31
0.0
  0
LINE
  5
6E2
100
AcDbEntity
  8
1
390
0
  6
DOT
 62
     9
100
AcDbLine
 10
284.347146
 20
140.979365
 30
0.0
 11
284.547146
 21
140.779365
 31
0.0
  0
LINE
  5
6E3
100
AcDbEntity
  8
1
390
0
  6
DOT
 62
     9
100
AcDbLine
 10
287.147146
 20
140.779365
 30
0.0
 11
287.347146
 21
140.979365
 31
0.0
  0
LINE
  5
6E4
100
AcDbEntity
  8
1
390
0
  6
DOT
 62
     9
100
AcDbLine
 10
286.547146
 20
140.779365
 30
0.0
 11
286.547146
 21
145.779365
 31
0.0
  0
LINE
  5
6E5
100
AcDbEntity
  8
1
390
0
  6
DOT
 62
     9
100
AcDbLine
 10
285.947146
 20
145.779365
 30
0.0
 11
285.947146
 21
140.779365
 31
0.0
  0
LINE
  5
6E6
100
AcDbEntity
  8
1
390
0
  6
DOT
 62
     9
100
AcDbLine
 10
283.097146
 20
145.779365
 30
0.0
 11
283.097146
 21
139.779365
 31
0.0
  0
LINE
  5
6E7
100
AcDbEntity
  8
1
390
0
  6
DOT
 62
     9
100
AcDbLine
 10
285.347146
 20
140.779365
 30
0.0
 11
285.347146
 21
145.779365
 31
0.0
  0
LINE
  5
6E8
100
AcDbEntity
  8
1
390
0
  6
DOT
 62
     9
100
AcDbLine
 10
284.747146
 20
145.779365
 30
0.0
 11
284.747146
 21
140.779365
 31
0.0
  0
LINE
  5
6E9
100
AcDbEntity
  8
1
390
0
  6
DOT
 62
     9
100
AcDbLine
 10
290.097146
 20
140.779365
 30
0.0
 11
290.17127
 21
139.932116
 31
0.0
  0
LINE
  5
6EA
100
AcDbEntity
  8
1
390
0
  6
Continuous
 62
     7
100
AcDbLine
 10
295.523021
 20
139.932116
 30
0.0
 11
295.597146
 21
140.779365
 31
0.0
  0
ARC
  5
6EB
100
AcDbEntity
  8
1
390
0
  6
DOT
 62
     9
100
AcDbCircle
 10
291.167465
 20
140.019272
 30
0.0
 40
1.0
210
0.0
220
0.0
230
1.0
100
AcDbArc
 50
185.0
 51
214.883223
  0
ARC
  5
6EC
100
AcDbEntity
  8
1
390
0
  6
Continuous
 62
     7
100
AcDbCircle
 10
291.167465
 20
140.019272
 30
0.0
 40
1.0
210
0.0
220
0.0
230
1.0
100
AcDbArc
 50
214.883223
 51
253.742972
  0
ARC
  5
6ED
100
AcDbEntity
  8
1
390
0
  6
Continuous
 62
     7
100
AcDbCircle
 10
294.526826
 20
140.019272
 30
0.0
 40
1.0
210
0.0
220
0.0
230
1.0
100
AcDbArc
 50
286.257028
 51
355.0
  0
LINE
  5
6EE
100
AcDbEntity
  8
1
390
0
  6
Continuous
 62
     7
100
AcDbLine
 10
278.597146
 20
178.575775
 30
0.0
 11
278.597146
 21
177.379365
 31
0.0
  0
LINE
  5
6EF
100
AcDbEntity
  8
1
390
0
  6
Continuous
 62
     7
100
AcDbLine
 10
297.097146
 20
177.379365
 30
0.0
 11
297.097146
 21
178.575775
 31
0.0
  0
LINE
  5
6F0
100
AcDbEntity
  8
1
390
0
  6
Continuous
 62
     7
100
AcDbLine
 10
297.070351
 20
178.675775
 30
0.0
 11
295.567167
 21
181.279365
 31
0.0
  0
LINE
  5
6F1
100
AcDbEntity
  8
1
390
0
  6
Continuous
 62
     7
100
AcDbLine
 10
280.127124
 20
181.279365
 30
0.0
 11
278.623941
 21
178.675775
 31
0.0
  0
ARC
  5
6F2
100
AcDbEntity
  8
1
390
0
  6
Continuous
 62
     7
100
AcDbCircle
 10
295.393962
 20
181.179365
 30
0.0
 40
0.2
210
0.0
220
0.0
230
1.0
100
AcDbArc
 50
30.0
 51
90.0
  0
ARC
  5
6F3
100
AcDbEntity
  8
1
390
0
  6
Continuous
 62
     7
100
AcDbCircle
 10
280.300329
 20
181.179365
 30
0.0
 40
0.2
210
0.0
220
0.0
230
1.0
100
AcDbArc
 50
90.0
 51
150.0
  0
LINE
  5
6F4
100
AcDbEntity
  8
1
390
0
  6
Continuous
 62
     7
100
AcDbLine
 10
281.097146
 20
182.179365
 30
0.0
 11
281.097146
 21
181.379365
 31
0.0
  0
LINE
  5
6F5
100
AcDbEntity
  8
1
390
0
  6
Continuous
 62
     7
100
AcDbLine
 10
294.597146
 20
181.379365
 30
0.0
 11
294.597146
 21
182.179365
 31
0.0
  0
ARC
  5
6F6
100
AcDbEntity
  8
1
390
0
  6
Continuous
 62
     7
100
AcDbCircle
 10
294.397146
 20
182.179365
 30
0.0
 40
0.2
210
0.0
220
0.0
230
1.0
100
AcDbArc
 50
0.0
 51
90.0
  0
ARC
  5
6F7
100
AcDbEntity
  8
1
390
0
  6
Continuous
 62
     7
100
AcDbCircle
 10
281.297146
 20
182.179365
 30
0.0
 40
0.2
210
0.0
220
0.0
230
0.9999999999999999
100
AcDbArc
 50
90.0
 51
180.0
  0
LINE
  5
6F8
100
AcDbEntity
  8
1
390
0
  6
DOT
 62
     9
100
AcDbLine
 10
292.847146
 20
177.379365
 30
0.0
 11
292.847146
 21
182.379365
 31
0.0
  0
LINE
  5
6F9
100
AcDbEntity
  8
1
390
0
  6
DOT
 62
     9
100
AcDbLine
 10
284.847146
 20
181.179365
 30
0.0
 11
284.847146
 21
177.379365
 31
0.0
  0
LINE
  5
6FA
100
AcDbEntity
  8
1
390
0
  6
DOT
 62
     9
100
AcDbLine
 10
290.847146
 20
177.379365
 30
0.0
 11
290.847146
 21
181.179365
 31
0.0
  0
LINE
  5
6FB
100
AcDbEntity
  8
1
390
0
  6
DOT
 62
     9
100
AcDbLine
 10
290.847146
 20
181.179365
 30
0.0
 11
290.647146
 21
181.379365
 31
0.0
  0
LINE
  5
6FC
100
AcDbEntity
  8
1
390
0
  6
DOT
 62
     9
100
AcDbLine
 10
285.047146
 20
181.379365
 30
0.0
 11
284.847146
 21
181.179365
 31
0.0
  0
LINE
  5
6FD
100
AcDbEntity
  8
1
390
0
  6
DOT
 62
     9
100
AcDbLine
 10
287.347146
 20
181.379365
 30
0.0
 11
287.347146
 21
177.379365
 31
0.0
  0
LINE
  5
6FE
100
AcDbEntity
  8
1
390
0
  6
DOT
 62
     9
100
AcDbLine
 10
288.347146
 20
177.379365
 30
0.0
 11
288.347146
 21
181.379365
 31
0.0
  0
LINE
  5
6FF
100
AcDbEntity
  8
1
390
0
  6
DOT
 62
     9
100
AcDbLine
 10
286.024629
 20
181.379365
 30
0.0
 11
286.024629
 21
177.379365
 31
0.0
  0
LINE
  5
700
100
AcDbEntity
  8
1
390
0
  6
DOT
 62
     9
100
AcDbLine
 10
287.024629
 20
177.379365
 30
0.0
 11
287.024629
 21
181.379365
 31
0.0
  0
LINE
  5
701
100
AcDbEntity
  8
1
390
0
  6
DOT
 62
     9
100
AcDbLine
 10
288.669662
 20
181.379365
 30
0.0
 11
288.669662
 21
177.379365
 31
0.0
  0
LINE
  5
702
100
AcDbEntity
  8
1
390
0
  6
DOT
 62
     9
100
AcDbLine
 10
289.669662
 20
177.379365
 30
0.0
 11
289.669662
 21
181.379365
 31
0.0
  0
LINE
  5
703
100
AcDbEntity
  8
1
390
0
  6
DOT
 62
     9
100
AcDbLine
 10
285.207268
 20
181.379365
 30
0.0
 11
285.207268
 21
177.379365
 31
0.0
  0
LINE
  5
704
100
AcDbEntity
  8
1
390
0
  6
DOT
 62
     9
100
AcDbLine
 10
286.207268
 20
177.379365
 30
0.0
 11
286.207268
 21
181.379365
 31
0.0
  0
LINE
  5
705
100
AcDbEntity
  8
1
390
0
  6
DOT
 62
     9
100
AcDbLine
 10
289.487023
 20
181.379365
 30
0.0
 11
289.487023
 21
177.379365
 31
0.0
  0
LINE
  5
706
100
AcDbEntity
  8
1
390
0
  6
DOT
 62
     9
100
AcDbLine
 10
290.487023
 20
177.379365
 30
0.0
 11
290.487023
 21
181.379365
 31
0.0
  0
LINE
  5
707
100
AcDbEntity
  8
1
390
0
  6
DOT
 62
     9
100
AcDbLine
 10
286.347146
 20
181.379365
 30
0.0
 11
286.347146
 21
177.379365
 31
0.0
  0
LINE
  5
708
100
AcDbEntity
  8
1
390
0
  6
DOT
 62
     9
100
AcDbLine
 10
289.347146
 20
177.379365
 30
0.0
 11
289.347146
 21
181.379365
 31
0.0
  0
LINE
  5
70A
100
AcDbEntity
  8
1
390
0
  6
CENTER
 62
     1
100
AcDbLine
 10
122.612052
 20
143.379365
 30
0.0
 11
122.612052
 21
176.379365
 31
0.0
  0
LINE
  5
70B
100
AcDbEntity
  8
1
390
0
  6
CENTER
 62
     1
100
AcDbLine
 10
183.112052
 20
159.879365
 30
0.0
 11
62.112052
 21
159.879365
 31
0.0
  0
LINE
  5
70C
100
AcDbEntity
  8
1
390
0
  6
CENTER
 62
     1
100
AcDbLine
 10
68.112052
 20
175.479365
 30
0.0
 11
68.112052
 21
144.279365
 31
0.0
  0
LINE
  5
70D
100
AcDbEntity
  8
1
390
0
  6
CENTER
 62
     1
100
AcDbLine
 10
65.012052
 20
172.379365
 30
0.0
 11
71.212052
 21
172.379365
 31
0.0
  0
LINE
  5
70E
100
AcDbEntity
  8
1
390
0
  6
CENTER
 62
     1
100
AcDbLine
 10
65.012052
 20
147.379365
 30
0.0
 11
71.212052
 21
147.379365
 31
0.0
  0
LINE
  5
70F
100
AcDbEntity
  8
1
390
0
  6
CENTER
 62
     1
100
AcDbLine
 10
177.112052
 20
175.479365
 30
0.0
 11
177.112052
 21
144.279365
 31
0.0
  0
LINE
  5
710
100
AcDbEntity
  8
1
390
0
  6
CENTER
 62
     1
100
AcDbLine
 10
174.012052
 20
172.379365
 30
0.0
 11
180.212052
 21
172.379365
 31
0.0
  0
LINE
  5
711
100
AcDbEntity
  8
1
390
0
  6
CENTER
 62
     1
100
AcDbLine
 10
174.012052
 20
147.379365
 30
0.0
 11
180.212052
 21
147.379365
 31
0.0
  0
LINE
  5
712
100
AcDbEntity
  8
1
390
0
  6
CENTER
 62
     1
100
AcDbLine
 10
122.612052
 20
61.436114
 30
0.0
 11
122.612052
 21
86.236114
 31
0.0
  0
LINE
  5
713
100
AcDbEntity
  8
1
390
0
  6
CENTER
 62
     1
100
AcDbLine
 10
122.612052
 20
250.891146
 30
0.0
 11
122.612052
 21
226.091146
 31
0.0
  0
LINE
  5
714
100
AcDbEntity
  8
1
390
0
  6
CENTER
 62
     1
100
AcDbLine
 10
275.847146
 20
159.879365
 30
0.0
 11
300.647146
 21
159.879365
 31
0.0
  0
INSERT
  5
726
100
AcDbEntity
  8
1
390
0
100
AcDbBlockReference
  2
AID2105
 10
0.0
 20
0.0
 30
0.0
  0
INSERT
  5
738
100
AcDbEntity
  8
1
390
0
100
AcDbBlockReference
  2
AID2118
 10
0.0
 20
0.0
 30
0.0
  0
INSERT
  5
74A
100
AcDbEntity
  8
1
390
0
100
AcDbBlockReference
  2
AID2131
 10
0.0
 20
0.0
 30
0.0
  0
INSERT
  5
75C
100
AcDbEntity
  8
1
390
0
100
AcDbBlockReference
  2
AID2144
 10
0.0
 20
0.0
 30
0.0
  0
INSERT
  5
76E
100
AcDbEntity
  8
1
390
0
100
AcDbBlockReference
  2
AID2157
 10
0.0
 20
0.0
 30
0.0
  0
INSERT
  5
77C
100
AcDbEntity
  8
1
390
0
100
AcDbBlockReference
  2
AID2170
 10
0.0
 20
0.0
 30
0.0
  0
INSERT
  5
78E
100
AcDbEntity
  8
1
390
0
100
AcDbBlockReference
  2
AID2183
 10
0.0
 20
0.0
 30
0.0
  0
INSERT
  5
793
100
AcDbEntity
  8
1
390
0
100
AcDbBlockReference
  2
AID2196
 10
0.0
 20
0.0
 30
0.0
  0
INSERT
  5
798
100
AcDbEntity
  8
1
390
0
100
AcDbBlockReference
  2
AID2199
 10
0.0
 20
0.0
 30
0.0
  0
INSERT
  5
79D
100
AcDbEntity
  8
1
390
0
100
AcDbBlockReference
  2
AID2202
 10
0.0
 20
0.0
 30
0.0
  0
ENDSEC
  0
SECTION
  2
OBJECTS
  0
DICTIONARY
  5
19
100
AcDbDictionary
280
     0
281
     1
  3
ACAD_GROUP
350
1A
  3
ACAD_MLINESTYLE
350
1B
  3
ACAD_LAYOUT
350
1E
  3
ACAD_PLOTSETTINGS
350
22
  3
ACAD_PLOTSTYLENAME
350
1F
  3
ACAD_WIPEOUT_VARS
350
23
  0
DICTIONARY
  5
1A
102
{ACAD_REACTORS
330
19
102
}
100
AcDbDictionary
280
     0
281
     1
  0
DICTIONARY
  5
1B
102
{ACAD_REACTORS
330
19
102
}
100
AcDbDictionary
280
     0
281
     1
  3
Standard
350
1C
  0
MLINESTYLE
  5
1C
102
{ACAD_REACTORS
330
1B
102
}
100
AcDbMlineStyle
  2
Standard
 70
     0
  3

 62
     0
 51
90.0
 52
90.0
 71
     2
 49
0.5
 62
   256
  6
ByLayer
 49
-0.5
 62
   256
  6
ByLayer
  0
ACDBDICTIONARYWDFLT
  5
1F
102
{ACAD_REACTORS
330
19
102
}
100
AcDbDictionary
281
     1
  3
Normal
350
1D
100
AcDbDictionaryWithDefault
340
1D
  0
ACDBPLACEHOLDER
  5
1D
102
{ACAD_REACTORS
330
1F
102
}
  0
LAYOUT
  5
20
102
{ACAD_REACTORS
330
1E
102
}
100
AcDbPlotSettings
  1

  2

  4

  6

 40
0.0
 41
0.0
 42
0.0
 43
0.0
 44
0.0
 45
0.0
 46
0.0
 47
0.0
 48
0.0
 49
0.0
140
0.0
141
0.0
142
1.0
143
1.0
 70
  1024
 72
     0
 73
     0
 74
     0
  7

 75
     0
147
1.0
148
0.0
149
0.0
100
AcDbLayout
  1
Model
 70
     0
 71
     0
 10
0.0
 20
0.0
 11
0.0
 21
0.0
 12
0.0
 22
0.0
 32
0.0
 14
0.0
 24
0.0
 34
0.0
 15
0.0
 25
0.0
 35
0.0
146
0.0
 13
0.0
 23
0.0
 33
0.0
 16
0.0
 26
0.0
 36
0.0
 17
0.0
 27
0.0
 37
0.0
 76
     0
330
A
331
0
345
0
346
0
  0
LAYOUT
  5
21
102
{ACAD_REACTORS
330
1E
102
}
100
AcDbPlotSettings
  1

  2

  4

  6

 40
0.0
 41
0.0
 42
0.0
 43
0.0
 44
0.0
 45
0.0
 46
0.0
 47
0.0
 48
0.0
 49
0.0
140
0.0
141
0.0
142
1.0
143
1.0
 70
     0
 72
     0
 73
     0
 74
     0
  7

 75
     0
147
1.0
148
0.0
149
0.0
100
AcDbLayout
  1
Layout1
 70
     0
 71
     0
 10
0.0
 20
0.0
 11
0.0
 21
0.0
 12
0.0
 22
0.0
 32
0.0
 14
0.0
 24
0.0
 34
0.0
 15
0.0
 25
0.0
 35
0.0
146
0.0
 13
0.0
 23
0.0
 33
0.0
 16
0.0
 26
0.0
 36
0.0
 17
0.0
 27
0.0
 37
0.0
 76
     0
330
B
331
0
345
0
346
0
  0
DICTIONARY
  5
1E
102
{ACAD_REACTORS
330
19
102
}
100
AcDbDictionary
280
     0
281
     1
  3
Layout1
350
21
  3
Model
350
20
  0
DICTIONARY
  5
22
102
{ACAD_REACTORS
330
19
102
}
100
AcDbDictionary
280
     0
281
     1
  0
WIPEOUTVARIABLES
  5
23
100
AcDbWipeoutVariables
 70
     1
  0
ENDSEC
  0
EOF
