  0
SECTION
  2
HEADER
  9
$ACADVER
  1
AC1015
  9
$ACADMAINTVER
 70
     6
  9
$DWGCODEPAGE
  3
DOS932
  9
$INSBASE
 10
0.0
 20
0.0
 30
0.0
  9
$EXTMIN
 10
0.0
 20
0.0
 30
0.0
  9
$EXTMAX
 10
584.0
 20
410.0
 30
10.0
  9
$LIMMIN
 10
0.0
 20
0.0
  9
$LIMMAX
 10
584.0
 20
410.0
  9
$ORTHOMODE
 70
     0
  9
$REGENMODE
 70
     1
  9
$FILLMODE
 70
     1
  9
$QTEXTMODE
 70
     0
  9
$MIRRTEXT
 70
     1
  9
$LTSCALE
 40
10.0
  9
$ATTMODE
 70
     1
  9
$TEXTSIZE
 40
0.2
  9
$TRACEWID
 40
0.05
  9
$TEXTSTYLE
  7
Standard
  9
$CLAYER
  8
0
  9
$CELTYPE
  6
Continuous
  9
$CECOLOR
 62
   256
  9
$CELTSCALE
 40
1.0
  9
$DISPSILH
 70
     0
  9
$DIMSCALE
 40
1.0
  9
$DIMASZ
 40
3.2
  9
$DIMEXO
 40
3.2
  9
$DIMDLI
 40
0.38
  9
$DIMRND
 40
0.0
  9
$DIMDLE
 40
0.0
  9
$DIMEXE
 40
2.4
  9
$DIMTP
 40
0.0
  9
$DIMTM
 40
0.0
  9
$DIMTXT
 40
8.0
  9
$DIMCEN
 40
0.09
  9
$DIMTSZ
 40
0.0
  9
$DIMTOL
 70
     0
  9
$DIMLIM
 70
     0
  9
$DIMTIH
 70
     0
  9
$DIMTOH
 70
     0
  9
$DIMSE1
 70
     0
  9
$DIMSE2
 70
     0
  9
$DIMTAD
 70
     1
  9
$DIMZIN
 70
     0
  9
$DIMBLK
  1

  9
$DIMASO
 70
     1
  9
$DIMSHO
 70
     1
  9
$DIMPOST
  1

  9
$DIMAPOST
  1

  9
$DIMALT
 70
     0
  9
$DIMALTD
 70
     2
  9
$DIMALTF
 40
25.4
  9
$DIMLFAC
 40
1.0
  9
$DIMTOFL
 70
     0
  9
$DIMTVP
 40
0.0
  9
$DIMTIX
 70
     0
  9
$DIMSOXD
 70
     0
  9
$DIMSAH
 70
     0
  9
$DIMBLK1
  1

  9
$DIMBLK2
  1

  9
$DIMSTYLE
  2
Standard
  9
$DIMCLRD
 70
     7
  9
$DIMCLRE
 70
     7
  9
$DIMCLRT
 70
     7
  9
$DIMTFAC
 40
0.6
  9
$DIMGAP
 40
4.0
  9
$DIMJUST
 70
     0
  9
$DIMSD1
 70
     0
  9
$DIMSD2
 70
     0
  9
$DIMTOLJ
 70
     1
  9
$DIMTZIN
 70
     0
  9
$DIMALTZ
 70
     0
  9
$DIMALTTZ
 70
     0
  9
$DIMUPT
 70
     0
  9
$DIMDEC
 70
     6
  9
$DIMTDEC
 70
     4
  9
$DIMALTU
 70
     2
  9
$DIMALTTD
 70
     2
  9
$DIMTXSTY
  7
Standard
  9
$DIMAUNIT
 70
     0
  9
$DIMADEC
 70
     0
  9
$DIMALTRND
 40
0.0
  9
$DIMAZIN
 70
     0
  9
$DIMDSEP
 70
     0
  9
$DIMATFIT
 70
     3
  9
$DIMFRAC
 70
     0
  9
$DIMLDRBLK
  1

  9
$DIMLUNIT
 70
     2
  9
$DIMLWD
 70
     0
  9
$DIMLWE
 70
     0
  9
$DIMTMOVE
 70
     0
  9
$LUNITS
 70
     2
  9
$LUPREC
 70
     4
  9
$SKETCHINC
 40
0.1
  9
$FILLETRAD
 40
0.0
  9
$AUNITS
 70
     0
  9
$AUPREC
 70
     0
  9
$MENU
  1
acad
  9
$ELEVATION
 40
0.0
  9
$PELEVATION
 40
0.0
  9
$THICKNESS
 40
0.0
  9
$LIMCHECK
 70
     0
  9
$CHAMFERA
 40
0.0
  9
$CHAMFERB
 40
0.0
  9
$CHAMFERC
 40
0.0
  9
$CHAMFERD
 40
0.0
  9
$SKPOLY
 70
     0
  9
$TDCREATE
 40
2458421.488923611
  9
$TDUCREATE
 40
0.000000000
  9
$TDUPDATE
 40
2458421.113865741
  9
$TDUUPDATE
 40
0.000000000
  9
$TDINDWG
 40
0.0000000000
  9
$TDUSRTIMER
 40
0.0000000000
  9
$USRTIMER
 70
     1
  9
$ANGBASE
 50
0.0
  9
$ANGDIR
 70
     0
  9
$PDMODE
 70
     0
  9
$PDSIZE
 40
0.0
  9
$PLINEWID
 40
0.0
  9
$SPLFRAME
 70
     0
  9
$SPLINETYPE
 70
     6
  9
$SPLINESEGS
 70
     8
  9
$HANDSEED
  5
521
  9
$SURFTAB1
 70
     6
  9
$SURFTAB2
 70
     6
  9
$SURFTYPE
 70
     6
  9
$SURFU
 70
     6
  9
$SURFV
 70
     6
  9
$UCSBASE
  2

  9
$UCSNAME
  2

  9
$UCSORG
 10
0.0
 20
0.0
 30
0.0
  9
$UCSXDIR
 10
1.0
 20
0.0
 30
0.0
  9
$UCSYDIR
 10
0.0
 20
1.0
 30
0.0
  9
$UCSORTHOREF
  2

  9
$UCSORTHOVIEW
 70
     0
  9
$UCSORGTOP
 10
0.0
 20
0.0
 30
0.0
  9
$UCSORGBOTTOM
 10
0.0
 20
0.0
 30
0.0
  9
$UCSORGLEFT
 10
0.0
 20
0.0
 30
0.0
  9
$UCSORGRIGHT
 10
0.0
 20
0.0
 30
0.0
  9
$UCSORGFRONT
 10
0.0
 20
0.0
 30
0.0
  9
$UCSORGBACK
 10
0.0
 20
0.0
 30
0.0
  9
$PUCSBASE
  2

  9
$PUCSNAME
  2

  9
$PUCSORG
 10
0.0
 20
0.0
 30
0.0
  9
$PUCSXDIR
 10
1.0
 20
0.0
 30
0.0
  9
$PUCSYDIR
 10
0.0
 20
1.0
 30
0.0
  9
$PUCSORTHOREF
  2

  9
$PUCSORTHOVIEW
 70
     0
  9
$PUCSORGTOP
 10
0.0
 20
0.0
 30
0.0
  9
$PUCSORGBOTTOM
 10
0.0
 20
0.0
 30
0.0
  9
$PUCSORGLEFT
 10
0.0
 20
0.0
 30
0.0
  9
$PUCSORGRIGHT
 10
0.0
 20
0.0
 30
0.0
  9
$PUCSORGFRONT
 10
0.0
 20
0.0
 30
0.0
  9
$PUCSORGBACK
 10
0.0
 20
0.0
 30
0.0
  9
$USERI1
 70
     0
  9
$USERI2
 70
     0
  9
$USERI3
 70
     0
  9
$USERI4
 70
     0
  9
$USERI5
 70
     0
  9
$USERR1
 40
0.0
  9
$USERR2
 40
0.0
  9
$USERR3
 40
0.0
  9
$USERR4
 40
0.0
  9
$USERR5
 40
0.0
  9
$WORLDVIEW
 70
     1
  9
$SHADEDGE
 70
     3
  9
$SHADEDIF
 70
    70
  9
$TILEMODE
 70
     1
  9
$MAXACTVP
 70
    16
  9
$PINSBASE
 10
0.0
 20
0.0
 30
0.0
  9
$PLIMCHECK
 70
     0
  9
$PEXTMIN
 10
1.000000E+20
 20
1.000000E+20
 30
1.000000E+20
  9
$PEXTMAX
 10
-1.000000E+20
 20
-1.000000E+20
 30
-1.000000E+20
  9
$PLIMMIN
 10
0.0
 20
0.0
  9
$PLIMMAX
 10
12.0
 20
9.0
  9
$UNITMODE
 70
     0
  9
$VISRETAIN
 70
     0
  9
$PLINEGEN
 70
     1
  9
$PSLTSCALE
 70
     0
  9
$TREEDEPTH
 70
  3020
  9
$CMLSTYLE
  2
Standard
  9
$CMLJUST
 70
     0
  9
$CMLSCALE
 40
1.0
  9
$PROXYGRAPHICS
 70
     0
  9
$MEASUREMENT
 70
     0
  9
$CELWEIGHT
370
     0
  9
$ENDCAPS
280
     0
  9
$JOINSTYLE
280
     0
  9
$LWDISPLAY
290
     0
  9
$INSUNITS
 70
     0
  9
$HYPERLINKBASE
  1

  9
$STYLESHEET
  1

  9
$XEDIT
290
     1
  9
$CEPSNTYPE
380
     0
  9
$PSTYLEMODE
290
     1
  9
$FINGERPRINTGUID
  2

  9
$VERSIONGUID
  2

  9
$EXTNAMES
290
     1
  9
$PSVPSCALE
 40
0.0
  0
ENDSEC
  0
SECTION
  2
CLASSES
  0
CLASS
  1
LWPOLYLINE
  2
AcDbPolyline
  3
AutoCAD 2000
 90
        0
280
     0
281
     1
  0
CLASS
  1
IMAGE
  2
AcDbRasterImage
  3
ISM
 90
      127
280
     0
281
     1
  0
CLASS
  1
OLE2FRAME
  2
AcDbOle2Frame
  3
AutoCAD 2000
 90
        0
280
     0
281
     1
  0
CLASS
  1
HATCH
  2
AcDbHatch
  3
AutoCAD 2000
 90
        0
280
     0
281
     1
  0
CLASS
  1
DICTIONARYVAR
  2
AcDbDictionaryVar
  3
AutoCAD 2000
 90
        0
280
     0
281
     0
  0
CLASS
  1
RASTERVARIABLES
  2
AcDbRasterVariables
  3
ISM
 90
        0
280
     0
281
     0
  0
CLASS
  1
IMAGEDEF
  2
AcDbRasterImageDef
  3
ISM
 90
        0
280
     0
281
     0
  0
CLASS
  1
IMAGEDEF_REACTOR
  2
AcDbRasterImageDefReactor
  3
ISM
 90
        1
280
     0
281
     0
  0
CLASS
  1
IDBUFFER
  2
AcDbIdBuffer
  3
AutoCAD 2000
 90
        0
280
     0
281
     0
  0
CLASS
  1
SPATIAL_FILTER
  2
AcDbSpatialFilter
  3
AutoCAD 2000
 90
        0
280
     0
281
     0
  0
CLASS
  1
XRECORD
  2
AcDbXrecord
  3
AutoCAD 2000
 90
        0
280
     0
281
     0
  0
CLASS
  1
SORTENTSTABLE
  2
AcDbSortentsTable
  3
AutoCAD 2000
 90
        0
280
     0
281
     0
  0
CLASS
  1
LAYER_INDEX
  2
AcDbLayerIndex
  3
AutoCAD 2000
 90
        0
280
     0
281
     0
  0
CLASS
  1
SPATIAL_INDEX
  2
AcDbSpatialIndex
  3
AutoCAD 2000
 90
        0
280
     0
281
     0
  0
CLASS
  1
OBJECT_PTR
  2
CAseDLPNTableRecord
  3
"ASE-LPNTableRecord"
 90
        1
280
     0
281
     0
  0
CLASS
  1
LAYOUT
  2
AcDbLayout
  3
AutoCAD 2000
 90
        0
280
     0
281
     0
  0
CLASS
  1
PLOTSETTINGS
  2
AcDbPlotSettings
  3
AutoCAD 2000
 90
        0
280
     0
281
     0
  0
CLASS
  1
ACDBDICTIONARYWDFLT
  2
AcDbDictionaryWithDefault
  3
AutoCAD 2000
 90
        0
280
     0
281
     0
  0
CLASS
  1
ACDBPLACEHOLDER
  2
AcDbPlaceHolder
  3
AutoCAD 2000
 90
        0
280
     0
281
     0
  0
CLASS
  1
VBA_PROJECT
  2
AcDbVbaProject
  3
acadvba
 90
        0
280
     0
281
     0
  0
CLASS
  1
WIPEOUT
  2
AcDbWipeout
  3
WipeOut|AutoCAD Express Tool|expresstools@autodesk.com
 90
      127
280
     0
281
     1
  0
CLASS
  1
WIPEOUTVARIABLES
  2
AcDbWipeoutVariables
  3
WipeOut|AutoCAD Express Tool|expresstools@autodesk.com
 90
        0
280
     0
281
     0
  0
CLASS
  1
RTEXT
  2
RText
  3
RText|AutoCAD Express Tool|expresstools@autodesk.com
 90
        0
280
     0
281
     1
  0
CLASS
  1
ARCALIGNEDTEXT
  2
AcDbArcAlignedText
  3
ATEXT|AutoCAD Express Tool|expresstools@autodesk.com
 90
        0
280
     0
281
     1
  0
ENDSEC
  0
SECTION
  2
TABLES
  0
TABLE
  2
VPORT
  5
7
100
AcDbSymbolTable
 70
     1
  0
VPORT
  5
15
100
AcDbSymbolTableRecord
100
AcDbViewportTableRecord
  2
*ACTIVE
 70
     0
 10
0.0
 20
0.0
 11
1.0
 21
1.0
 12
6.591288
 22
4.579184
 13
0.0
 23
0.0
 14
1.0
 24
1.0
 15
0.0
 25
0.0
 16
0.0
 26
0.0
 36
1.0
 17
0.0
 27
0.0
 37
0.0
 40
9.158369
 41
0.688564
 42
50.0
 43
0.0
 44
0.0
 50
0.0
 51
0.0
 71
     0
 72
   100
 73
     1
 74
     1
 75
     0
 76
     0
 77
     0
 78
     0
281
     0
 65
     0
110
0.0
120
0.0
130
0.0
111
1.0
121
0.0
131
0.0
112
0.0
122
1.0
132
0.0
345
0
346
0
 79
     0
146
0.0
  0
ENDTAB
  0
TABLE
  2
LTYPE
  5
4
100
AcDbSymbolTable
 70
     5
  0
LTYPE
  5
11
100
AcDbSymbolTableRecord
100
AcDbLinetypeTableRecord
  2
ByBlock
 70
    64
  3

 72
    65
 73
     0
 40
0.0
  0
LTYPE
  5
12
100
AcDbSymbolTableRecord
100
AcDbLinetypeTableRecord
  2
ByLayer
 70
    64
  3

 72
    65
 73
     0
 40
0.0
  0
LTYPE
  5
13
100
AcDbSymbolTableRecord
100
AcDbLinetypeTableRecord
  2
Continuous
 70
    64
  3
Solid line
 72
    65
 73
     0
 40
0.0
  0
LTYPE
  5
CA
100
AcDbSymbolTableRecord
100
AcDbLinetypeTableRecord
  2
DOT
 70
    64
  3
..............................................
 72
    65
 73
     2
 40
0.5
 49
0.25
 74
     0
 49
-0.25
 74
     0
  0
LTYPE
  5
4C5
100
AcDbSymbolTableRecord
100
AcDbLinetypeTableRecord
  2
CENTER
 70
    64
  3
____ _ ____ _ ____ _ ____ _ ____ _ ____ _ ____
 72
    65
 73
     4
 40
2.0
 49
1.25
 74
     0
 49
-0.25
 74
     0
 49
0.25
 74
     0
 49
-0.25
 74
     0
  0
ENDTAB
  0
TABLE
  2
LAYER
  5
2
100
AcDbSymbolTable
 70
     3
  0
LAYER
  5
14
100
AcDbSymbolTableRecord
100
AcDbLayerTableRecord
  2
0
 70
     0
 62
     7
  6
Continuous
290
     1
370
    -3
390
1D
  0
LAYER
  5
27
100
AcDbSymbolTableRecord
100
AcDbLayerTableRecord
  2
256
 70
     0
 62
     7
  6
Continuous
290
     1
370
    -3
390
1D
  0
LAYER
  5
B8
100
AcDbSymbolTableRecord
100
AcDbLayerTableRecord
  2
1
 70
     0
 62
     7
  6
Continuous
290
     1
370
    -3
390
1D
  0
ENDTAB
  0
TABLE
  2
STYLE
  5
3
100
AcDbSymbolTable
 70
     1
  0
STYLE
  5
17
100
AcDbSymbolTableRecord
100
AcDbTextStyleTableRecord
  2
Standard
 70
     0
 40
0.0
 41
1.0
 50
0.0
 71
     0
 42
0.0
  3
ＭＳ Ｐゴシック
  4

1001
ACAD
1000
ＭＳ Ｐゴシック
1071
        0
  0
ENDTAB
  0
TABLE
  2
VIEW
  5
5
100
AcDbSymbolTable
 70
     0
  0
ENDTAB
  0
TABLE
  2
UCS
  5
6
100
AcDbSymbolTable
 70
     0
  0
ENDTAB
  0
TABLE
  2
APPID
  5
8
100
AcDbSymbolTable
 70
     2
  0
APPID
  5
16
100
AcDbSymbolTableRecord
100
AcDbRegAppTableRecord
  2
ACAD
 70
     0
  0
APPID
  5
26
100
AcDbSymbolTableRecord
100
AcDbRegAppTableRecord
  2
TOPsolid_Design
 70
     0
  0
ENDTAB
  0
TABLE
  2
DIMSTYLE
  5
9
100
AcDbSymbolTable
 70
     1
100
AcDbDimStyleTable
 71
     0
  0
DIMSTYLE
105
18
100
AcDbSymbolTableRecord
100
AcDbDimStyleTableRecord
  2
Standard
 70
     0
  3

  4

 40
1.0
 41
3.2
 42
3.2
 43
0.38
 44
2.4
 45
0.0
 46
0.0
 47
0.0
 48
0.0
 71
     0
 72
     0
 73
     0
 74
     0
 75
     0
 76
     0
 77
     1
 78
     0
 79
     0
140
8.0
141
0.09
142
0.0
143
25.4
144
1.0
145
0.0
146
0.6
147
4.0
148
0.0
170
     0
171
     2
172
     0
173
     0
174
     0
175
     0
176
     7
177
     7
178
     7
179
     0
271
     6
272
     4
273
     2
274
     2
275
     0
276
     0
277
     2
278
    46
279
     0
280
     0
281
     0
282
     0
283
     1
284
     0
285
     0
286
     0
288
     0
289
     3
340
17
341
0
342
0
343
0
344
0
371
    -2
372
    -2
  0
ENDTAB
  0
TABLE
  2
BLOCK_RECORD
  5
1
100
AcDbSymbolTable
 70
     8
  0
BLOCK_RECORD
  5
A
100
AcDbSymbolTableRecord
100
AcDbBlockTableRecord
  2
*MODEL_SPACE
340
20
  0
BLOCK_RECORD
  5
B
100
AcDbSymbolTableRecord
100
AcDbBlockTableRecord
  2
*PAPER_SPACE
340
21
  0
BLOCK_RECORD
  5
B3
100
AcDbSymbolTableRecord
100
AcDbBlockTableRecord
  2
AID278
340
0
102
{BLKREFS
331
B7
102
}
  0
BLOCK_RECORD
  5
4CA
100
AcDbSymbolTableRecord
100
AcDbBlockTableRecord
  2
AID1615
340
0
102
{BLKREFS
331
4DB
102
}
  0
BLOCK_RECORD
  5
4DC
100
AcDbSymbolTableRecord
100
AcDbBlockTableRecord
  2
AID1628
340
0
102
{BLKREFS
331
4ED
102
}
  0
BLOCK_RECORD
  5
4EE
100
AcDbSymbolTableRecord
100
AcDbBlockTableRecord
  2
AID1641
340
0
102
{BLKREFS
331
4FF
102
}
  0
BLOCK_RECORD
  5
500
100
AcDbSymbolTableRecord
100
AcDbBlockTableRecord
  2
AID1654
340
0
102
{BLKREFS
331
511
102
}
  0
BLOCK_RECORD
  5
512
100
AcDbSymbolTableRecord
100
AcDbBlockTableRecord
  2
AID1667
340
0
102
{BLKREFS
331
516
102
}
  0
BLOCK_RECORD
  5
517
100
AcDbSymbolTableRecord
100
AcDbBlockTableRecord
  2
AID1670
340
0
102
{BLKREFS
331
51B
102
}
  0
BLOCK_RECORD
  5
51C
100
AcDbSymbolTableRecord
100
AcDbBlockTableRecord
  2
AID1673
340
0
102
{BLKREFS
331
520
102
}
  0
ENDTAB
  0
ENDSEC
  0
SECTION
  2
BLOCKS
  0
BLOCK
  5
D
100
AcDbEntity
  8
0
390
0
100
AcDbBlockBegin
  2
*MODEL_SPACE
 70
     0
 10
0.0
 20
0.0
 30
0.0
  3
*MODEL_SPACE
  1

  0
ENDBLK
  5
E
100
AcDbEntity
  8
0
390
0
100
AcDbBlockEnd
  0
BLOCK
  5
F
100
AcDbEntity
 67
     1
  8
0
390
0
100
AcDbBlockBegin
  2
*PAPER_SPACE
 70
     0
 10
0.0
 20
0.0
 30
0.0
  3
*PAPER_SPACE
  1

  0
ENDBLK
  5
10
100
AcDbEntity
 67
     1
  8
0
390
0
100
AcDbBlockEnd
  0
BLOCK
  5
B4
100
AcDbEntity
  8
0
390
0
100
AcDbBlockBegin
  2
AID278
 70
     0
 10
0.0
 20
0.0
 30
0.0
  3
D_GROUP
  1

  0
MTEXT
  5
B5
100
AcDbEntity
  8
256
390
0
 62
     7
100
AcDbMText
 10
580.211865
 20
6.950835
 30
0.0
 40
3.0
 41
7.472727
 71
     7
 72
     1
  1
A2
210
0.0
220
0.0
230
1.0
 73
     1
 44
1.0
  0
ENDBLK
  5
B6
100
AcDbEntity
  8
0
390
0
100
AcDbBlockEnd
  0
BLOCK
  5
4CB
100
AcDbEntity
  8
0
390
0
100
AcDbBlockBegin
  2
AID1615
 70
     0
 10
0.0
 20
0.0
 30
0.0
  3
D_GROUP
  1

  0
MTEXT
  5
4CC
100
AcDbEntity
  8
1
390
0
 62
     2
100
AcDbMText
 10
121.280144
 20
325.144039
 30
0.0
 40
6.0
 41
18.763636
 71
     7
 72
     1
  1
103
210
0.0
220
0.0
230
1.0
 73
     1
 44
1.0
  0
LINE
  5
4CD
100
AcDbEntity
  8
1
390
0
  6
Continuous
 62
    11
100
AcDbLine
 10
178.207416
 20
323.971312
 30
0.0
 11
75.207416
 21
323.971312
 31
0.0
  0
LINE
  5
4CE
100
AcDbEntity
  8
1
390
0
  6
Continuous
 62
    11
100
AcDbLine
 10
178.207416
 20
301.533206
 30
0.0
 11
178.207416
 21
325.771312
 31
0.0
  0
LINE
  5
4CF
100
AcDbEntity
  8
1
390
0
  6
Continuous
 62
    11
100
AcDbLine
 10
75.207416
 20
301.533206
 30
0.0
 11
75.207416
 21
325.771312
 31
0.0
  0
POLYLINE
  5
4D0
100
AcDbEntity
  8
1
390
0
  6
Continuous
 62
    11
100
AcDb2dPolyline
 66
     1
 10
0.0
 20
0.0
 30
0.0
 40
3.0
 41
3.0
  0
VERTEX
  5
4D1
100
AcDbEntity
  8
1
390
0
 62
    11
100
AcDbVertex
100
AcDb2dVertex
 10
173.707416
 20
324.871312
 30
0.0
  0
VERTEX
  5
4D2
100
AcDbEntity
  8
1
390
0
 62
    11
100
AcDbVertex
100
AcDb2dVertex
 10
178.207416
 20
323.971312
 30
0.0
  0
VERTEX
  5
4D3
100
AcDbEntity
  8
1
390
0
 62
    11
100
AcDbVertex
100
AcDb2dVertex
 10
173.707416
 20
323.071312
 30
0.0
  0
SEQEND
  5
4D4
100
AcDbEntity
  8
0
390
0
  0
POLYLINE
  5
4D5
100
AcDbEntity
  8
1
390
0
  6
Continuous
 62
    11
100
AcDb2dPolyline
 66
     1
 10
0.0
 20
0.0
 30
0.0
 40
3.0
 41
3.0
  0
VERTEX
  5
4D6
100
AcDbEntity
  8
1
390
0
 62
    11
100
AcDbVertex
100
AcDb2dVertex
 10
79.707416
 20
323.071312
 30
0.0
  0
VERTEX
  5
4D7
100
AcDbEntity
  8
1
390
0
 62
    11
100
AcDbVertex
100
AcDb2dVertex
 10
75.207416
 20
323.971312
 30
0.0
  0
VERTEX
  5
4D8
100
AcDbEntity
  8
1
390
0
 62
    11
100
AcDbVertex
100
AcDb2dVertex
 10
79.707416
 20
324.871312
 30
0.0
  0
SEQEND
  5
4D9
100
AcDbEntity
  8
0
390
0
  0
ENDBLK
  5
4DA
100
AcDbEntity
  8
0
390
0
100
AcDbBlockEnd
  0
BLOCK
  5
4DD
100
AcDbEntity
  8
0
390
0
100
AcDbBlockBegin
  2
AID1628
 70
     0
 10
0.0
 20
0.0
 30
0.0
  3
D_GROUP
  1

  0
MTEXT
  5
4DE
100
AcDbEntity
  8
1
390
0
 62
     2
100
AcDbMText
 10
48.825519
 20
248.215024
 30
0.0
 40
6.0
 41
12.545455
 71
     7
 72
     1
  1
98
210
0.0
220
0.0
230
1.0
 11
0.0
 21
1.0
 31
0.0
 73
     1
 44
1.0
  0
LINE
  5
4DF
100
AcDbEntity
  8
1
390
0
  6
Continuous
 62
    11
100
AcDbLine
 10
49.998247
 20
300.733206
 30
0.0
 11
49.998247
 21
202.733206
 31
0.0
  0
LINE
  5
4E0
100
AcDbEntity
  8
1
390
0
  6
Continuous
 62
    11
100
AcDbLine
 10
74.407416
 20
300.733206
 30
0.0
 11
48.198247
 21
300.733206
 31
0.0
  0
LINE
  5
4E1
100
AcDbEntity
  8
1
390
0
  6
Continuous
 62
    11
100
AcDbLine
 10
75.907416
 20
202.733206
 30
0.0
 11
48.198247
 21
202.733206
 31
0.0
  0
POLYLINE
  5
4E2
100
AcDbEntity
  8
1
390
0
  6
Continuous
 62
    11
100
AcDb2dPolyline
 66
     1
 10
0.0
 20
0.0
 30
0.0
 40
3.0
 41
3.0
  0
VERTEX
  5
4E3
100
AcDbEntity
  8
1
390
0
 62
    11
100
AcDbVertex
100
AcDb2dVertex
 10
49.098247
 20
296.233206
 30
0.0
  0
VERTEX
  5
4E4
100
AcDbEntity
  8
1
390
0
 62
    11
100
AcDbVertex
100
AcDb2dVertex
 10
49.998247
 20
300.733206
 30
0.0
  0
VERTEX
  5
4E5
100
AcDbEntity
  8
1
390
0
 62
    11
100
AcDbVertex
100
AcDb2dVertex
 10
50.898247
 20
296.233206
 30
0.0
  0
SEQEND
  5
4E6
100
AcDbEntity
  8
0
390
0
  0
POLYLINE
  5
4E7
100
AcDbEntity
  8
1
390
0
  6
Continuous
 62
    11
100
AcDb2dPolyline
 66
     1
 10
0.0
 20
0.0
 30
0.0
 40
3.0
 41
3.0
  0
VERTEX
  5
4E8
100
AcDbEntity
  8
1
390
0
 62
    11
100
AcDbVertex
100
AcDb2dVertex
 10
50.898247
 20
207.233206
 30
0.0
  0
VERTEX
  5
4E9
100
AcDbEntity
  8
1
390
0
 62
    11
100
AcDbVertex
100
AcDb2dVertex
 10
49.998247
 20
202.733206
 30
0.0
  0
VERTEX
  5
4EA
100
AcDbEntity
  8
1
390
0
 62
    11
100
AcDbVertex
100
AcDb2dVertex
 10
49.098247
 20
207.233206
 30
0.0
  0
SEQEND
  5
4EB
100
AcDbEntity
  8
0
390
0
  0
ENDBLK
  5
4EC
100
AcDbEntity
  8
0
390
0
100
AcDbBlockEnd
  0
BLOCK
  5
4EF
100
AcDbEntity
  8
0
390
0
100
AcDbBlockBegin
  2
AID1641
 70
     0
 10
0.0
 20
0.0
 30
0.0
  3
D_GROUP
  1

  0
MTEXT
  5
4F0
100
AcDbEntity
  8
1
390
0
 62
     2
100
AcDbMText
 10
123.189235
 20
174.137327
 30
0.0
 40
6.0
 41
12.545455
 71
     7
 72
     1
  1
98
210
0.0
220
0.0
230
1.0
 73
     1
 44
1.0
  0
LINE
  5
4F1
100
AcDbEntity
  8
1
390
0
  6
Continuous
 62
    11
100
AcDbLine
 10
175.707416
 20
172.9646
 30
0.0
 11
77.707416
 21
172.9646
 31
0.0
  0
LINE
  5
4F2
100
AcDbEntity
  8
1
390
0
  6
Continuous
 62
    11
100
AcDbLine
 10
175.707416
 20
200.933206
 30
0.0
 11
175.707416
 21
171.1646
 31
0.0
  0
LINE
  5
4F3
100
AcDbEntity
  8
1
390
0
  6
Continuous
 62
    11
100
AcDbLine
 10
77.707416
 20
200.933206
 30
0.0
 11
77.707416
 21
171.1646
 31
0.0
  0
POLYLINE
  5
4F4
100
AcDbEntity
  8
1
390
0
  6
Continuous
 62
    11
100
AcDb2dPolyline
 66
     1
 10
0.0
 20
0.0
 30
0.0
 40
3.0
 41
3.0
  0
VERTEX
  5
4F5
100
AcDbEntity
  8
1
390
0
 62
    11
100
AcDbVertex
100
AcDb2dVertex
 10
171.207416
 20
173.8646
 30
0.0
  0
VERTEX
  5
4F6
100
AcDbEntity
  8
1
390
0
 62
    11
100
AcDbVertex
100
AcDb2dVertex
 10
175.707416
 20
172.9646
 30
0.0
  0
VERTEX
  5
4F7
100
AcDbEntity
  8
1
390
0
 62
    11
100
AcDbVertex
100
AcDb2dVertex
 10
171.207416
 20
172.0646
 30
0.0
  0
SEQEND
  5
4F8
100
AcDbEntity
  8
0
390
0
  0
POLYLINE
  5
4F9
100
AcDbEntity
  8
1
390
0
  6
Continuous
 62
    11
100
AcDb2dPolyline
 66
     1
 10
0.0
 20
0.0
 30
0.0
 40
3.0
 41
3.0
  0
VERTEX
  5
4FA
100
AcDbEntity
  8
1
390
0
 62
    11
100
AcDbVertex
100
AcDb2dVertex
 10
82.207416
 20
172.0646
 30
0.0
  0
VERTEX
  5
4FB
100
AcDbEntity
  8
1
390
0
 62
    11
100
AcDbVertex
100
AcDb2dVertex
 10
77.707416
 20
172.9646
 30
0.0
  0
VERTEX
  5
4FC
100
AcDbEntity
  8
1
390
0
 62
    11
100
AcDbVertex
100
AcDb2dVertex
 10
82.207416
 20
173.8646
 30
0.0
  0
SEQEND
  5
4FD
100
AcDbEntity
  8
0
390
0
  0
ENDBLK
  5
4FE
100
AcDbEntity
  8
0
390
0
100
AcDbBlockEnd
  0
BLOCK
  5
501
100
AcDbEntity
  8
0
390
0
100
AcDbBlockBegin
  2
AID1654
 70
     0
 10
0.0
 20
0.0
 30
0.0
  3
D_GROUP
  1

  0
MTEXT
  5
502
100
AcDbEntity
  8
1
390
0
 62
     2
100
AcDbMText
 10
290.107124
 20
325.144039
 30
0.0
 40
6.0
 41
12.490909
 71
     7
 72
     1
  1
59
210
0.0
220
0.0
230
1.0
 73
     1
 44
1.0
  0
LINE
  5
503
100
AcDbEntity
  8
1
390
0
  6
Continuous
 62
    11
100
AcDbLine
 10
264.084397
 20
323.971312
 30
0.0
 11
323.084397
 21
323.971312
 31
0.0
  0
LINE
  5
504
100
AcDbEntity
  8
1
390
0
  6
Continuous
 62
    11
100
AcDbLine
 10
264.084397
 20
300.533206
 30
0.0
 11
264.084397
 21
325.771312
 31
0.0
  0
LINE
  5
505
100
AcDbEntity
  8
1
390
0
  6
Continuous
 62
    11
100
AcDbLine
 10
323.084397
 20
298.533206
 30
0.0
 11
323.084397
 21
325.771312
 31
0.0
  0
POLYLINE
  5
506
100
AcDbEntity
  8
1
390
0
  6
Continuous
 62
    11
100
AcDb2dPolyline
 66
     1
 10
0.0
 20
0.0
 30
0.0
 40
3.0
 41
3.0
  0
VERTEX
  5
507
100
AcDbEntity
  8
1
390
0
 62
    11
100
AcDbVertex
100
AcDb2dVertex
 10
268.584397
 20
323.071312
 30
0.0
  0
VERTEX
  5
508
100
AcDbEntity
  8
1
390
0
 62
    11
100
AcDbVertex
100
AcDb2dVertex
 10
264.084397
 20
323.971312
 30
0.0
  0
VERTEX
  5
509
100
AcDbEntity
  8
1
390
0
 62
    11
100
AcDbVertex
100
AcDb2dVertex
 10
268.584397
 20
324.871312
 30
0.0
  0
SEQEND
  5
50A
100
AcDbEntity
  8
0
390
0
  0
POLYLINE
  5
50B
100
AcDbEntity
  8
1
390
0
  6
Continuous
 62
    11
100
AcDb2dPolyline
 66
     1
 10
0.0
 20
0.0
 30
0.0
 40
3.0
 41
3.0
  0
VERTEX
  5
50C
100
AcDbEntity
  8
1
390
0
 62
    11
100
AcDbVertex
100
AcDb2dVertex
 10
318.584397
 20
324.871312
 30
0.0
  0
VERTEX
  5
50D
100
AcDbEntity
  8
1
390
0
 62
    11
100
AcDbVertex
100
AcDb2dVertex
 10
323.084397
 20
323.971312
 30
0.0
  0
VERTEX
  5
50E
100
AcDbEntity
  8
1
390
0
 62
    11
100
AcDbVertex
100
AcDb2dVertex
 10
318.584397
 20
323.071312
 30
0.0
  0
SEQEND
  5
50F
100
AcDbEntity
  8
0
390
0
  0
ENDBLK
  5
510
100
AcDbEntity
  8
0
390
0
100
AcDbBlockEnd
  0
BLOCK
  5
513
100
AcDbEntity
  8
0
390
0
100
AcDbBlockBegin
  2
AID1667
 70
     0
 10
0.0
 20
0.0
 30
0.0
  3
D_GROUP
  1

  0
MTEXT
  5
514
100
AcDbEntity
  8
1
390
0
 62
     7
100
AcDbMText
 10
496.7643
 20
31.909735
 30
0.0
 40
5.0
 41
14.045455
 71
     7
 72
     1
  1
1：1
210
0.0
220
0.0
230
1.0
 73
     1
 44
1.0
  0
ENDBLK
  5
515
100
AcDbEntity
  8
0
390
0
100
AcDbBlockEnd
  0
BLOCK
  5
518
100
AcDbEntity
  8
0
390
0
100
AcDbBlockBegin
  2
AID1670
 70
     0
 10
0.0
 20
0.0
 30
0.0
  3
D_GROUP
  1

  0
MTEXT
  5
519
100
AcDbEntity
  8
1
390
0
 62
     7
100
AcDbMText
 10
538.822578
 20
39.570308
 30
0.0
 40
4.0
 41
61.090909
 71
     7
 72
     1
  1
圧力計測アンプ
210
0.0
220
0.0
230
1.0
 73
     1
 44
1.0
  0
ENDBLK
  5
51A
100
AcDbEntity
  8
0
390
0
100
AcDbBlockEnd
  0
BLOCK
  5
51D
100
AcDbEntity
  8
0
390
0
100
AcDbBlockBegin
  2
AID1673
 70
     0
 10
0.0
 20
0.0
 30
0.0
  3
D_GROUP
  1

  0
MTEXT
  5
51E
100
AcDbEntity
  8
1
390
0
 62
     7
100
AcDbMText
 10
545.868033
 20
29.30355
 30
0.0
 40
4.0
 41
32.690909
 71
     7
 72
     1
  1
MPS01A
210
0.0
220
0.0
230
1.0
 73
     1
 44
1.0
  0
ENDBLK
  5
51F
100
AcDbEntity
  8
0
390
0
100
AcDbBlockEnd
  0
ENDSEC
  0
SECTION
  2
ENTITIES
  0
LINE
  5
28
100
AcDbEntity
  8
256
390
0
  6
Continuous
 62
     8
100
AcDbLine
 10
509.25
 20
15.666667
 30
0.0
 11
509.25
 21
48.0
 31
0.0
  0
LINE
  5
29
100
AcDbEntity
  8
256
390
0
  6
Continuous
 62
     8
100
AcDbLine
 10
422.000031
 20
38.0
 30
0.0
 11
396.0
 21
44.0
 31
0.0
  0
LINE
  5
2A
100
AcDbEntity
  8
256
390
0
  6
Continuous
 62
     8
100
AcDbLine
 10
564.25
 20
400.0
 30
0.0
 11
564.25
 21
410.0
 31
0.0
  0
LINE
  5
2B
100
AcDbEntity
  8
256
390
0
  6
Continuous
 62
     8
100
AcDbLine
 10
396.0
 20
27.5
 30
0.0
 11
445.0
 21
27.5
 31
0.0
  0
LINE
  5
2C
100
AcDbEntity
  8
256
390
0
  6
Continuous
 62
     8
100
AcDbLine
 10
584.0
 20
410.0
 30
0.0
 11
10.0
 21
410.0
 31
0.0
  0
LINE
  5
2D
100
AcDbEntity
  8
256
390
0
  6
Continuous
 62
     8
100
AcDbLine
 10
501.0
 20
410.0
 30
0.0
 11
501.0
 21
380.0
 31
0.0
  0
LINE
  5
2E
100
AcDbEntity
  8
256
390
0
  6
Continuous
 62
     8
100
AcDbLine
 10
396.0
 20
38.0
 30
0.0
 11
445.0
 21
38.0
 31
0.0
  0
LINE
  5
2F
100
AcDbEntity
  8
256
390
0
  6
Continuous
 62
     8
100
AcDbLine
 10
396.0
 20
48.0
 30
0.0
 11
584.0
 21
48.0
 31
0.0
  0
LINE
  5
30
100
AcDbEntity
  8
256
390
0
  6
Continuous
 62
     8
100
AcDbLine
 10
408.511017
 20
380.368011
 30
0.0
 11
406.011017
 21
384.664886
 31
0.0
  0
LINE
  5
31
100
AcDbEntity
  8
256
390
0
  6
Continuous
 62
     8
100
AcDbLine
 10
396.0
 20
20.5
 30
0.0
 11
445.0
 21
20.5
 31
0.0
  0
LINE
  5
32
100
AcDbEntity
  8
256
390
0
  6
Continuous
 62
     8
100
AcDbLine
 10
411.0
 20
410.0
 30
0.0
 11
411.0
 21
380.0
 31
0.0
  0
LINE
  5
33
100
AcDbEntity
  8
256
390
0
  6
Continuous
 62
     8
100
AcDbLine
 10
524.25
 20
15.666667
 30
0.0
 11
524.25
 21
48.0
 31
0.0
  0
LINE
  5
34
100
AcDbEntity
  8
256
390
0
  6
Continuous
 62
     8
100
AcDbLine
 10
584.0
 20
380.0
 30
0.0
 11
401.0
 21
380.0
 31
0.0
  0
LINE
  5
35
100
AcDbEntity
  8
256
390
0
  6
Continuous
 62
     8
100
AcDbLine
 10
396.0
 20
34.5
 30
0.0
 11
445.0
 21
34.5
 31
0.0
  0
LINE
  5
36
100
AcDbEntity
  8
256
390
0
  6
Continuous
 62
     8
100
AcDbLine
 10
408.511017
 20
400.368011
 30
0.0
 11
406.011017
 21
404.664886
 31
0.0
  0
LINE
  5
37
100
AcDbEntity
  8
256
390
0
  6
Continuous
 62
     8
100
AcDbLine
 10
584.0
 20
390.0
 30
0.0
 11
401.0
 21
390.0
 31
0.0
  0
LINE
  5
38
100
AcDbEntity
  8
256
390
0
  6
Continuous
 62
     8
100
AcDbLine
 10
584.0
 20
10.0
 30
0.0
 11
584.0
 21
410.0
 31
0.0
  0
LINE
  5
39
100
AcDbEntity
  8
256
390
0
  6
Continuous
 62
     8
100
AcDbLine
 10
509.25
 20
35.0
 30
0.0
 11
584.0
 21
35.0
 31
0.0
  0
LINE
  5
3A
100
AcDbEntity
  8
256
390
0
  6
Continuous
 62
     8
100
AcDbLine
 10
406.011017
 20
399.664886
 30
0.0
 11
403.511017
 21
395.368011
 31
0.0
  0
LINE
  5
3B
100
AcDbEntity
  8
256
390
0
  6
Continuous
 62
     8
100
AcDbLine
 10
403.511017
 20
395.368011
 30
0.0
 11
408.511017
 21
395.368011
 31
0.0
  0
LINE
  5
3C
100
AcDbEntity
  8
256
390
0
  6
Continuous
 62
     8
100
AcDbLine
 10
531.0
 20
410.0
 30
0.0
 11
531.0
 21
380.0
 31
0.0
  0
LINE
  5
3D
100
AcDbEntity
  8
256
390
0
  6
Continuous
 62
     8
100
AcDbLine
 10
445.0
 20
26.5
 30
0.0
 11
584.0
 21
26.5
 31
0.0
  0
LINE
  5
3E
100
AcDbEntity
  8
256
390
0
  6
Continuous
 62
     8
100
AcDbLine
 10
559.25
 20
400.0
 30
0.0
 11
559.25
 21
410.0
 31
0.0
  0
LINE
  5
3F
100
AcDbEntity
  8
256
390
0
  6
Continuous
 62
     8
100
AcDbLine
 10
559.25
 20
405.0
 30
0.0
 11
536.0
 21
405.0
 31
0.0
  0
LINE
  5
40
100
AcDbEntity
  8
256
390
0
  6
Continuous
 62
     8
100
AcDbLine
 10
531.0
 20
405.0
 30
0.0
 11
401.0
 21
405.0
 31
0.0
  0
LINE
  5
41
100
AcDbEntity
  8
256
390
0
  6
Continuous
 62
     8
100
AcDbLine
 10
531.0
 20
385.0
 30
0.0
 11
401.0
 21
385.0
 31
0.0
  0
LINE
  5
42
100
AcDbEntity
  8
256
390
0
  6
Continuous
 62
     8
100
AcDbLine
 10
531.0
 20
395.0
 30
0.0
 11
401.0
 21
395.0
 31
0.0
  0
LINE
  5
43
100
AcDbEntity
  8
256
390
0
  6
Continuous
 62
     8
100
AcDbLine
 10
396.0
 20
31.0
 30
0.0
 11
494.25
 21
31.0
 31
0.0
  0
LINE
  5
44
100
AcDbEntity
  8
256
390
0
  6
Continuous
 62
     8
100
AcDbLine
 10
403.511017
 20
380.368011
 30
0.0
 11
408.511017
 21
380.368011
 31
0.0
  0
LINE
  5
45
100
AcDbEntity
  8
256
390
0
  6
Continuous
 62
     8
100
AcDbLine
 10
427.750031
 20
44.0
 30
0.0
 11
427.750031
 21
10.0
 31
0.0
  0
LINE
  5
46
100
AcDbEntity
  8
256
390
0
  6
Continuous
 62
     8
100
AcDbLine
 10
396.0
 20
44.0
 30
0.0
 11
445.0
 21
44.0
 31
0.0
  0
LINE
  5
47
100
AcDbEntity
  8
256
390
0
  6
Continuous
 62
     8
100
AcDbLine
 10
516.0
 20
410.0
 30
0.0
 11
516.0
 21
380.0
 31
0.0
  0
LINE
  5
48
100
AcDbEntity
  8
256
390
0
  6
Continuous
 62
     8
100
AcDbLine
 10
494.25
 20
10.0
 30
0.0
 11
494.25
 21
48.0
 31
0.0
  0
LINE
  5
49
100
AcDbEntity
  8
256
390
0
  6
Continuous
 62
     8
100
AcDbLine
 10
445.0
 20
41.0
 30
0.0
 11
509.25
 21
41.0
 31
0.0
  0
LINE
  5
4A
100
AcDbEntity
  8
256
390
0
  6
Continuous
 62
     8
100
AcDbLine
 10
422.000031
 20
44.0
 30
0.0
 11
422.000031
 21
10.0
 31
0.0
  0
LINE
  5
4B
100
AcDbEntity
  8
256
390
0
  6
Continuous
 62
     8
100
AcDbLine
 10
445.0
 20
48.0
 30
0.0
 11
445.0
 21
10.0
 31
0.0
  0
LINE
  5
4C
100
AcDbEntity
  8
256
390
0
  6
Continuous
 62
     8
100
AcDbLine
 10
403.511017
 20
400.368011
 30
0.0
 11
408.511017
 21
400.368011
 31
0.0
  0
LINE
  5
4D
100
AcDbEntity
  8
256
390
0
  6
Continuous
 62
     8
100
AcDbLine
 10
433.500031
 20
44.0
 30
0.0
 11
433.500031
 21
10.0
 31
0.0
  0
LINE
  5
4E
100
AcDbEntity
  8
256
390
0
  6
Continuous
 62
     8
100
AcDbLine
 10
403.511017
 20
385.368011
 30
0.0
 11
408.511017
 21
385.368011
 31
0.0
  0
LINE
  5
4F
100
AcDbEntity
  8
256
390
0
  6
Continuous
 62
     8
100
AcDbLine
 10
494.25
 20
15.666667
 30
0.0
 11
584.0
 21
15.666667
 31
0.0
  0
LINE
  5
50
100
AcDbEntity
  8
256
390
0
  6
Continuous
 62
     8
100
AcDbLine
 10
439.250031
 20
44.0
 30
0.0
 11
439.250031
 21
10.0
 31
0.0
  0
LINE
  5
51
100
AcDbEntity
  8
256
390
0
  6
Continuous
 62
     8
100
AcDbLine
 10
396.0
 20
48.0
 30
0.0
 11
396.0
 21
10.0
 31
0.0
  0
LINE
  5
52
100
AcDbEntity
  8
256
390
0
  6
Continuous
 62
     8
100
AcDbLine
 10
10.0
 20
10.0
 30
0.0
 11
10.0
 21
410.0
 31
0.0
  0
LINE
  5
53
100
AcDbEntity
  8
256
390
0
  6
Continuous
 62
     8
100
AcDbLine
 10
477.8
 20
48.0
 30
0.0
 11
477.8
 21
10.0
 31
0.0
  0
LINE
  5
54
100
AcDbEntity
  8
256
390
0
  6
Continuous
 62
     8
100
AcDbLine
 10
406.011017
 20
404.664886
 30
0.0
 11
403.511017
 21
400.368011
 31
0.0
  0
LINE
  5
55
100
AcDbEntity
  8
256
390
0
  6
Continuous
 62
     8
100
AcDbLine
 10
396.0
 20
13.5
 30
0.0
 11
445.000031
 21
13.5
 31
0.0
  0
LINE
  5
56
100
AcDbEntity
  8
256
390
0
  6
Continuous
 62
     8
100
AcDbLine
 10
401.0
 20
410.0
 30
0.0
 11
401.0
 21
380.0
 31
0.0
  0
LINE
  5
57
100
AcDbEntity
  8
256
390
0
  6
Continuous
 62
     8
100
AcDbLine
 10
408.511017
 20
395.368011
 30
0.0
 11
406.011017
 21
399.664886
 31
0.0
  0
LINE
  5
58
100
AcDbEntity
  8
256
390
0
  6
Continuous
 62
     8
100
AcDbLine
 10
401.000031
 20
10.0
 30
0.0
 11
584.0
 21
10.0
 31
0.0
  0
LINE
  5
59
100
AcDbEntity
  8
256
390
0
  6
Continuous
 62
     8
100
AcDbLine
 10
406.011017
 20
389.664886
 30
0.0
 11
403.511017
 21
385.368011
 31
0.0
  0
LINE
  5
5A
100
AcDbEntity
  8
256
390
0
  6
Continuous
 62
     8
100
AcDbLine
 10
10.0
 20
10.0
 30
0.0
 11
584.0
 21
10.0
 31
0.0
  0
LINE
  5
5B
100
AcDbEntity
  8
256
390
0
  6
Continuous
 62
     8
100
AcDbLine
 10
396.0
 20
24.0
 30
0.0
 11
445.0
 21
24.0
 31
0.0
  0
LINE
  5
5C
100
AcDbEntity
  8
256
390
0
  6
Continuous
 62
     8
100
AcDbLine
 10
461.4
 20
31.0
 30
0.0
 11
461.4
 21
10.0
 31
0.0
  0
LINE
  5
5D
100
AcDbEntity
  8
256
390
0
  6
Continuous
 62
     8
100
AcDbLine
 10
403.511017
 20
390.368011
 30
0.0
 11
408.511017
 21
390.368011
 31
0.0
  0
LINE
  5
5E
100
AcDbEntity
  8
256
390
0
  6
Continuous
 62
     8
100
AcDbLine
 10
408.511017
 20
390.368011
 30
0.0
 11
406.011017
 21
394.664886
 31
0.0
  0
LINE
  5
5F
100
AcDbEntity
  8
256
390
0
  6
Continuous
 62
     8
100
AcDbLine
 10
406.011017
 20
394.664886
 30
0.0
 11
403.511017
 21
390.368011
 31
0.0
  0
LINE
  5
60
100
AcDbEntity
  8
256
390
0
  6
Continuous
 62
     8
100
AcDbLine
 10
584.0
 20
400.0
 30
0.0
 11
401.0
 21
400.0
 31
0.0
  0
LINE
  5
61
100
AcDbEntity
  8
256
390
0
  6
Continuous
 62
     8
100
AcDbLine
 10
408.511017
 20
385.368011
 30
0.0
 11
406.011017
 21
389.664886
 31
0.0
  0
LINE
  5
62
100
AcDbEntity
  8
256
390
0
  6
Continuous
 62
     8
100
AcDbLine
 10
536.0
 20
410.0
 30
0.0
 11
536.0
 21
380.0
 31
0.0
  0
LINE
  5
63
100
AcDbEntity
  8
256
390
0
  6
Continuous
 62
     8
100
AcDbLine
 10
406.011017
 20
384.664886
 30
0.0
 11
403.511017
 21
380.368011
 31
0.0
  0
LINE
  5
64
100
AcDbEntity
  8
256
390
0
  6
Continuous
 62
     8
100
AcDbLine
 10
396.0
 20
17.0
 30
0.0
 11
445.0
 21
17.0
 31
0.0
  0
LINE
  5
65
100
AcDbEntity
  8
256
390
0
  6
Continuous
 62
     8
100
AcDbLine
 10
481.164695
 20
32.573373
 30
0.0
 11
488.235801
 21
39.644442
 31
0.0
  0
MTEXT
  5
66
100
AcDbEntity
  8
256
390
0
 62
     8
100
AcDbMText
 10
442.125015
 20
28.244792
 30
0.0
 40
1.75
 41
0.843182
 71
     8
 72
     1
  1
1  
210
0.0
220
0.0
230
1.0
 73
     1
 44
1.0
  0
MTEXT
  5
67
100
AcDbEntity
  8
256
390
0
 62
     8
100
AcDbMText
 10
442.125015
 20
31.744792
 30
0.0
 40
1.75
 41
4.55
 71
     8
 72
     1
  1
0.5  
210
0.0
220
0.0
230
1.0
 73
     1
 44
1.0
  0
MTEXT
  5
68
100
AcDbEntity
  8
256
390
0
 62
     8
100
AcDbMText
 10
436.375031
 20
21.244792
 30
0.0
 40
1.75
 41
4.263636
 71
     8
 72
     1
  1
1.2  
210
0.0
220
0.0
230
1.0
 73
     1
 44
1.0
  0
MTEXT
  5
69
100
AcDbEntity
  8
256
390
0
 62
     8
100
AcDbMText
 10
534.177286
 20
383.993743
 30
0.0
 40
2.822222
 41
5.875353
 71
     8
 72
     1
  1
処  
210
0.0
220
0.0
230
1.0
 73
     1
 44
1.0
  0
MTEXT
  5
6A
100
AcDbEntity
  8
256
390
0
 62
     8
100
AcDbMText
 10
436.375031
 20
14.244792
 30
0.0
 40
1.75
 41
1.622727
 71
     8
 72
     1
  1
3  
210
0.0
220
0.0
230
1.0
 73
     1
 44
1.0
  0
MTEXT
  5
6B
100
AcDbEntity
  8
256
390
0
 62
     8
100
AcDbMText
 10
562.248931
 20
401.125756
 30
0.0
 40
3.386667
 41
6.958061
 71
     8
 72
     1
  1
取  
210
0.0
220
0.0
230
0.9999999999999999
 73
     1
 44
1.0
  0
MTEXT
  5
6C
100
AcDbEntity
  8
256
390
0
 62
     8
100
AcDbMText
 10
420.445896
 20
31.744792
 30
0.0
 40
1.75
 41
26.615909
 71
     9
 72
     1
  1
   3を超え   6以下  
210
0.0
220
0.0
230
1.0
 73
     1
 44
1.0
  0
MTEXT
  5
6D
100
AcDbEntity
  8
256
390
0
 62
     8
100
AcDbMText
 10
430.267485
 20
41.030456
 30
0.0
 40
1.7952
 41
7.6704
 71
     8
 72
     1
  1
中級  
210
0.0
220
0.0
230
1.0
 73
     1
 44
1.0
  0
MTEXT
  5
6E
100
AcDbEntity
  8
256
390
0
 62
     8
100
AcDbMText
 10
436.375031
 20
10.744792
 30
0.0
 40
1.75
 41
1.765909
 71
     8
 72
     1
  1
4  
210
0.0
220
0.0
230
1.0
 73
     1
 44
1.0
  0
MTEXT
  5
6F
100
AcDbEntity
  8
256
390
0
 62
     8
100
AcDbMText
 10
420.368174
 20
17.744792
 30
0.0
 40
1.75
 41
33.138636
 71
     9
 72
     1
  1
 400を超え1000以下  
210
0.0
220
0.0
230
1.0
 73
     1
 44
1.0
  0
MTEXT
  5
70
100
AcDbEntity
  8
256
390
0
 62
     8
100
AcDbMText
 10
424.875031
 20
21.244792
 30
0.0
 40
1.75
 41
4.55
 71
     8
 72
     1
  1
0.2  
210
0.0
220
0.0
230
1.0
 73
     1
 44
1.0
  0
MTEXT
  5
71
100
AcDbEntity
  8
256
390
0
 62
     8
100
AcDbMText
 10
436.375031
 20
31.744792
 30
0.0
 40
1.75
 41
4.55
 71
     8
 72
     1
  1
0.3  
210
0.0
220
0.0
230
1.0
 73
     1
 44
1.0
  0
MTEXT
  5
72
100
AcDbEntity
  8
256
390
0
 62
     8
100
AcDbMText
 10
511.049819
 20
406.016798
 30
0.0
 40
3.386667
 41
22.81382
 71
     8
 72
     1
  1
担当者     
210
0.0
220
0.0
230
0.9999999999999999
 73
     1
 44
1.0
  0
MTEXT
  5
73
100
AcDbEntity
  8
256
390
0
 62
     8
100
AcDbMText
 10
517.794664
 20
19.597628
 30
0.0
 40
3.386667
 41
16.902547
 71
     8
 72
     1
  1
図 番  
210
0.0
220
0.0
230
0.9999999999999999
 73
     1
 44
1.0
  0
MTEXT
  5
74
100
AcDbEntity
  8
256
390
0
 62
     8
100
AcDbMText
 10
420.430153
 20
28.244792
 30
0.0
 40
1.75
 41
27.395455
 71
     9
 72
     1
  1
   6を超え  30以下  
210
0.0
220
0.0
230
1.0
 73
     1
 44
1.0
  0
MTEXT
  5
75
100
AcDbEntity
  8
256
390
0
 62
     8
100
AcDbMText
 10
502.342383
 20
43.019577
 30
0.0
 40
3.386667
 41
17.30279
 71
     8
 72
     1
  1
尺 度  
210
0.0
220
0.0
230
0.9999999999999999
 73
     1
 44
1.0
  0
MTEXT
  5
76
100
AcDbEntity
  8
256
390
0
 62
     8
100
AcDbMText
 10
424.875031
 20
14.244792
 30
0.0
 40
1.75
 41
4.55
 71
     8
 72
     1
  1
0.5  
210
0.0
220
0.0
230
1.0
 73
     1
 44
1.0
  0
MTEXT
  5
77
100
AcDbEntity
  8
256
390
0
 62
     8
100
AcDbMText
 10
420.399214
 20
24.744792
 30
0.0
 40
1.75
 41
30.243182
 71
     9
 72
     1
  1
  30を超え 120以下  
210
0.0
220
0.0
230
1.0
 73
     1
 44
1.0
  0
MTEXT
  5
78
100
AcDbEntity
  8
256
390
0
 62
     8
100
AcDbMText
 10
534.177286
 20
387.109529
 30
0.0
 40
2.822222
 41
5.952323
 71
     8
 72
     1
  1
熱  
210
0.0
220
0.0
230
1.0
 73
     1
 44
1.0
  0
MTEXT
  5
79
100
AcDbEntity
  8
256
390
0
 62
     8
100
AcDbMText
 10
442.125015
 20
10.744792
 30
0.0
 40
1.75
 41
1.654545
 71
     8
 72
     1
  1
8  
210
0.0
220
0.0
230
1.0
 73
     1
 44
1.0
  0
MTEXT
  5
7A
100
AcDbEntity
  8
256
390
0
 62
     8
100
AcDbMText
 10
436.842314
 20
38.990211
 30
0.0
 40
2.0
 41
7.527273
 71
     8
 72
     1
  1
c %%p  
210
0.0
220
0.0
230
1.0
 73
     1
 44
1.0
  0
MTEXT
  5
7B
100
AcDbEntity
  8
256
390
0
 62
     8
100
AcDbMText
 10
486.533736
 20
43.019577
 30
0.0
 40
3.386667
 41
17.518305
 71
     8
 72
     1
  1
個 数  
210
0.0
220
0.0
230
0.9999999999999999
 73
     1
 44
1.0
  0
MTEXT
  5
7C
100
AcDbEntity
  8
256
390
0
 62
     8
100
AcDbMText
 10
420.361108
 20
10.744792
 30
0.0
 40
1.75
 41
35.111364
 71
     9
 72
     1
  1
2000を超え4000以下  
210
0.0
220
0.0
230
1.0
 73
     1
 44
1.0
  0
MTEXT
  5
7D
100
AcDbEntity
  8
256
390
0
 62
     8
100
AcDbMText
 10
436.600019
 20
41.030456
 30
0.0
 40
1.7952
 41
7.9968
 71
     8
 72
     1
  1
粗級  
210
0.0
220
0.0
230
1.0
 73
     1
 44
1.0
  0
MTEXT
  5
7E
100
AcDbEntity
  8
256
390
0
 62
     8
100
AcDbMText
 10
416.4153
 20
40.925781
 30
0.0
 40
1.5
 41
13.636364
 71
     8
 72
     1
  1
公差等級  
210
0.0
220
0.0
230
1.0
 73
     1
 44
1.0
  0
MTEXT
  5
7F
100
AcDbEntity
  8
256
390
0
 62
     8
100
AcDbMText
 10
486.601588
 20
27.313301
 30
0.0
 40
3.386667
 41
17.518305
 71
     8
 72
     1
  1
承 認  
210
0.0
220
0.0
230
0.9999999999999999
 73
     1
 44
1.0
  0
MTEXT
  5
80
100
AcDbEntity
  8
256
390
0
 62
     8
100
AcDbMText
 10
534.177286
 20
391.225017
 30
0.0
 40
3.386667
 41
7.112001
 71
     8
 72
     1
  1
理  
210
0.0
220
0.0
230
0.9999999999999999
 73
     1
 44
1.0
  0
MTEXT
  5
81
100
AcDbEntity
  8
256
390
0
 62
     8
100
AcDbMText
 10
430.625031
 20
10.744792
 30
0.0
 40
1.75
 41
1.622727
 71
     8
 72
     1
  1
2  
210
0.0
220
0.0
230
1.0
 73
     1
 44
1.0
  0
MTEXT
  5
82
100
AcDbEntity
  8
256
390
0
 62
     8
100
AcDbMText
 10
424.875031
 20
31.744792
 30
0.0
 40
1.75
 41
6.586364
 71
     8
 72
     1
  1
0.05  
210
0.0
220
0.0
230
1.0
 73
     1
 44
1.0
  0
MTEXT
  5
83
100
AcDbEntity
  8
256
390
0
 62
     8
100
AcDbMText
 10
425.602342
 20
38.990211
 30
0.0
 40
2.0
 41
6.836364
 71
     8
 72
     1
  1
f %%p  
210
0.0
220
0.0
230
1.0
 73
     1
 44
1.0
  0
MTEXT
  5
84
100
AcDbEntity
  8
256
390
0
 62
     8
100
AcDbMText
 10
424.875031
 20
9.839584
 30
0.0
 40
2.54
 41
2.632364
 71
     8
 72
     1
  1
-  
210
0.0
220
0.0
230
1.0
 73
     1
 44
1.0
  0
MTEXT
  5
85
100
AcDbEntity
  8
256
390
0
 62
     8
100
AcDbMText
 10
431.092314
 20
38.990211
 30
0.0
 40
2.0
 41
8.563636
 71
     8
 72
     1
  1
m %%p  
210
0.0
220
0.0
230
1.0
 73
     1
 44
1.0
  0
MTEXT
  5
86
100
AcDbEntity
  8
256
390
0
 62
     8
100
AcDbMText
 10
436.375031
 20
24.744792
 30
0.0
 40
1.75
 41
4.565909
 71
     8
 72
     1
  1
0.8  
210
0.0
220
0.0
230
1.0
 73
     1
 44
1.0
  0
MTEXT
  5
87
100
AcDbEntity
  8
256
390
0
 62
     8
100
AcDbMText
 10
404.055934
 20
38.276186
 30
0.0
 40
1.5
 41
24.272727
 71
     8
 72
     1
  1
寸法の区分(mm)  
210
0.0
220
0.0
230
1.0
 73
     1
 44
1.0
  0
MTEXT
  5
88
100
AcDbEntity
  8
256
390
0
 62
     8
100
AcDbMText
 10
534.177286
 20
405.510791
 30
0.0
 40
3.386667
 41
7.050425
 71
     8
 72
     1
  1
仕  
210
0.0
220
0.0
230
0.9999999999999999
 73
     1
 44
1.0
  0
MTEXT
  5
89
100
AcDbEntity
  8
256
390
0
 62
     8
100
AcDbMText
 10
442.563685
 20
41.098656
 30
0.0
 40
1.584
 41
10.8
 71
     8
 72
     1
  1
極粗級  
210
0.0
220
0.0
230
1.0
 73
     1
 44
1.0
  0
MTEXT
  5
8A
100
AcDbEntity
  8
256
390
0
 62
     8
100
AcDbMText
 10
540.686995
 20
11.418105
 30
0.0
 40
3.386667
 41
99.506434
 71
     8
 72
     1
  1
双 葉 電 子 工 業 株 式 会 社  
210
0.0
220
0.0
230
0.9999999999999999
 73
     1
 44
1.0
  0
MTEXT
  5
8B
100
AcDbEntity
  8
256
390
0
 62
     8
100
AcDbMText
 10
488.81384
 20
32.737546
 30
0.0
 40
3.386667
 41
10.375516
 71
     8
 72
     1
  1
1台  
210
0.0
220
0.0
230
0.9999999999999999
 73
     1
 44
1.0
  0
MTEXT
  5
8C
100
AcDbEntity
  8
256
390
0
 62
     8
100
AcDbMText
 10
517.526995
 20
40.014295
 30
0.0
 40
3.386667
 41
17.210426
 71
     8
 72
     1
  1
名 称  
210
0.0
220
0.0
230
0.9999999999999999
 73
     1
 44
1.0
  0
MTEXT
  5
8D
100
AcDbEntity
  8
256
390
0
 62
     8
100
AcDbMText
 10
442.125015
 20
17.744792
 30
0.0
 40
1.75
 41
1.765909
 71
     8
 72
     1
  1
4  
210
0.0
220
0.0
230
1.0
 73
     1
 44
1.0
  0
MTEXT
  5
8E
100
AcDbEntity
  8
256
390
0
 62
     8
100
AcDbMText
 10
462.076029
 20
42.93593
 30
0.0
 40
3.386667
 41
24.56873
 71
     8
 72
     1
  1
材    質  
210
0.0
220
0.0
230
0.9999999999999999
 73
     1
 44
1.0
  0
MTEXT
  5
8F
100
AcDbEntity
  8
256
390
0
 62
     8
100
AcDbMText
 10
453.943881
 20
27.313301
 30
0.0
 40
3.386667
 41
17.241214
 71
     8
 72
     1
  1
設 計  
210
0.0
220
0.0
230
0.9999999999999999
 73
     1
 44
1.0
  0
MTEXT
  5
90
100
AcDbEntity
  8
256
390
0
 62
     8
100
AcDbMText
 10
442.125015
 20
34.339584
 30
0.0
 40
2.54
 41
2.632364
 71
     8
 72
     1
  1
-  
210
0.0
220
0.0
230
1.0
 73
     1
 44
1.0
  0
MTEXT
  5
91
100
AcDbEntity
  8
256
390
0
 62
     8
100
AcDbMText
 10
534.177286
 20
401.183176
 30
0.0
 40
3.386667
 41
6.68097
 71
     8
 72
     1
  1
上  
210
0.0
220
0.0
230
0.9999999999999999
 73
     1
 44
1.0
  0
MTEXT
  5
92
100
AcDbEntity
  8
256
390
0
 62
     8
100
AcDbMText
 10
398.868322
 20
40.491728
 30
0.0
 40
1.5
 41
6.640909
 71
     8
 72
     1
  1
基準  
210
0.0
220
0.0
230
1.0
 73
     1
 44
1.0
  0
MTEXT
  5
93
100
AcDbEntity
  8
256
390
0
 62
     8
100
AcDbMText
 10
436.375031
 20
35.244792
 30
0.0
 40
1.75
 41
4.55
 71
     8
 72
     1
  1
0.2  
210
0.0
220
0.0
230
1.0
 73
     1
 44
1.0
  0
MTEXT
  5
94
100
AcDbEntity
  8
256
390
0
 62
     8
100
AcDbMText
 10
526.189229
 20
405.877387
 30
0.0
 40
3.386667
 41
21.551517
 71
     8
 72
     1
  1
年月日     
210
0.0
220
0.0
230
0.9999999999999999
 73
     1
 44
1.0
  0
MTEXT
  5
95
100
AcDbEntity
  8
256
390
0
 62
     8
100
AcDbMText
 10
430.625031
 20
24.744792
 30
0.0
 40
1.75
 41
4.55
 71
     8
 72
     1
  1
0.3  
210
0.0
220
0.0
230
1.0
 73
     1
 44
1.0
  0
MTEXT
  5
96
100
AcDbEntity
  8
256
390
0
 62
     8
100
AcDbMText
 10
562.248931
 20
405.453371
 30
0.0
 40
3.386667
 41
6.68097
 71
     8
 72
     1
  1
面  
210
0.0
220
0.0
230
0.9999999999999999
 73
     1
 44
1.0
  0
MTEXT
  5
97
100
AcDbEntity
  8
256
390
0
 62
     8
100
AcDbMText
 10
420.369552
 20
14.244792
 30
0.0
 40
1.75
 41
34.888636
 71
     9
 72
     1
  1
1000を超え2000以下  
210
0.0
220
0.0
230
1.0
 73
     1
 44
1.0
  0
MTEXT
  5
98
100
AcDbEntity
  8
256
390
0
 62
     8
100
AcDbMText
 10
420.653798
 20
45.307375
 30
0.0
 40
1.7
 41
74.846364
 71
     8
 72
     1
  1
削り加工寸法の普通許容差 JIS B 0405-1991  
210
0.0
220
0.0
230
1.0
 73
     1
 44
1.0
  0
MTEXT
  5
99
100
AcDbEntity
  8
256
390
0
 62
     8
100
AcDbMText
 10
430.625031
 20
31.744792
 30
0.0
 40
1.75
 41
3.993182
 71
     8
 72
     1
  1
0.1  
210
0.0
220
0.0
230
1.0
 73
     1
 44
1.0
  0
MTEXT
  5
9A
100
AcDbEntity
  8
256
390
0
 62
     8
100
AcDbMText
 10
430.625031
 20
35.244792
 30
0.0
 40
1.75
 41
3.993182
 71
     8
 72
     1
  1
0.1  
210
0.0
220
0.0
230
1.0
 73
     1
 44
1.0
  0
MTEXT
  5
9B
100
AcDbEntity
  8
256
390
0
 62
     8
100
AcDbMText
 10
420.383663
 20
21.244792
 30
0.0
 40
1.75
 41
32.056818
 71
     9
 72
     1
  1
 120を超え 400以下  
210
0.0
220
0.0
230
1.0
 73
     1
 44
1.0
  0
MTEXT
  5
9C
100
AcDbEntity
  8
256
390
0
 62
     8
100
AcDbMText
 10
470.092941
 20
27.278775
 30
0.0
 40
3.386667
 41
17.025699
 71
     8
 72
     1
  1
検 図  
210
0.0
220
0.0
230
0.9999999999999999
 73
     1
 44
1.0
  0
MTEXT
  5
9D
100
AcDbEntity
  8
256
390
0
 62
     8
100
AcDbMText
 10
457.526992
 20
406.132116
 30
0.0
 40
3.386667
 41
59.482188
 71
     8
 72
     1
  1
訂    正    内    容  
210
0.0
220
0.0
230
0.9999999999999999
 73
     1
 44
1.0
  0
MTEXT
  5
9E
100
AcDbEntity
  8
256
390
0
 62
     8
100
AcDbMText
 10
442.125015
 20
14.244792
 30
0.0
 40
1.75
 41
1.590909
 71
     8
 72
     1
  1
6  
210
0.0
220
0.0
230
1.0
 73
     1
 44
1.0
  0
MTEXT
  5
9F
100
AcDbEntity
  8
256
390
0
 62
     8
100
AcDbMText
 10
534.177286
 20
380.877957
 30
0.0
 40
2.822222
 41
5.926666
 71
     8
 72
     1
  1
理  
210
0.0
220
0.0
230
1.0
 73
     1
 44
1.0
  0
MTEXT
  5
A0
100
AcDbEntity
  8
256
390
0
 62
     8
100
AcDbMText
 10
406.806703
 20
405.96947
 30
0.0
 40
3.386667
 41
14.870547
 71
     8
 72
     1
  1
記号  
210
0.0
220
0.0
230
0.9999999999999999
 73
     1
 44
1.0
  0
MTEXT
  5
A1
100
AcDbEntity
  8
256
390
0
 62
     8
100
AcDbMText
 10
424.875031
 20
35.244792
 30
0.0
 40
1.75
 41
6.586364
 71
     8
 72
     1
  1
0.05  
210
0.0
220
0.0
230
1.0
 73
     1
 44
1.0
  0
MTEXT
  5
A2
100
AcDbEntity
  8
256
390
0
 62
     8
100
AcDbMText
 10
430.625031
 20
14.244792
 30
0.0
 40
1.75
 41
4.263636
 71
     8
 72
     1
  1
1.2  
210
0.0
220
0.0
230
1.0
 73
     1
 44
1.0
  0
MTEXT
  5
A3
100
AcDbEntity
  8
256
390
0
 62
     8
100
AcDbMText
 10
436.375031
 20
17.744792
 30
0.0
 40
1.75
 41
1.622727
 71
     8
 72
     1
  1
2  
210
0.0
220
0.0
230
1.0
 73
     1
 44
1.0
  0
MTEXT
  5
A4
100
AcDbEntity
  8
256
390
0
 62
     8
100
AcDbMText
 10
430.625031
 20
17.744792
 30
0.0
 40
1.75
 41
4.565909
 71
     8
 72
     1
  1
0.8  
210
0.0
220
0.0
230
1.0
 73
     1
 44
1.0
  0
MTEXT
  5
A5
100
AcDbEntity
  8
256
390
0
 62
     8
100
AcDbMText
 10
424.875031
 20
24.744792
 30
0.0
 40
1.75
 41
6.586364
 71
     8
 72
     1
  1
0.15  
210
0.0
220
0.0
230
1.0
 73
     1
 44
1.0
  0
MTEXT
  5
A6
100
AcDbEntity
  8
256
390
0
 62
     8
100
AcDbMText
 10
534.177286
 20
395.46895
 30
0.0
 40
3.386667
 41
7.050425
 71
     8
 72
     1
  1
処  
210
0.0
220
0.0
230
0.9999999999999999
 73
     1
 44
1.0
  0
MTEXT
  5
A7
100
AcDbEntity
  8
256
390
0
 62
     8
100
AcDbMText
 10
430.625031
 20
28.244792
 30
0.0
 40
1.75
 41
4.55
 71
     8
 72
     1
  1
0.2  
210
0.0
220
0.0
230
1.0
 73
     1
 44
1.0
  0
MTEXT
  5
A8
100
AcDbEntity
  8
256
390
0
 62
     8
100
AcDbMText
 10
425.101029
 20
41.030456
 30
0.0
 40
1.7952
 41
8.04576
 71
     8
 72
     1
  1
精級  
210
0.0
220
0.0
230
1.0
 73
     1
 44
1.0
  0
MTEXT
  5
A9
100
AcDbEntity
  8
256
390
0
 62
     8
100
AcDbMText
 10
442.125015
 20
24.744792
 30
0.0
 40
1.75
 41
4.263636
 71
     8
 72
     1
  1
1.5  
210
0.0
220
0.0
230
1.0
 73
     1
 44
1.0
  0
MTEXT
  5
AA
100
AcDbEntity
  8
256
390
0
 62
     8
100
AcDbMText
 10
517.694288
 20
29.847145
 30
0.0
 40
2.54
 41
22.998545
 71
     8
 72
     1
  1
部品番号  
210
0.0
220
0.0
230
1.0
 73
     1
 44
1.0
  0
MTEXT
  5
AB
100
AcDbEntity
  8
256
390
0
 62
     8
100
AcDbMText
 10
424.875031
 20
17.744792
 30
0.0
 40
1.75
 41
4.55
 71
     8
 72
     1
  1
0.3  
210
0.0
220
0.0
230
1.0
 73
     1
 44
1.0
  0
MTEXT
  5
AC
100
AcDbEntity
  8
256
390
0
 62
     8
100
AcDbMText
 10
442.592298
 20
38.990211
 30
0.0
 40
2.0
 41
7.581818
 71
     8
 72
     1
  1
v %%p  
210
0.0
220
0.0
230
1.0
 73
     1
 44
1.0
  0
MTEXT
  5
AD
100
AcDbEntity
  8
256
390
0
 62
     8
100
AcDbMText
 10
430.625031
 20
21.244792
 30
0.0
 40
1.75
 41
4.55
 71
     8
 72
     1
  1
0.5  
210
0.0
220
0.0
230
1.0
 73
     1
 44
1.0
  0
MTEXT
  5
AE
100
AcDbEntity
  8
256
390
0
 62
     8
100
AcDbMText
 10
436.375031
 20
28.244792
 30
0.0
 40
1.75
 41
4.55
 71
     8
 72
     1
  1
0.5  
210
0.0
220
0.0
230
1.0
 73
     1
 44
1.0
  0
MTEXT
  5
AF
100
AcDbEntity
  8
256
390
0
 62
     8
100
AcDbMText
 10
424.875031
 20
28.244792
 30
0.0
 40
1.75
 41
3.993182
 71
     8
 72
     1
  1
0.1  
210
0.0
220
0.0
230
1.0
 73
     1
 44
1.0
  0
MTEXT
  5
B0
100
AcDbEntity
  8
256
390
0
 62
     8
100
AcDbMText
 10
442.125015
 20
21.244792
 30
0.0
 40
1.75
 41
4.486364
 71
     8
 72
     1
  1
2.5  
210
0.0
220
0.0
230
1.0
 73
     1
 44
1.0
  0
MTEXT
  5
B1
100
AcDbEntity
  8
256
390
0
 62
     8
100
AcDbMText
 10
502.321841
 20
19.597628
 30
0.0
 40
3.386667
 41
22.536729
 71
     8
 72
     1
  1
三角法  
210
0.0
220
0.0
230
0.9999999999999999
 73
     1
 44
1.0
  0
MTEXT
  5
B2
100
AcDbEntity
  8
256
390
0
 62
     8
100
AcDbMText
 10
420.444454
 20
35.244792
 30
0.0
 40
1.75
 41
29.543182
 71
     9
 72
     1
  1
 0.5を超え   3以下  
210
0.0
220
0.0
230
1.0
 73
     1
 44
1.0
  0
INSERT
  5
B7
100
AcDbEntity
  8
256
390
0
100
AcDbBlockReference
  2
AID278
 10
0.0
 20
0.0
 30
0.0
  0
LINE
  5
B9
100
AcDbEntity
  8
1
390
0
  6
Continuous
 62
     7
100
AcDbLine
 10
177.207416
 20
222.733206
 30
0.0
 11
76.207416
 21
222.733206
 31
0.0
  0
ARC
  5
BA
100
AcDbEntity
  8
1
390
0
  6
Continuous
 62
     7
100
AcDbCircle
 10
78.707416
 20
226.233206
 30
0.0
 40
0.5
210
0.0
220
0.0
230
1.0
100
AcDbArc
 50
180.0
 51
270.0
  0
LINE
  5
BB
100
AcDbEntity
  8
1
390
0
  6
Continuous
 62
     7
100
AcDbLine
 10
174.707416
 20
225.733206
 30
0.0
 11
78.707416
 21
225.733206
 31
0.0
  0
ARC
  5
BC
100
AcDbEntity
  8
1
390
0
  6
Continuous
 62
     7
100
AcDbCircle
 10
174.707416
 20
226.233206
 30
0.0
 40
0.5
210
0.0
220
0.0
230
1.0
100
AcDbArc
 50
270.0
 51
360.0
  0
ARC
  5
BD
100
AcDbEntity
  8
1
390
0
  6
Continuous
 62
     7
100
AcDbCircle
 10
174.707416
 20
297.233206
 30
0.0
 40
0.5
210
0.0
220
0.0
230
1.0
100
AcDbArc
 50
0.0
 51
90.0
  0
LINE
  5
BE
100
AcDbEntity
  8
1
390
0
  6
Continuous
 62
     7
100
AcDbLine
 10
78.707416
 20
297.733206
 30
0.0
 11
174.707416
 21
297.733206
 31
0.0
  0
ARC
  5
BF
100
AcDbEntity
  8
1
390
0
  6
Continuous
 62
     7
100
AcDbCircle
 10
78.707416
 20
297.233206
 30
0.0
 40
0.5
210
0.0
220
0.0
230
1.0
100
AcDbArc
 50
90.0
 51
180.0
  0
LINE
  5
C0
100
AcDbEntity
  8
1
390
0
  6
Continuous
 62
     7
100
AcDbLine
 10
78.207416
 20
226.233206
 30
0.0
 11
78.207416
 21
297.233206
 31
0.0
  0
LINE
  5
C1
100
AcDbEntity
  8
1
390
0
  6
Continuous
 62
     7
100
AcDbLine
 10
175.207416
 20
297.233206
 30
0.0
 11
175.207416
 21
226.233206
 31
0.0
  0
LINE
  5
C2
100
AcDbEntity
  8
1
390
0
  6
Continuous
 62
     7
100
AcDbLine
 10
76.207416
 20
300.733206
 30
0.0
 11
177.207416
 21
300.733206
 31
0.0
  0
LINE
  5
C3
100
AcDbEntity
  8
1
390
0
  6
Continuous
 62
     7
100
AcDbLine
 10
178.207416
 20
299.733206
 30
0.0
 11
178.207416
 21
223.733206
 31
0.0
  0
LINE
  5
C4
100
AcDbEntity
  8
1
390
0
  6
Continuous
 62
     7
100
AcDbLine
 10
75.207416
 20
223.733206
 30
0.0
 11
75.207416
 21
299.733206
 31
0.0
  0
ARC
  5
C5
100
AcDbEntity
  8
1
390
0
  6
Continuous
 62
     7
100
AcDbCircle
 10
76.207416
 20
299.733206
 30
0.0
 40
1.0
210
0.0
220
0.0
230
1.0
100
AcDbArc
 50
90.0
 51
180.0
  0
ARC
  5
C6
100
AcDbEntity
  8
1
390
0
  6
Continuous
 62
     7
100
AcDbCircle
 10
177.207416
 20
299.733206
 30
0.0
 40
1.0
210
0.0
220
0.0
230
1.0
100
AcDbArc
 50
0.0
 51
90.0
  0
ARC
  5
C7
100
AcDbEntity
  8
1
390
0
  6
Continuous
 62
     7
100
AcDbCircle
 10
177.207416
 20
223.733206
 30
0.0
 40
1.0
210
0.0
220
0.0
230
1.0
100
AcDbArc
 50
270.0
 51
360.0
  0
ARC
  5
C8
100
AcDbEntity
  8
1
390
0
  6
Continuous
 62
     7
100
AcDbCircle
 10
76.207416
 20
223.733206
 30
0.0
 40
1.0
210
0.0
220
0.0
230
1.0
100
AcDbArc
 50
180.0
 51
270.0
  0
CIRCLE
  5
C9
100
AcDbEntity
  8
1
390
0
  6
Continuous
 62
     7
100
AcDbCircle
 10
85.707169
 20
233.297667
 30
0.0
 40
3.5
210
0.0
220
0.0
230
1.0
  0
LINE
  5
CB
100
AcDbEntity
  8
1
390
0
  6
DOT
 62
     9
100
AcDbLine
 10
76.707379
 20
299.733206
 30
0.0
 11
176.707454
 21
299.733206
 31
0.0
  0
LINE
  5
CC
100
AcDbEntity
  8
1
390
0
  6
DOT
 62
     9
100
AcDbLine
 10
176.707454
 20
223.733206
 30
0.0
 11
76.707379
 21
223.733206
 31
0.0
  0
LINE
  5
CD
100
AcDbEntity
  8
1
390
0
  6
DOT
 62
     9
100
AcDbLine
 10
177.207416
 20
299.233243
 30
0.0
 11
177.207416
 21
224.233169
 31
0.0
  0
ELLIPSE
  5
CE
100
AcDbEntity
  8
1
390
0
  6
DOT
 62
     9
100
AcDbEllipse
 10
76.707454
 20
299.233169
 30
0.0
 11
-0.3536061641819244
 21
0.3536061641819521
 31
0.0
210
0.0
220
0.0
230
1.0
 40
0.999851
 41
5.4978617713371278
 42
7.0685088430220455
  0
ELLIPSE
  5
CF
100
AcDbEntity
  8
1
390
0
  6
DOT
 62
     9
100
AcDbEllipse
 10
176.707379
 20
299.233169
 30
0.0
 11
0.3536061641819244
 21
0.3536061641819521
 31
0.0
210
0.0
220
0.0
230
1.0
 40
0.999851
 41
5.4978617713371278
 42
7.0685088430220597
  0
ELLIPSE
  5
D0
100
AcDbEntity
  8
1
390
0
  6
DOT
 62
     9
100
AcDbEllipse
 10
176.707379
 20
224.233243
 30
0.0
 11
0.3536061641819244
 21
-0.3536061641819244
 31
0.0
210
0.0
220
0.0
230
1.0
 40
0.999851
 41
5.4978617713371012
 42
7.068508843022018
  0
LINE
  5
D1
100
AcDbEntity
  8
1
390
0
  6
DOT
 62
     9
100
AcDbLine
 10
76.207416
 20
224.233169
 30
0.0
 11
76.207416
 21
299.233243
 31
0.0
  0
ELLIPSE
  5
D2
100
AcDbEntity
  8
1
390
0
  6
DOT
 62
     9
100
AcDbEllipse
 10
76.707454
 20
224.233243
 30
0.0
 11
-0.3536061641819244
 21
-0.3536061641819244
 31
0.0
210
0.0
220
0.0
230
0.9999999999999999
 40
0.999851
 41
5.4978617713371429
 42
7.0685088430220455
  0
LINE
  5
D3
100
AcDbEntity
  8
1
390
0
  6
Continuous
 62
     7
100
AcDbLine
 10
77.707416
 20
221.733206
 30
0.0
 11
77.707416
 21
222.733206
 31
0.0
  0
LINE
  5
D4
100
AcDbEntity
  8
1
390
0
  6
DOT
 62
     9
100
AcDbLine
 10
77.707416
 20
222.733206
 30
0.0
 11
77.707416
 21
223.733206
 31
0.0
  0
LINE
  5
D5
100
AcDbEntity
  8
1
390
0
  6
DOT
 62
     9
100
AcDbLine
 10
175.707416
 20
223.733206
 30
0.0
 11
175.707416
 21
222.733206
 31
0.0
  0
LINE
  5
D6
100
AcDbEntity
  8
1
390
0
  6
Continuous
 62
     7
100
AcDbLine
 10
175.707416
 20
222.733206
 30
0.0
 11
175.707416
 21
221.733206
 31
0.0
  0
LINE
  5
D7
100
AcDbEntity
  8
1
390
0
  6
Continuous
 62
     7
100
AcDbLine
 10
175.707416
 20
202.733206
 30
0.0
 11
77.707416
 21
202.733206
 31
0.0
  0
LINE
  5
D8
100
AcDbEntity
  8
1
390
0
  6
Continuous
 62
     7
100
AcDbLine
 10
77.707416
 20
202.733206
 30
0.0
 11
77.707416
 21
204.733206
 31
0.0
  0
LINE
  5
D9
100
AcDbEntity
  8
1
390
0
  6
Continuous
 62
     7
100
AcDbLine
 10
175.707416
 20
204.733206
 30
0.0
 11
175.707416
 21
202.733206
 31
0.0
  0
LINE
  5
DA
100
AcDbEntity
  8
1
390
0
  6
Continuous
 62
     7
100
AcDbLine
 10
77.707416
 20
221.733206
 30
0.0
 11
77.707416
 21
204.733206
 31
0.0
  0
LINE
  5
DB
100
AcDbEntity
  8
1
390
0
  6
Continuous
 62
     7
100
AcDbLine
 10
175.707416
 20
204.733206
 30
0.0
 11
175.707416
 21
221.733206
 31
0.0
  0
LINE
  5
DC
100
AcDbEntity
  8
1
390
0
  6
Continuous
 62
     7
100
AcDbLine
 10
93.707416
 20
199.233206
 30
0.0
 11
101.707416
 21
199.233206
 31
0.0
  0
LINE
  5
DD
100
AcDbEntity
  8
1
390
0
  6
Continuous
 62
     7
100
AcDbLine
 10
101.707416
 20
199.233206
 30
0.0
 11
109.707416
 21
199.233206
 31
0.0
  0
LINE
  5
DE
100
AcDbEntity
  8
1
390
0
  6
Continuous
 62
     7
100
AcDbLine
 10
118.707416
 20
199.233206
 30
0.0
 11
126.707416
 21
199.233206
 31
0.0
  0
LINE
  5
DF
100
AcDbEntity
  8
1
390
0
  6
Continuous
 62
     7
100
AcDbLine
 10
126.707416
 20
199.233206
 30
0.0
 11
134.707416
 21
199.233206
 31
0.0
  0
LINE
  5
E0
100
AcDbEntity
  8
1
390
0
  6
Continuous
 62
     7
100
AcDbLine
 10
143.707416
 20
199.233206
 30
0.0
 11
151.707416
 21
199.233206
 31
0.0
  0
LINE
  5
E1
100
AcDbEntity
  8
1
390
0
  6
Continuous
 62
     7
100
AcDbLine
 10
151.707416
 20
199.233206
 30
0.0
 11
159.707416
 21
199.233206
 31
0.0
  0
ELLIPSE
  5
E2
100
AcDbEntity
  8
1
390
0
  6
DOT
 62
     9
100
AcDbEllipse
 10
76.951812
 20
224.477602
 30
0.0
 11
-0.3536061641819244
 21
-0.3536061641819244
 31
0.0
210
0.0
220
0.0
230
0.9999999999999999
 40
0.999851
 41
5.4978617713371012
 42
7.0685088430220597
  0
LINE
  5
E3
100
AcDbEntity
  8
1
390
0
  6
DOT
 62
     9
100
AcDbLine
 10
76.451775
 20
224.477527
 30
0.0
 11
76.451775
 21
298.988885
 31
0.0
  0
ELLIPSE
  5
E4
100
AcDbEntity
  8
1
390
0
  6
DOT
 62
     9
100
AcDbEllipse
 10
176.463021
 20
224.477602
 30
0.0
 11
0.3536061641819244
 21
-0.3536061641819244
 31
0.0
210
0.0
220
0.0
230
1.0
 40
0.999851
 41
5.4978617713371278
 42
7.0685088430220597
  0
ELLIPSE
  5
E5
100
AcDbEntity
  8
1
390
0
  6
DOT
 62
     9
100
AcDbEllipse
 10
176.463021
 20
298.988811
 30
0.0
 11
0.3536061641819244
 21
0.3536061641819521
 31
0.0
210
0.0
220
0.0
230
1.0
 40
0.999851
 41
5.4978617713371136
 42
7.0685088430220597
  0
ELLIPSE
  5
E6
100
AcDbEntity
  8
1
390
0
  6
DOT
 62
     9
100
AcDbEllipse
 10
76.951812
 20
298.988811
 30
0.0
 11
-0.3536061641819244
 21
0.3536061641819521
 31
0.0
210
0.0
220
0.0
230
1.0
 40
0.999851
 41
5.4978617713371136
 42
7.0685088430220597
  0
LINE
  5
E7
100
AcDbEntity
  8
1
390
0
  6
DOT
 62
     9
100
AcDbLine
 10
176.963058
 20
225.033206
 30
0.0
 11
176.963058
 21
224.477527
 31
0.0
  0
LINE
  5
E8
100
AcDbEntity
  8
1
390
0
  6
DOT
 62
     9
100
AcDbLine
 10
176.963058
 20
298.988885
 30
0.0
 11
176.963058
 21
298.433206
 31
0.0
  0
LINE
  5
E9
100
AcDbEntity
  8
1
390
0
  6
DOT
 62
     9
100
AcDbLine
 10
176.463095
 20
223.977564
 30
0.0
 11
76.951737
 21
223.977564
 31
0.0
  0
LINE
  5
EA
100
AcDbEntity
  8
1
390
0
  6
DOT
 62
     9
100
AcDbLine
 10
76.951737
 20
299.488848
 30
0.0
 11
176.463095
 21
299.488848
 31
0.0
  0
LINE
  5
EB
100
AcDbEntity
  8
1
390
0
  6
DOT
 62
     9
100
AcDbLine
 10
77.807416
 20
225.033206
 30
0.0
 11
77.807416
 21
298.433206
 31
0.0
  0
LINE
  5
EC
100
AcDbEntity
  8
1
390
0
  6
DOT
 62
     9
100
AcDbLine
 10
77.807416
 20
298.433206
 30
0.0
 11
176.963058
 21
298.433206
 31
0.0
  0
LINE
  5
ED
100
AcDbEntity
  8
1
390
0
  6
DOT
 62
     9
100
AcDbLine
 10
176.963058
 20
225.033206
 30
0.0
 11
77.807416
 21
225.033206
 31
0.0
  0
POLYLINE
  5
EE
100
AcDbEntity
  8
1
390
0
  6
DOT
 62
     9
100
AcDb2dPolyline
 66
     1
 10
0.0
 20
0.0
 30
0.0
 40
3.0
 41
3.0
  0
VERTEX
  5
EF
100
AcDbEntity
  8
1
390
0
 62
     9
100
AcDbVertex
100
AcDb2dVertex
 10
176.448765
 20
223.991934
 30
0.0
  0
VERTEX
  5
F0
100
AcDbEntity
  8
1
390
0
 62
     9
100
AcDbVertex
100
AcDb2dVertex
 10
176.472869
 20
223.992964
 30
0.0
  0
VERTEX
  5
F1
100
AcDbEntity
  8
1
390
0
 62
     9
100
AcDbVertex
100
AcDb2dVertex
 10
176.496916
 20
223.995196
 30
0.0
  0
VERTEX
  5
F2
100
AcDbEntity
  8
1
390
0
 62
     9
100
AcDbVertex
100
AcDb2dVertex
 10
176.520845
 20
223.998624
 30
0.0
  0
VERTEX
  5
F3
100
AcDbEntity
  8
1
390
0
 62
     9
100
AcDbVertex
100
AcDb2dVertex
 10
176.544601
 20
224.003241
 30
0.0
  0
VERTEX
  5
F4
100
AcDbEntity
  8
1
390
0
 62
     9
100
AcDbVertex
100
AcDb2dVertex
 10
176.568126
 20
224.009035
 30
0.0
  0
VERTEX
  5
F5
100
AcDbEntity
  8
1
390
0
 62
     9
100
AcDbVertex
100
AcDb2dVertex
 10
176.591363
 20
224.015991
 30
0.0
  0
VERTEX
  5
F6
100
AcDbEntity
  8
1
390
0
 62
     9
100
AcDbVertex
100
AcDb2dVertex
 10
176.614256
 20
224.024094
 30
0.0
  0
VERTEX
  5
F7
100
AcDbEntity
  8
1
390
0
 62
     9
100
AcDbVertex
100
AcDb2dVertex
 10
176.63675
 20
224.033324
 30
0.0
  0
VERTEX
  5
F8
100
AcDbEntity
  8
1
390
0
 62
     9
100
AcDbVertex
100
AcDb2dVertex
 10
176.658791
 20
224.043659
 30
0.0
  0
VERTEX
  5
F9
100
AcDbEntity
  8
1
390
0
 62
     9
100
AcDbVertex
100
AcDb2dVertex
 10
176.680326
 20
224.055073
 30
0.0
  0
VERTEX
  5
FA
100
AcDbEntity
  8
1
390
0
 62
     9
100
AcDbVertex
100
AcDb2dVertex
 10
176.701303
 20
224.067539
 30
0.0
  0
VERTEX
  5
FB
100
AcDbEntity
  8
1
390
0
 62
     9
100
AcDbVertex
100
AcDb2dVertex
 10
176.721672
 20
224.081027
 30
0.0
  0
VERTEX
  5
FC
100
AcDbEntity
  8
1
390
0
 62
     9
100
AcDbVertex
100
AcDb2dVertex
 10
176.741383
 20
224.095506
 30
0.0
  0
VERTEX
  5
FD
100
AcDbEntity
  8
1
390
0
 62
     9
100
AcDbVertex
100
AcDb2dVertex
 10
176.760389
 20
224.110939
 30
0.0
  0
VERTEX
  5
FE
100
AcDbEntity
  8
1
390
0
 62
     9
100
AcDbVertex
100
AcDb2dVertex
 10
176.778644
 20
224.127289
 30
0.0
  0
VERTEX
  5
FF
100
AcDbEntity
  8
1
390
0
 62
     9
100
AcDbVertex
100
AcDb2dVertex
 10
176.796104
 20
224.144518
 30
0.0
  0
VERTEX
  5
100
100
AcDbEntity
  8
1
390
0
 62
     9
100
AcDbVertex
100
AcDb2dVertex
 10
176.812728
 20
224.162584
 30
0.0
  0
VERTEX
  5
101
100
AcDbEntity
  8
1
390
0
 62
     9
100
AcDbVertex
100
AcDb2dVertex
 10
176.828474
 20
224.181443
 30
0.0
  0
VERTEX
  5
102
100
AcDbEntity
  8
1
390
0
 62
     9
100
AcDbVertex
100
AcDb2dVertex
 10
176.843306
 20
224.20105
 30
0.0
  0
VERTEX
  5
103
100
AcDbEntity
  8
1
390
0
 62
     9
100
AcDbVertex
100
AcDb2dVertex
 10
176.857188
 20
224.221358
 30
0.0
  0
VERTEX
  5
104
100
AcDbEntity
  8
1
390
0
 62
     9
100
AcDbVertex
100
AcDb2dVertex
 10
176.870086
 20
224.242317
 30
0.0
  0
VERTEX
  5
105
100
AcDbEntity
  8
1
390
0
 62
     9
100
AcDbVertex
100
AcDb2dVertex
 10
176.881968
 20
224.263878
 30
0.0
  0
VERTEX
  5
106
100
AcDbEntity
  8
1
390
0
 62
     9
100
AcDbVertex
100
AcDb2dVertex
 10
176.892807
 20
224.285988
 30
0.0
  0
VERTEX
  5
107
100
AcDbEntity
  8
1
390
0
 62
     9
100
AcDbVertex
100
AcDb2dVertex
 10
176.902577
 20
224.308594
 30
0.0
  0
VERTEX
  5
108
100
AcDbEntity
  8
1
390
0
 62
     9
100
AcDbVertex
100
AcDb2dVertex
 10
176.911253
 20
224.331642
 30
0.0
  0
VERTEX
  5
109
100
AcDbEntity
  8
1
390
0
 62
     9
100
AcDbVertex
100
AcDb2dVertex
 10
176.918815
 20
224.355076
 30
0.0
  0
VERTEX
  5
10A
100
AcDbEntity
  8
1
390
0
 62
     9
100
AcDbVertex
100
AcDb2dVertex
 10
176.925245
 20
224.37884
 30
0.0
  0
VERTEX
  5
10B
100
AcDbEntity
  8
1
390
0
 62
     9
100
AcDbVertex
100
AcDb2dVertex
 10
176.930526
 20
224.402876
 30
0.0
  0
VERTEX
  5
10C
100
AcDbEntity
  8
1
390
0
 62
     9
100
AcDbVertex
100
AcDb2dVertex
 10
176.934648
 20
224.427127
 30
0.0
  0
VERTEX
  5
10D
100
AcDbEntity
  8
1
390
0
 62
     9
100
AcDbVertex
100
AcDb2dVertex
 10
176.937599
 20
224.451535
 30
0.0
  0
VERTEX
  5
10E
100
AcDbEntity
  8
1
390
0
 62
     9
100
AcDbVertex
100
AcDb2dVertex
 10
176.939372
 20
224.476039
 30
0.0
  0
VERTEX
  5
10F
100
AcDbEntity
  8
1
390
0
 62
     9
100
AcDbVertex
100
AcDb2dVertex
 10
176.939964
 20
224.500582
 30
0.0
  0
SEQEND
  5
110
100
AcDbEntity
  8
0
390
0
  0
LINE
  5
111
100
AcDbEntity
  8
1
390
0
  6
DOT
 62
     9
100
AcDbLine
 10
176.448765
 20
223.991934
 30
0.0
 11
175.957416
 21
223.983206
 31
0.0
  0
LINE
  5
112
100
AcDbEntity
  8
1
390
0
  6
DOT
 62
     9
100
AcDbLine
 10
175.957416
 20
223.983206
 30
0.0
 11
175.957416
 21
225.033206
 31
0.0
  0
LINE
  5
113
100
AcDbEntity
  8
1
390
0
  6
DOT
 62
     9
100
AcDbLine
 10
175.957416
 20
225.033206
 30
0.0
 11
175.957416
 21
298.433206
 31
0.0
  0
LINE
  5
114
100
AcDbEntity
  8
1
390
0
  6
DOT
 62
     9
100
AcDbLine
 10
175.957416
 20
298.433206
 30
0.0
 11
175.957416
 21
299.483206
 31
0.0
  0
POLYLINE
  5
115
100
AcDbEntity
  8
1
390
0
  6
DOT
 62
     9
100
AcDb2dPolyline
 66
     1
 10
0.0
 20
0.0
 30
0.0
 40
3.0
 41
3.0
  0
VERTEX
  5
116
100
AcDbEntity
  8
1
390
0
 62
     9
100
AcDbVertex
100
AcDb2dVertex
 10
176.939964
 20
298.96583
 30
0.0
  0
VERTEX
  5
117
100
AcDbEntity
  8
1
390
0
 62
     9
100
AcDbVertex
100
AcDb2dVertex
 10
176.939372
 20
298.990373
 30
0.0
  0
VERTEX
  5
118
100
AcDbEntity
  8
1
390
0
 62
     9
100
AcDbVertex
100
AcDb2dVertex
 10
176.937599
 20
299.014878
 30
0.0
  0
VERTEX
  5
119
100
AcDbEntity
  8
1
390
0
 62
     9
100
AcDbVertex
100
AcDb2dVertex
 10
176.934648
 20
299.039285
 30
0.0
  0
VERTEX
  5
11A
100
AcDbEntity
  8
1
390
0
 62
     9
100
AcDbVertex
100
AcDb2dVertex
 10
176.930526
 20
299.063536
 30
0.0
  0
VERTEX
  5
11B
100
AcDbEntity
  8
1
390
0
 62
     9
100
AcDbVertex
100
AcDb2dVertex
 10
176.925245
 20
299.087572
 30
0.0
  0
VERTEX
  5
11C
100
AcDbEntity
  8
1
390
0
 62
     9
100
AcDbVertex
100
AcDb2dVertex
 10
176.918815
 20
299.111336
 30
0.0
  0
VERTEX
  5
11D
100
AcDbEntity
  8
1
390
0
 62
     9
100
AcDbVertex
100
AcDb2dVertex
 10
176.911253
 20
299.13477
 30
0.0
  0
VERTEX
  5
11E
100
AcDbEntity
  8
1
390
0
 62
     9
100
AcDbVertex
100
AcDb2dVertex
 10
176.902577
 20
299.157818
 30
0.0
  0
VERTEX
  5
11F
100
AcDbEntity
  8
1
390
0
 62
     9
100
AcDbVertex
100
AcDb2dVertex
 10
176.892807
 20
299.180424
 30
0.0
  0
VERTEX
  5
120
100
AcDbEntity
  8
1
390
0
 62
     9
100
AcDbVertex
100
AcDb2dVertex
 10
176.881968
 20
299.202534
 30
0.0
  0
VERTEX
  5
121
100
AcDbEntity
  8
1
390
0
 62
     9
100
AcDbVertex
100
AcDb2dVertex
 10
176.870086
 20
299.224095
 30
0.0
  0
VERTEX
  5
122
100
AcDbEntity
  8
1
390
0
 62
     9
100
AcDbVertex
100
AcDb2dVertex
 10
176.857188
 20
299.245054
 30
0.0
  0
VERTEX
  5
123
100
AcDbEntity
  8
1
390
0
 62
     9
100
AcDbVertex
100
AcDb2dVertex
 10
176.843306
 20
299.265362
 30
0.0
  0
VERTEX
  5
124
100
AcDbEntity
  8
1
390
0
 62
     9
100
AcDbVertex
100
AcDb2dVertex
 10
176.828474
 20
299.284969
 30
0.0
  0
VERTEX
  5
125
100
AcDbEntity
  8
1
390
0
 62
     9
100
AcDbVertex
100
AcDb2dVertex
 10
176.812728
 20
299.303828
 30
0.0
  0
VERTEX
  5
126
100
AcDbEntity
  8
1
390
0
 62
     9
100
AcDbVertex
100
AcDb2dVertex
 10
176.796104
 20
299.321894
 30
0.0
  0
VERTEX
  5
127
100
AcDbEntity
  8
1
390
0
 62
     9
100
AcDbVertex
100
AcDb2dVertex
 10
176.778644
 20
299.339123
 30
0.0
  0
VERTEX
  5
128
100
AcDbEntity
  8
1
390
0
 62
     9
100
AcDbVertex
100
AcDb2dVertex
 10
176.760389
 20
299.355474
 30
0.0
  0
VERTEX
  5
129
100
AcDbEntity
  8
1
390
0
 62
     9
100
AcDbVertex
100
AcDb2dVertex
 10
176.741383
 20
299.370907
 30
0.0
  0
VERTEX
  5
12A
100
AcDbEntity
  8
1
390
0
 62
     9
100
AcDbVertex
100
AcDb2dVertex
 10
176.721672
 20
299.385385
 30
0.0
  0
VERTEX
  5
12B
100
AcDbEntity
  8
1
390
0
 62
     9
100
AcDbVertex
100
AcDb2dVertex
 10
176.701303
 20
299.398873
 30
0.0
  0
VERTEX
  5
12C
100
AcDbEntity
  8
1
390
0
 62
     9
100
AcDbVertex
100
AcDb2dVertex
 10
176.680326
 20
299.41134
 30
0.0
  0
VERTEX
  5
12D
100
AcDbEntity
  8
1
390
0
 62
     9
100
AcDbVertex
100
AcDb2dVertex
 10
176.658791
 20
299.422754
 30
0.0
  0
VERTEX
  5
12E
100
AcDbEntity
  8
1
390
0
 62
     9
100
AcDbVertex
100
AcDb2dVertex
 10
176.63675
 20
299.433088
 30
0.0
  0
VERTEX
  5
12F
100
AcDbEntity
  8
1
390
0
 62
     9
100
AcDbVertex
100
AcDb2dVertex
 10
176.614256
 20
299.442318
 30
0.0
  0
VERTEX
  5
130
100
AcDbEntity
  8
1
390
0
 62
     9
100
AcDbVertex
100
AcDb2dVertex
 10
176.591363
 20
299.450421
 30
0.0
  0
VERTEX
  5
131
100
AcDbEntity
  8
1
390
0
 62
     9
100
AcDbVertex
100
AcDb2dVertex
 10
176.568126
 20
299.457378
 30
0.0
  0
VERTEX
  5
132
100
AcDbEntity
  8
1
390
0
 62
     9
100
AcDbVertex
100
AcDb2dVertex
 10
176.544601
 20
299.463171
 30
0.0
  0
VERTEX
  5
133
100
AcDbEntity
  8
1
390
0
 62
     9
100
AcDbVertex
100
AcDb2dVertex
 10
176.520845
 20
299.467788
 30
0.0
  0
VERTEX
  5
134
100
AcDbEntity
  8
1
390
0
 62
     9
100
AcDbVertex
100
AcDb2dVertex
 10
176.496916
 20
299.471216
 30
0.0
  0
VERTEX
  5
135
100
AcDbEntity
  8
1
390
0
 62
     9
100
AcDbVertex
100
AcDb2dVertex
 10
176.472869
 20
299.473448
 30
0.0
  0
VERTEX
  5
136
100
AcDbEntity
  8
1
390
0
 62
     9
100
AcDbVertex
100
AcDb2dVertex
 10
176.448765
 20
299.474479
 30
0.0
  0
SEQEND
  5
137
100
AcDbEntity
  8
0
390
0
  0
LINE
  5
138
100
AcDbEntity
  8
1
390
0
  6
DOT
 62
     9
100
AcDbLine
 10
176.939964
 20
298.96583
 30
0.0
 11
176.939964
 21
224.500582
 31
0.0
  0
LINE
  5
139
100
AcDbEntity
  8
1
390
0
  6
DOT
 62
     9
100
AcDbLine
 10
175.957416
 20
299.483206
 30
0.0
 11
176.448765
 21
299.474479
 31
0.0
  0
LINE
  5
13A
100
AcDbEntity
  8
1
390
0
  6
DOT
 62
     9
100
AcDbLine
 10
176.95084
 20
298.433206
 30
0.0
 11
176.95084
 21
225.033206
 31
0.0
  0
ELLIPSE
  5
13B
100
AcDbEntity
  8
1
390
0
  6
DOT
 62
     9
100
AcDbEllipse
 10
76.957492
 20
224.483282
 30
0.0
 11
-0.3536610945847896
 21
-0.3536610945847896
 31
0.0
210
0.0
220
0.0
230
1.0
 40
0.999695
 41
5.4979394370297019
 42
7.0684311773294581
  0
LINE
  5
13C
100
AcDbEntity
  8
1
390
0
  6
DOT
 62
     9
100
AcDbLine
 10
76.457416
 20
298.983282
 30
0.0
 11
76.457416
 21
224.48313
 31
0.0
  0
ELLIPSE
  5
13D
100
AcDbEntity
  8
1
390
0
  6
DOT
 62
     9
100
AcDbEllipse
 10
76.957492
 20
298.98313
 30
0.0
 11
-0.3536610945847896
 21
0.3536610945847896
 31
0.0
210
0.0
220
0.0
230
1.0
 40
0.999695
 41
5.4979394370297019
 42
7.0684311773294581
  0
LINE
  5
13E
100
AcDbEntity
  8
1
390
0
  6
DOT
 62
     9
100
AcDbLine
 10
76.95734
 20
223.983206
 30
0.0
 11
175.957416
 21
223.983206
 31
0.0
  0
LINE
  5
13F
100
AcDbEntity
  8
1
390
0
  6
DOT
 62
     9
100
AcDbLine
 10
175.957416
 20
299.483206
 30
0.0
 11
76.95734
 21
299.483206
 31
0.0
  0
LINE
  5
140
100
AcDbEntity
  8
1
390
0
  6
DOT
 62
     9
100
AcDbLine
 10
140.707416
 20
202.033206
 30
0.0
 11
148.707416
 21
202.033206
 31
0.0
  0
LINE
  5
141
100
AcDbEntity
  8
1
390
0
  6
DOT
 62
     9
100
AcDbLine
 10
148.407416
 20
201.733206
 30
0.0
 11
141.007416
 21
201.733206
 31
0.0
  0
LINE
  5
142
100
AcDbEntity
  8
1
390
0
  6
DOT
 62
     9
100
AcDbLine
 10
144.407416
 20
207.733206
 30
0.0
 11
145.007416
 21
207.733206
 31
0.0
  0
LINE
  5
143
100
AcDbEntity
  8
1
390
0
  6
DOT
 62
     9
100
AcDbLine
 10
145.007416
 20
207.733206
 30
0.0
 11
145.007416
 21
201.733206
 31
0.0
  0
LINE
  5
144
100
AcDbEntity
  8
1
390
0
  6
DOT
 62
     9
100
AcDbLine
 10
144.407416
 20
207.733206
 30
0.0
 11
144.407416
 21
201.733206
 31
0.0
  0
LINE
  5
145
100
AcDbEntity
  8
1
390
0
  6
DOT
 62
     9
100
AcDbLine
 10
147.207416
 20
207.733206
 30
0.0
 11
145.007416
 21
207.733206
 31
0.0
  0
LINE
  5
146
100
AcDbEntity
  8
1
390
0
  6
DOT
 62
     9
100
AcDbLine
 10
144.407416
 20
207.733206
 30
0.0
 11
142.207416
 21
207.733206
 31
0.0
  0
LINE
  5
147
100
AcDbEntity
  8
1
390
0
  6
DOT
 62
     9
100
AcDbLine
 10
143.207416
 20
202.933206
 30
0.0
 11
146.207416
 21
202.933206
 31
0.0
  0
LINE
  5
148
100
AcDbEntity
  8
1
390
0
  6
DOT
 62
     9
100
AcDbLine
 10
77.707416
 20
224.262487
 30
0.0
 11
175.707416
 21
224.262487
 31
0.0
  0
LINE
  5
149
100
AcDbEntity
  8
1
390
0
  6
DOT
 62
     9
100
AcDbLine
 10
77.707416
 20
224.262487
 30
0.0
 11
77.707416
 21
223.983206
 31
0.0
  0
LINE
  5
14A
100
AcDbEntity
  8
1
390
0
  6
DOT
 62
     9
100
AcDbLine
 10
77.707416
 20
223.983206
 30
0.0
 11
77.707416
 21
223.733206
 31
0.0
  0
LINE
  5
14B
100
AcDbEntity
  8
1
390
0
  6
DOT
 62
     9
100
AcDbLine
 10
175.707416
 20
223.733206
 30
0.0
 11
175.707416
 21
223.983206
 31
0.0
  0
LINE
  5
14C
100
AcDbEntity
  8
1
390
0
  6
DOT
 62
     9
100
AcDbLine
 10
175.707416
 20
223.983206
 30
0.0
 11
175.707416
 21
224.262487
 31
0.0
  0
LINE
  5
14D
100
AcDbEntity
  8
1
390
0
  6
DOT
 62
     9
100
AcDbLine
 10
175.707416
 20
298.733206
 30
0.0
 11
77.707416
 21
298.733206
 31
0.0
  0
LINE
  5
14E
100
AcDbEntity
  8
1
390
0
  6
DOT
 62
     9
100
AcDbLine
 10
176.678135
 20
224.762411
 30
0.0
 11
176.678135
 21
298.704001
 31
0.0
  0
ELLIPSE
  5
14F
100
AcDbEntity
  8
1
390
0
  6
DOT
 62
     9
100
AcDbEllipse
 10
176.178059
 20
224.762563
 30
0.0
 11
0.3536610945847896
 21
-0.3536610945847896
 31
0.0
210
0.0
220
0.0
230
1.0
 40
0.999695
 41
5.4979394370297294
 42
7.0684311773294706
  0
ELLIPSE
  5
150
100
AcDbEntity
  8
1
390
0
  6
DOT
 62
     9
100
AcDbEllipse
 10
176.178059
 20
298.703849
 30
0.0
 11
0.3536610945847896
 21
0.3536610945847896
 31
0.0
210
0.0
220
0.0
230
1.0
 40
0.999695
 41
5.4979394370297294
 42
7.0684311773294581
  0
ELLIPSE
  5
151
100
AcDbEntity
  8
1
390
0
  6
DOT
 62
     9
100
AcDbEllipse
 10
77.236774
 20
224.762563
 30
0.0
 11
-0.3536610945847896
 21
-0.3536610945847896
 31
0.0
210
0.0
220
0.0
230
1.0
 40
0.999695
 41
5.4979394370297294
 42
7.0684311773294288
  0
LINE
  5
152
100
AcDbEntity
  8
1
390
0
  6
DOT
 62
     9
100
AcDbLine
 10
76.736697
 20
298.704001
 30
0.0
 11
76.736697
 21
224.762411
 31
0.0
  0
ELLIPSE
  5
153
100
AcDbEntity
  8
1
390
0
  6
DOT
 62
     9
100
AcDbEllipse
 10
77.236774
 20
298.703849
 30
0.0
 11
-0.3536610945847896
 21
0.3536610945847896
 31
0.0
210
0.0
220
0.0
230
1.0
 40
0.999695
 41
5.4979394370297294
 42
7.0684311773294581
  0
LINE
  5
154
100
AcDbEntity
  8
1
390
0
  6
DOT
 62
     9
100
AcDbLine
 10
175.707416
 20
224.262487
 30
0.0
 11
176.178211
 21
224.262487
 31
0.0
  0
LINE
  5
155
100
AcDbEntity
  8
1
390
0
  6
DOT
 62
     9
100
AcDbLine
 10
77.236621
 20
224.262487
 30
0.0
 11
77.707416
 21
224.262487
 31
0.0
  0
LINE
  5
156
100
AcDbEntity
  8
1
390
0
  6
DOT
 62
     9
100
AcDbLine
 10
176.178211
 20
299.203925
 30
0.0
 11
77.236621
 21
299.203925
 31
0.0
  0
LINE
  5
157
100
AcDbEntity
  8
1
390
0
  6
DOT
 62
     9
100
AcDbLine
 10
77.707416
 20
298.733206
 30
0.0
 11
77.707416
 21
224.262487
 31
0.0
  0
LINE
  5
158
100
AcDbEntity
  8
1
390
0
  6
DOT
 62
     9
100
AcDbLine
 10
175.707416
 20
224.262487
 30
0.0
 11
175.707416
 21
298.733206
 31
0.0
  0
LINE
  5
159
100
AcDbEntity
  8
1
390
0
  6
Continuous
 62
     7
100
AcDbLine
 10
80.207416
 20
202.133206
 30
0.0
 11
90.207416
 21
202.133206
 31
0.0
  0
LINE
  5
15A
100
AcDbEntity
  8
1
390
0
  6
Continuous
 62
     7
100
AcDbLine
 10
88.457416
 20
201.133206
 30
0.0
 11
81.957416
 21
201.133206
 31
0.0
  0
LINE
  5
15B
100
AcDbEntity
  8
1
390
0
  6
Continuous
 62
     7
100
AcDbLine
 10
87.707416
 20
198.871957
 30
0.0
 11
87.592264
 21
198.871957
 31
0.0
  0
ARC
  5
15C
100
AcDbEntity
  8
1
390
0
  6
Continuous
 62
     7
100
AcDbCircle
 10
86.292444
 20
200.600255
 30
0.0
 40
2.162533
210
0.0
220
0.0
230
1.0
100
AcDbArc
 50
274.375145
 51
306.94612
  0
POLYLINE
  5
15D
100
AcDbEntity
  8
1
390
0
  6
Continuous
 62
     7
100
AcDb2dPolyline
 66
     1
 10
0.0
 20
0.0
 30
0.0
 40
3.0
 41
3.0
  0
VERTEX
  5
15E
100
AcDbEntity
  8
1
390
0
 62
     7
100
AcDbVertex
100
AcDb2dVertex
 10
86.457416
 20
198.444024
 30
0.0
 42
-0.02298
  0
VERTEX
  5
15F
100
AcDbEntity
  8
1
390
0
 62
     7
100
AcDbVertex
100
AcDb2dVertex
 10
86.001548
 20
198.434173
 30
0.0
  0
VERTEX
  5
160
100
AcDbEntity
  8
1
390
0
 62
     7
100
AcDbVertex
100
AcDb2dVertex
 10
85.957416
 20
198.444024
 30
0.0
  0
SEQEND
  5
161
100
AcDbEntity
  8
0
390
0
  0
LINE
  5
162
100
AcDbEntity
  8
1
390
0
  6
Continuous
 62
     7
100
AcDbLine
 10
85.957416
 20
198.444024
 30
0.0
 11
85.957416
 21
198.871957
 31
0.0
  0
LINE
  5
163
100
AcDbEntity
  8
1
390
0
  6
Continuous
 62
     7
100
AcDbLine
 10
85.957416
 20
198.871957
 30
0.0
 11
84.457416
 21
198.871957
 31
0.0
  0
LINE
  5
164
100
AcDbEntity
  8
1
390
0
  6
Continuous
 62
     7
100
AcDbLine
 10
84.457416
 20
198.871957
 30
0.0
 11
84.457416
 21
198.444024
 31
0.0
  0
ARC
  5
165
100
AcDbEntity
  8
1
390
0
  6
Continuous
 62
     7
100
AcDbCircle
 10
84.207416
 20
201.307965
 30
0.0
 40
2.874831
210
0.0
220
0.0
230
0.9999999999999999
100
AcDbArc
 50
265.011164
 51
274.988836
  0
ARC
  5
166
100
AcDbEntity
  8
1
390
0
  6
Continuous
 62
     7
100
AcDbCircle
 10
84.132555
 20
200.627215
 30
0.0
 40
2.190205
210
0.0
220
0.0
230
1.0
100
AcDbArc
 50
233.265251
 51
265.413484
  0
LINE
  5
167
100
AcDbEntity
  8
1
390
0
  6
Continuous
 62
     7
100
AcDbLine
 10
82.822568
 20
198.871957
 30
0.0
 11
82.707416
 21
198.871957
 31
0.0
  0
LINE
  5
168
100
AcDbEntity
  8
1
390
0
  6
DOT
 62
     9
100
AcDbLine
 10
84.457416
 20
200.133206
 30
0.0
 11
85.957416
 21
200.133206
 31
0.0
  0
LINE
  5
169
100
AcDbEntity
  8
1
390
0
  6
DOT
 62
     9
100
AcDbLine
 10
84.457416
 20
198.871957
 30
0.0
 11
84.457416
 21
200.133206
 31
0.0
  0
LINE
  5
16A
100
AcDbEntity
  8
1
390
0
  6
DOT
 62
     9
100
AcDbLine
 10
85.957416
 20
198.871957
 30
0.0
 11
85.957416
 21
200.133206
 31
0.0
  0
LINE
  5
16B
100
AcDbEntity
  8
1
390
0
  6
DOT
 62
     9
100
AcDbLine
 10
86.457416
 20
200.133206
 30
0.0
 11
85.957416
 21
200.133206
 31
0.0
  0
LINE
  5
16C
100
AcDbEntity
  8
1
390
0
  6
DOT
 62
     9
100
AcDbLine
 10
84.457416
 20
200.133206
 30
0.0
 11
83.957416
 21
200.133206
 31
0.0
  0
LINE
  5
16D
100
AcDbEntity
  8
1
390
0
  6
DOT
 62
     9
100
AcDbLine
 10
86.457416
 20
200.133206
 30
0.0
 11
87.592264
 21
200.133206
 31
0.0
  0
LINE
  5
16E
100
AcDbEntity
  8
1
390
0
  6
DOT
 62
     9
100
AcDbLine
 10
82.707416
 20
200.133206
 30
0.0
 11
82.822568
 21
200.133206
 31
0.0
  0
LINE
  5
16F
100
AcDbEntity
  8
1
390
0
  6
DOT
 62
     9
100
AcDbLine
 10
82.822568
 20
198.871957
 30
0.0
 11
82.822568
 21
200.133206
 31
0.0
  0
LINE
  5
170
100
AcDbEntity
  8
1
390
0
  6
DOT
 62
     9
100
AcDbLine
 10
82.822568
 20
198.871957
 30
0.0
 11
82.822568
 21
200.133206
 31
0.0
  0
LINE
  5
171
100
AcDbEntity
  8
1
390
0
  6
DOT
 62
     9
100
AcDbLine
 10
87.592264
 20
198.871957
 30
0.0
 11
87.592264
 21
200.133206
 31
0.0
  0
LINE
  5
172
100
AcDbEntity
  8
1
390
0
  6
DOT
 62
     9
100
AcDbLine
 10
87.592264
 20
200.133206
 30
0.0
 11
87.707416
 21
200.133206
 31
0.0
  0
LINE
  5
173
100
AcDbEntity
  8
1
390
0
  6
DOT
 62
     9
100
AcDbLine
 10
82.822568
 20
200.133206
 30
0.0
 11
83.957416
 21
200.133206
 31
0.0
  0
CIRCLE
  5
174
100
AcDbEntity
  8
1
390
0
  6
DOT
 62
     9
100
AcDbCircle
 10
126.707416
 20
230.733206
 30
0.0
 40
2.0
210
0.0
220
0.0
230
1.0
  0
CIRCLE
  5
175
100
AcDbEntity
  8
1
390
0
  6
DOT
 62
     9
100
AcDbCircle
 10
159.707416
 20
280.733206
 30
0.0
 40
2.0
210
0.0
220
0.0
230
1.0
  0
CIRCLE
  5
176
100
AcDbEntity
  8
1
390
0
  6
DOT
 62
     9
100
AcDbCircle
 10
93.707416
 20
280.733206
 30
0.0
 40
2.0
210
0.0
220
0.0
230
1.0
  0
CIRCLE
  5
177
100
AcDbEntity
  8
1
390
0
  6
DOT
 62
     9
100
AcDbCircle
 10
144.207416
 20
254.033206
 30
0.0
 40
1.5
210
0.0
220
0.0
230
1.0
  0
CIRCLE
  5
178
100
AcDbEntity
  8
1
390
0
  6
DOT
 62
     9
100
AcDbCircle
 10
109.207416
 20
207.233206
 30
0.0
 40
1.5
210
0.0
220
0.0
230
1.0
  0
CIRCLE
  5
179
100
AcDbEntity
  8
1
390
0
  6
DOT
 62
     9
100
AcDbCircle
 10
109.207416
 20
230.533206
 30
0.0
 40
1.5
210
0.0
220
0.0
230
1.0
  0
CIRCLE
  5
17A
100
AcDbEntity
  8
1
390
0
  6
DOT
 62
     9
100
AcDbCircle
 10
109.207416
 20
254.033206
 30
0.0
 40
1.5
210
0.0
220
0.0
230
1.0
  0
CIRCLE
  5
17B
100
AcDbEntity
  8
1
390
0
  6
DOT
 62
     9
100
AcDbCircle
 10
144.207416
 20
207.233206
 30
0.0
 40
1.5
210
0.0
220
0.0
230
1.0
  0
CIRCLE
  5
17C
100
AcDbEntity
  8
1
390
0
  6
DOT
 62
     9
100
AcDbCircle
 10
144.207416
 20
230.533206
 30
0.0
 40
1.5
210
0.0
220
0.0
230
1.0
  0
LINE
  5
17D
100
AcDbEntity
  8
1
390
0
  6
DOT
 62
     9
100
AcDbLine
 10
77.707416
 20
202.733206
 30
0.0
 11
79.707416
 21
204.733206
 31
0.0
  0
LINE
  5
17E
100
AcDbEntity
  8
1
390
0
  6
DOT
 62
     9
100
AcDbLine
 10
79.707416
 20
296.733206
 30
0.0
 11
77.707416
 21
298.733206
 31
0.0
  0
LINE
  5
17F
100
AcDbEntity
  8
1
390
0
  6
DOT
 62
     9
100
AcDbLine
 10
173.707416
 20
296.733206
 30
0.0
 11
175.707416
 21
298.733206
 31
0.0
  0
LINE
  5
180
100
AcDbEntity
  8
1
390
0
  6
DOT
 62
     9
100
AcDbLine
 10
175.707416
 20
202.733206
 30
0.0
 11
173.707416
 21
204.733206
 31
0.0
  0
ARC
  5
181
100
AcDbEntity
  8
1
390
0
  6
DOT
 62
     9
100
AcDbCircle
 10
109.207416
 20
254.033206
 30
0.0
 40
1.5
210
0.0
220
0.0
230
1.0
100
AcDbArc
 50
180.0
 51
360.0
  0
ARC
  5
182
100
AcDbEntity
  8
1
390
0
  6
DOT
 62
     9
100
AcDbCircle
 10
109.207416
 20
207.233206
 30
0.0
 40
1.5
210
0.0
220
0.0
230
1.0
100
AcDbArc
 50
180.0
 51
360.0
  0
ARC
  5
183
100
AcDbEntity
  8
1
390
0
  6
DOT
 62
     9
100
AcDbCircle
 10
144.207416
 20
207.233206
 30
0.0
 40
1.5
210
0.0
220
0.0
230
1.0
100
AcDbArc
 50
180.0
 51
360.0
  0
ARC
  5
184
100
AcDbEntity
  8
1
390
0
  6
DOT
 62
     9
100
AcDbCircle
 10
93.707416
 20
280.733206
 30
0.0
 40
2.0
210
0.0
220
0.0
230
1.0
100
AcDbArc
 50
180.0
 51
360.0
  0
ARC
  5
185
100
AcDbEntity
  8
1
390
0
  6
DOT
 62
     9
100
AcDbCircle
 10
159.707416
 20
280.733206
 30
0.0
 40
2.0
210
0.0
220
0.0
230
1.0
100
AcDbArc
 50
180.0
 51
360.0
  0
ARC
  5
186
100
AcDbEntity
  8
1
390
0
  6
Continuous
 62
     7
100
AcDbCircle
 10
93.707416
 20
202.733206
 30
0.0
 40
3.5
210
0.0
220
0.0
230
1.0
100
AcDbArc
 50
180.0
 51
270.0
  0
ARC
  5
187
100
AcDbEntity
  8
1
390
0
  6
Continuous
 62
     7
100
AcDbCircle
 10
109.707416
 20
202.733206
 30
0.0
 40
3.5
210
0.0
220
0.0
230
1.0
100
AcDbArc
 50
270.0
 51
360.0
  0
ARC
  5
188
100
AcDbEntity
  8
1
390
0
  6
Continuous
 62
     7
100
AcDbCircle
 10
118.707416
 20
202.733206
 30
0.0
 40
3.5
210
0.0
220
0.0
230
1.0
100
AcDbArc
 50
180.0
 51
270.0
  0
ARC
  5
189
100
AcDbEntity
  8
1
390
0
  6
Continuous
 62
     7
100
AcDbCircle
 10
134.707416
 20
202.733206
 30
0.0
 40
3.5
210
0.0
220
0.0
230
1.0
100
AcDbArc
 50
270.0
 51
360.0
  0
ARC
  5
18A
100
AcDbEntity
  8
1
390
0
  6
Continuous
 62
     7
100
AcDbCircle
 10
143.707416
 20
202.733206
 30
0.0
 40
3.5
210
0.0
220
0.0
230
1.0
100
AcDbArc
 50
180.0
 51
270.0
  0
ARC
  5
18B
100
AcDbEntity
  8
1
390
0
  6
Continuous
 62
     7
100
AcDbCircle
 10
159.707416
 20
202.733206
 30
0.0
 40
3.5
210
0.0
220
0.0
230
1.0
100
AcDbArc
 50
270.0
 51
360.0
  0
LINE
  5
18C
100
AcDbEntity
  8
1
390
0
  6
Continuous
 62
     7
100
AcDbLine
 10
95.207416
 20
199.233206
 30
0.0
 11
95.207416
 21
198.733206
 31
0.0
  0
LINE
  5
18D
100
AcDbEntity
  8
1
390
0
  6
Continuous
 62
     7
100
AcDbLine
 10
108.207416
 20
198.733206
 30
0.0
 11
108.207416
 21
199.233206
 31
0.0
  0
LINE
  5
18E
100
AcDbEntity
  8
1
390
0
  6
Continuous
 62
     7
100
AcDbLine
 10
145.207416
 20
199.233206
 30
0.0
 11
145.207416
 21
198.733206
 31
0.0
  0
LINE
  5
18F
100
AcDbEntity
  8
1
390
0
  6
Continuous
 62
     7
100
AcDbLine
 10
158.207416
 20
198.733206
 30
0.0
 11
158.207416
 21
199.233206
 31
0.0
  0
LINE
  5
190
100
AcDbEntity
  8
1
390
0
  6
Continuous
 62
     7
100
AcDbLine
 10
120.207416
 20
199.233206
 30
0.0
 11
120.207416
 21
198.733206
 31
0.0
  0
LINE
  5
191
100
AcDbEntity
  8
1
390
0
  6
Continuous
 62
     7
100
AcDbLine
 10
133.207416
 20
198.733206
 30
0.0
 11
133.207416
 21
199.233206
 31
0.0
  0
ARC
  5
192
100
AcDbEntity
  8
1
390
0
  6
Continuous
 62
     7
100
AcDbCircle
 10
95.707416
 20
198.733206
 30
0.0
 40
0.5
210
0.0
220
0.0
230
1.0
100
AcDbArc
 50
180.0
 51
270.0
  0
ARC
  5
193
100
AcDbEntity
  8
1
390
0
  6
DOT
 62
     9
100
AcDbCircle
 10
95.707416
 20
198.733206
 30
0.0
 40
0.5
210
0.0
220
0.0
230
1.0
100
AcDbArc
 50
270.0
 51
360.0
  0
ARC
  5
194
100
AcDbEntity
  8
1
390
0
  6
Continuous
 62
     7
100
AcDbCircle
 10
107.707416
 20
198.733206
 30
0.0
 40
0.5
210
0.0
220
0.0
230
1.0
100
AcDbArc
 50
270.0
 51
360.0
  0
ARC
  5
195
100
AcDbEntity
  8
1
390
0
  6
DOT
 62
     9
100
AcDbCircle
 10
107.707416
 20
198.733206
 30
0.0
 40
0.5
210
0.0
220
0.0
230
1.0
100
AcDbArc
 50
180.0
 51
270.0
  0
LINE
  5
196
100
AcDbEntity
  8
1
390
0
  6
Continuous
 62
     7
100
AcDbLine
 10
95.707416
 20
198.233206
 30
0.0
 11
107.707416
 21
198.233206
 31
0.0
  0
ARC
  5
197
100
AcDbEntity
  8
1
390
0
  6
Continuous
 62
     7
100
AcDbCircle
 10
120.707416
 20
198.733206
 30
0.0
 40
0.5
210
0.0
220
0.0
230
1.0
100
AcDbArc
 50
180.0
 51
270.0
  0
ARC
  5
198
100
AcDbEntity
  8
1
390
0
  6
DOT
 62
     9
100
AcDbCircle
 10
120.707416
 20
198.733206
 30
0.0
 40
0.5
210
0.0
220
0.0
230
1.0
100
AcDbArc
 50
270.0
 51
360.0
  0
ARC
  5
199
100
AcDbEntity
  8
1
390
0
  6
Continuous
 62
     7
100
AcDbCircle
 10
132.707416
 20
198.733206
 30
0.0
 40
0.5
210
0.0
220
0.0
230
1.0
100
AcDbArc
 50
270.0
 51
360.0
  0
ARC
  5
19A
100
AcDbEntity
  8
1
390
0
  6
DOT
 62
     9
100
AcDbCircle
 10
132.707416
 20
198.733206
 30
0.0
 40
0.5
210
0.0
220
0.0
230
1.0
100
AcDbArc
 50
180.0
 51
270.0
  0
LINE
  5
19B
100
AcDbEntity
  8
1
390
0
  6
Continuous
 62
     7
100
AcDbLine
 10
120.707416
 20
198.233206
 30
0.0
 11
132.707416
 21
198.233206
 31
0.0
  0
ARC
  5
19C
100
AcDbEntity
  8
1
390
0
  6
Continuous
 62
     7
100
AcDbCircle
 10
145.707416
 20
198.733206
 30
0.0
 40
0.5
210
0.0
220
0.0
230
1.0
100
AcDbArc
 50
180.0
 51
270.0
  0
ARC
  5
19D
100
AcDbEntity
  8
1
390
0
  6
DOT
 62
     9
100
AcDbCircle
 10
145.707416
 20
198.733206
 30
0.0
 40
0.5
210
0.0
220
0.0
230
1.0
100
AcDbArc
 50
270.0
 51
360.0
  0
ARC
  5
19E
100
AcDbEntity
  8
1
390
0
  6
Continuous
 62
     7
100
AcDbCircle
 10
157.707416
 20
198.733206
 30
0.0
 40
0.5
210
0.0
220
0.0
230
1.0
100
AcDbArc
 50
270.0
 51
360.0
  0
ARC
  5
19F
100
AcDbEntity
  8
1
390
0
  6
DOT
 62
     9
100
AcDbCircle
 10
157.707416
 20
198.733206
 30
0.0
 40
0.5
210
0.0
220
0.0
230
1.0
100
AcDbArc
 50
180.0
 51
270.0
  0
LINE
  5
1A0
100
AcDbEntity
  8
1
390
0
  6
Continuous
 62
     7
100
AcDbLine
 10
145.707416
 20
198.233206
 30
0.0
 11
157.707416
 21
198.233206
 31
0.0
  0
LINE
  5
1A1
100
AcDbEntity
  8
1
390
0
  6
DOT
 62
     9
100
AcDbLine
 10
96.207416
 20
199.233206
 30
0.0
 11
96.207416
 21
198.733206
 31
0.0
  0
LINE
  5
1A2
100
AcDbEntity
  8
1
390
0
  6
DOT
 62
     9
100
AcDbLine
 10
107.207416
 20
198.733206
 30
0.0
 11
107.207416
 21
199.233206
 31
0.0
  0
LINE
  5
1A3
100
AcDbEntity
  8
1
390
0
  6
DOT
 62
     9
100
AcDbLine
 10
146.207416
 20
199.233206
 30
0.0
 11
146.207416
 21
198.733206
 31
0.0
  0
LINE
  5
1A4
100
AcDbEntity
  8
1
390
0
  6
DOT
 62
     9
100
AcDbLine
 10
157.207416
 20
198.733206
 30
0.0
 11
157.207416
 21
199.233206
 31
0.0
  0
LINE
  5
1A5
100
AcDbEntity
  8
1
390
0
  6
DOT
 62
     9
100
AcDbLine
 10
121.207416
 20
199.233206
 30
0.0
 11
121.207416
 21
198.733206
 31
0.0
  0
LINE
  5
1A6
100
AcDbEntity
  8
1
390
0
  6
DOT
 62
     9
100
AcDbLine
 10
132.207416
 20
198.733206
 30
0.0
 11
132.207416
 21
199.233206
 31
0.0
  0
LINE
  5
1A7
100
AcDbEntity
  8
1
390
0
  6
DOT
 62
     9
100
AcDbLine
 10
140.707416
 20
202.733206
 30
0.0
 11
140.707416
 21
202.033206
 31
0.0
  0
LINE
  5
1A8
100
AcDbEntity
  8
1
390
0
  6
DOT
 62
     9
100
AcDbLine
 10
148.707416
 20
202.033206
 30
0.0
 11
148.707416
 21
202.733206
 31
0.0
  0
LINE
  5
1A9
100
AcDbEntity
  8
1
390
0
  6
DOT
 62
     9
100
AcDbLine
 10
140.707416
 20
202.033206
 30
0.0
 11
141.007416
 21
201.733206
 31
0.0
  0
LINE
  5
1AA
100
AcDbEntity
  8
1
390
0
  6
DOT
 62
     9
100
AcDbLine
 10
148.407416
 20
201.733206
 30
0.0
 11
148.707416
 21
202.033206
 31
0.0
  0
LINE
  5
1AB
100
AcDbEntity
  8
1
390
0
  6
DOT
 62
     9
100
AcDbLine
 10
142.207416
 20
207.733206
 30
0.0
 11
142.207416
 21
201.733206
 31
0.0
  0
LINE
  5
1AC
100
AcDbEntity
  8
1
390
0
  6
DOT
 62
     9
100
AcDbLine
 10
147.207416
 20
201.733206
 30
0.0
 11
147.207416
 21
207.733206
 31
0.0
  0
LINE
  5
1AD
100
AcDbEntity
  8
1
390
0
  6
DOT
 62
     9
100
AcDbLine
 10
143.207416
 20
202.933206
 30
0.0
 11
143.407416
 21
202.733206
 31
0.0
  0
LINE
  5
1AE
100
AcDbEntity
  8
1
390
0
  6
DOT
 62
     9
100
AcDbLine
 10
146.007416
 20
202.733206
 30
0.0
 11
146.207416
 21
202.933206
 31
0.0
  0
LINE
  5
1AF
100
AcDbEntity
  8
1
390
0
  6
DOT
 62
     9
100
AcDbLine
 10
146.207416
 20
202.933206
 30
0.0
 11
146.207416
 21
207.733206
 31
0.0
  0
LINE
  5
1B0
100
AcDbEntity
  8
1
390
0
  6
DOT
 62
     9
100
AcDbLine
 10
143.207416
 20
207.733206
 30
0.0
 11
143.207416
 21
202.933206
 31
0.0
  0
LINE
  5
1B1
100
AcDbEntity
  8
1
390
0
  6
DOT
 62
     9
100
AcDbLine
 10
145.700237
 20
202.733206
 30
0.0
 11
145.700237
 21
207.733206
 31
0.0
  0
LINE
  5
1B2
100
AcDbEntity
  8
1
390
0
  6
DOT
 62
     9
100
AcDbLine
 10
145.100237
 20
207.733206
 30
0.0
 11
145.100237
 21
202.733206
 31
0.0
  0
LINE
  5
1B3
100
AcDbEntity
  8
1
390
0
  6
DOT
 62
     9
100
AcDbLine
 10
144.314596
 20
202.733206
 30
0.0
 11
144.314596
 21
207.733206
 31
0.0
  0
LINE
  5
1B4
100
AcDbEntity
  8
1
390
0
  6
DOT
 62
     9
100
AcDbLine
 10
143.714596
 20
207.733206
 30
0.0
 11
143.714596
 21
202.733206
 31
0.0
  0
LINE
  5
1B5
100
AcDbEntity
  8
1
390
0
  6
Continuous
 62
     7
100
AcDbLine
 10
90.207416
 20
202.133206
 30
0.0
 11
90.207416
 21
202.733206
 31
0.0
  0
LINE
  5
1B6
100
AcDbEntity
  8
1
390
0
  6
Continuous
 62
     7
100
AcDbLine
 10
80.207416
 20
202.733206
 30
0.0
 11
80.207416
 21
202.133206
 31
0.0
  0
LINE
  5
1B7
100
AcDbEntity
  8
1
390
0
  6
Continuous
 62
     7
100
AcDbLine
 10
88.457416
 20
200.433206
 30
0.0
 11
88.457416
 21
201.133206
 31
0.0
  0
LINE
  5
1B8
100
AcDbEntity
  8
1
390
0
  6
Continuous
 62
     7
100
AcDbLine
 10
81.957416
 20
201.133206
 30
0.0
 11
81.957416
 21
200.433206
 31
0.0
  0
ARC
  5
1B9
100
AcDbEntity
  8
1
390
0
  6
Continuous
 62
     7
100
AcDbCircle
 10
86.457416
 20
200.433206
 30
0.0
 40
2.0
210
0.0
220
0.0
230
1.0
100
AcDbArc
 50
308.682187
 51
360.0
  0
ARC
  5
1BA
100
AcDbEntity
  8
1
390
0
  6
Continuous
 62
     7
100
AcDbCircle
 10
83.957416
 20
200.433206
 30
0.0
 40
2.0
210
0.0
220
0.0
230
1.0
100
AcDbArc
 50
180.0
 51
231.317813
  0
LINE
  5
1BB
100
AcDbEntity
  8
1
390
0
  6
Continuous
 62
     7
100
AcDbLine
 10
88.207416
 20
201.133206
 30
0.0
 11
88.207416
 21
202.133206
 31
0.0
  0
LINE
  5
1BC
100
AcDbEntity
  8
1
390
0
  6
Continuous
 62
     7
100
AcDbLine
 10
82.207416
 20
202.133206
 30
0.0
 11
82.207416
 21
201.133206
 31
0.0
  0
LINE
  5
1BD
100
AcDbEntity
  8
1
390
0
  6
DOT
 62
     9
100
AcDbLine
 10
82.707416
 20
200.133206
 30
0.0
 11
82.707416
 21
198.871957
 31
0.0
  0
LINE
  5
1BE
100
AcDbEntity
  8
1
390
0
  6
DOT
 62
     9
100
AcDbLine
 10
87.707416
 20
198.871957
 30
0.0
 11
87.707416
 21
200.133206
 31
0.0
  0
LINE
  5
1BF
100
AcDbEntity
  8
1
390
0
  6
Continuous
 62
     7
100
AcDbLine
 10
269.084397
 20
300.733206
 30
0.0
 11
269.084397
 21
299.733206
 31
0.0
  0
LINE
  5
1C0
100
AcDbEntity
  8
1
390
0
  6
Continuous
 62
     7
100
AcDbLine
 10
269.084397
 20
300.733206
 30
0.0
 11
266.084397
 21
300.733206
 31
0.0
  0
LINE
  5
1C1
100
AcDbEntity
  8
1
390
0
  6
Continuous
 62
     7
100
AcDbLine
 10
269.084397
 20
222.733206
 30
0.0
 11
266.084397
 21
222.733206
 31
0.0
  0
LINE
  5
1C2
100
AcDbEntity
  8
1
390
0
  6
Continuous
 62
     7
100
AcDbLine
 10
269.084397
 20
223.733206
 30
0.0
 11
269.084397
 21
222.733206
 31
0.0
  0
LINE
  5
1C3
100
AcDbEntity
  8
1
390
0
  6
Continuous
 62
     7
100
AcDbLine
 10
264.084397
 20
224.733206
 30
0.0
 11
264.084397
 21
298.733206
 31
0.0
  0
ARC
  5
1C4
100
AcDbEntity
  8
1
390
0
  6
Continuous
 62
     7
100
AcDbCircle
 10
266.084397
 20
224.733206
 30
0.0
 40
2.0
210
0.0
220
0.0
230
1.0
100
AcDbArc
 50
180.0
 51
270.0
  0
LINE
  5
1C5
100
AcDbEntity
  8
1
390
0
  6
Continuous
 62
     7
100
AcDbLine
 10
269.084397
 20
299.733206
 30
0.0
 11
269.084397
 21
223.733206
 31
0.0
  0
ARC
  5
1C6
100
AcDbEntity
  8
1
390
0
  6
DOT
 62
     9
100
AcDbCircle
 10
266.084397
 20
298.733206
 30
0.0
 40
2.0
210
0.0
220
0.0
230
1.0
100
AcDbArc
 50
90.0
 51
180.0
  0
LINE
  5
1C7
100
AcDbEntity
  8
1
390
0
  6
Continuous
 62
     7
100
AcDbLine
 10
269.084397
 20
299.733206
 30
0.0
 11
289.084397
 21
299.488848
 31
0.0
  0
LINE
  5
1C8
100
AcDbEntity
  8
1
390
0
  6
Continuous
 62
     7
100
AcDbLine
 10
289.084397
 20
299.488848
 30
0.0
 11
289.084397
 21
298.988885
 31
0.0
  0
LINE
  5
1C9
100
AcDbEntity
  8
1
390
0
  6
Continuous
 62
     7
100
AcDbLine
 10
290.084397
 20
298.433206
 30
0.0
 11
289.084397
 21
298.433206
 31
0.0
  0
LINE
  5
1CA
100
AcDbEntity
  8
1
390
0
  6
Continuous
 62
     7
100
AcDbLine
 10
290.084397
 20
298.433206
 30
0.0
 11
290.084397
 21
225.033206
 31
0.0
  0
LINE
  5
1CB
100
AcDbEntity
  8
1
390
0
  6
Continuous
 62
     7
100
AcDbLine
 10
290.084397
 20
225.033206
 30
0.0
 11
289.084397
 21
225.033206
 31
0.0
  0
LINE
  5
1CC
100
AcDbEntity
  8
1
390
0
  6
Continuous
 62
     7
100
AcDbLine
 10
289.084397
 20
225.033206
 30
0.0
 11
289.084397
 21
224.477527
 31
0.0
  0
LINE
  5
1CD
100
AcDbEntity
  8
1
390
0
  6
Continuous
 62
     7
100
AcDbLine
 10
289.084397
 20
298.988885
 30
0.0
 11
289.084397
 21
298.433206
 31
0.0
  0
LINE
  5
1CE
100
AcDbEntity
  8
1
390
0
  6
Continuous
 62
     7
100
AcDbLine
 10
289.084397
 20
223.977564
 30
0.0
 11
269.084397
 21
223.733206
 31
0.0
  0
LINE
  5
1CF
100
AcDbEntity
  8
1
390
0
  6
Continuous
 62
     7
100
AcDbLine
 10
289.084397
 20
224.477527
 30
0.0
 11
289.084397
 21
223.977564
 31
0.0
  0
POLYLINE
  5
1D0
100
AcDbEntity
  8
1
390
0
  6
Continuous
 62
     7
100
AcDb2dPolyline
 66
     1
 10
0.0
 20
0.0
 30
0.0
 40
3.0
 41
3.0
  0
VERTEX
  5
1D1
100
AcDbEntity
  8
1
390
0
 62
     7
100
AcDbVertex
100
AcDb2dVertex
 10
291.084245
 20
298.96583
 30
0.0
  0
VERTEX
  5
1D2
100
AcDbEntity
  8
1
390
0
 62
     7
100
AcDbVertex
100
AcDb2dVertex
 10
291.083643
 20
298.990373
 30
0.0
  0
VERTEX
  5
1D3
100
AcDbEntity
  8
1
390
0
 62
     7
100
AcDbVertex
100
AcDb2dVertex
 10
291.081838
 20
299.014878
 30
0.0
  0
VERTEX
  5
1D4
100
AcDbEntity
  8
1
390
0
 62
     7
100
AcDbVertex
100
AcDb2dVertex
 10
291.078835
 20
299.039285
 30
0.0
  0
VERTEX
  5
1D5
100
AcDbEntity
  8
1
390
0
 62
     7
100
AcDbVertex
100
AcDb2dVertex
 10
291.074641
 20
299.063536
 30
0.0
  0
VERTEX
  5
1D6
100
AcDbEntity
  8
1
390
0
 62
     7
100
AcDbVertex
100
AcDb2dVertex
 10
291.069266
 20
299.087572
 30
0.0
  0
VERTEX
  5
1D7
100
AcDbEntity
  8
1
390
0
 62
     7
100
AcDbVertex
100
AcDb2dVertex
 10
291.062723
 20
299.111336
 30
0.0
  0
VERTEX
  5
1D8
100
AcDbEntity
  8
1
390
0
 62
     7
100
AcDbVertex
100
AcDb2dVertex
 10
291.055028
 20
299.13477
 30
0.0
  0
VERTEX
  5
1D9
100
AcDbEntity
  8
1
390
0
 62
     7
100
AcDbVertex
100
AcDb2dVertex
 10
291.046199
 20
299.157818
 30
0.0
  0
VERTEX
  5
1DA
100
AcDbEntity
  8
1
390
0
 62
     7
100
AcDbVertex
100
AcDb2dVertex
 10
291.036258
 20
299.180424
 30
0.0
  0
VERTEX
  5
1DB
100
AcDbEntity
  8
1
390
0
 62
     7
100
AcDbVertex
100
AcDb2dVertex
 10
291.025228
 20
299.202534
 30
0.0
  0
VERTEX
  5
1DC
100
AcDbEntity
  8
1
390
0
 62
     7
100
AcDbVertex
100
AcDb2dVertex
 10
291.013136
 20
299.224095
 30
0.0
  0
VERTEX
  5
1DD
100
AcDbEntity
  8
1
390
0
 62
     7
100
AcDbVertex
100
AcDb2dVertex
 10
291.000011
 20
299.245054
 30
0.0
  0
VERTEX
  5
1DE
100
AcDbEntity
  8
1
390
0
 62
     7
100
AcDbVertex
100
AcDb2dVertex
 10
290.985885
 20
299.265362
 30
0.0
  0
VERTEX
  5
1DF
100
AcDbEntity
  8
1
390
0
 62
     7
100
AcDbVertex
100
AcDb2dVertex
 10
290.970792
 20
299.284969
 30
0.0
  0
VERTEX
  5
1E0
100
AcDbEntity
  8
1
390
0
 62
     7
100
AcDbVertex
100
AcDb2dVertex
 10
290.954768
 20
299.303828
 30
0.0
  0
VERTEX
  5
1E1
100
AcDbEntity
  8
1
390
0
 62
     7
100
AcDbVertex
100
AcDb2dVertex
 10
290.937852
 20
299.321894
 30
0.0
  0
VERTEX
  5
1E2
100
AcDbEntity
  8
1
390
0
 62
     7
100
AcDbVertex
100
AcDb2dVertex
 10
290.920084
 20
299.339123
 30
0.0
  0
VERTEX
  5
1E3
100
AcDbEntity
  8
1
390
0
 62
     7
100
AcDbVertex
100
AcDb2dVertex
 10
290.901508
 20
299.355474
 30
0.0
  0
VERTEX
  5
1E4
100
AcDbEntity
  8
1
390
0
 62
     7
100
AcDbVertex
100
AcDb2dVertex
 10
290.882167
 20
299.370907
 30
0.0
  0
VERTEX
  5
1E5
100
AcDbEntity
  8
1
390
0
 62
     7
100
AcDbVertex
100
AcDb2dVertex
 10
290.862109
 20
299.385385
 30
0.0
  0
VERTEX
  5
1E6
100
AcDbEntity
  8
1
390
0
 62
     7
100
AcDbVertex
100
AcDb2dVertex
 10
290.841382
 20
299.398873
 30
0.0
  0
VERTEX
  5
1E7
100
AcDbEntity
  8
1
390
0
 62
     7
100
AcDbVertex
100
AcDb2dVertex
 10
290.820035
 20
299.41134
 30
0.0
  0
VERTEX
  5
1E8
100
AcDbEntity
  8
1
390
0
 62
     7
100
AcDbVertex
100
AcDb2dVertex
 10
290.798121
 20
299.422754
 30
0.0
  0
VERTEX
  5
1E9
100
AcDbEntity
  8
1
390
0
 62
     7
100
AcDbVertex
100
AcDb2dVertex
 10
290.775692
 20
299.433088
 30
0.0
  0
VERTEX
  5
1EA
100
AcDbEntity
  8
1
390
0
 62
     7
100
AcDbVertex
100
AcDb2dVertex
 10
290.752802
 20
299.442318
 30
0.0
  0
VERTEX
  5
1EB
100
AcDbEntity
  8
1
390
0
 62
     7
100
AcDbVertex
100
AcDb2dVertex
 10
290.729505
 20
299.450421
 30
0.0
  0
VERTEX
  5
1EC
100
AcDbEntity
  8
1
390
0
 62
     7
100
AcDbVertex
100
AcDb2dVertex
 10
290.705859
 20
299.457378
 30
0.0
  0
VERTEX
  5
1ED
100
AcDbEntity
  8
1
390
0
 62
     7
100
AcDbVertex
100
AcDb2dVertex
 10
290.681921
 20
299.463171
 30
0.0
  0
VERTEX
  5
1EE
100
AcDbEntity
  8
1
390
0
 62
     7
100
AcDbVertex
100
AcDb2dVertex
 10
290.657746
 20
299.467788
 30
0.0
  0
VERTEX
  5
1EF
100
AcDbEntity
  8
1
390
0
 62
     7
100
AcDbVertex
100
AcDb2dVertex
 10
290.633395
 20
299.471216
 30
0.0
  0
VERTEX
  5
1F0
100
AcDbEntity
  8
1
390
0
 62
     7
100
AcDbVertex
100
AcDb2dVertex
 10
290.608926
 20
299.473448
 30
0.0
  0
VERTEX
  5
1F1
100
AcDbEntity
  8
1
390
0
 62
     7
100
AcDbVertex
100
AcDb2dVertex
 10
290.584397
 20
299.474479
 30
0.0
  0
SEQEND
  5
1F2
100
AcDbEntity
  8
0
390
0
  0
LINE
  5
1F3
100
AcDbEntity
  8
1
390
0
  6
Continuous
 62
     7
100
AcDbLine
 10
290.584397
 20
299.474479
 30
0.0
 11
306.084397
 21
299.203925
 31
0.0
  0
LINE
  5
1F4
100
AcDbEntity
  8
1
390
0
  6
Continuous
 62
     7
100
AcDbLine
 10
306.084397
 20
299.203925
 30
0.0
 11
306.084397
 21
298.704001
 31
0.0
  0
LINE
  5
1F5
100
AcDbEntity
  8
1
390
0
  6
Continuous
 62
     7
100
AcDbLine
 10
291.084245
 20
298.96583
 30
0.0
 11
291.084245
 21
224.500582
 31
0.0
  0
LINE
  5
1F6
100
AcDbEntity
  8
1
390
0
  6
Continuous
 62
     7
100
AcDbLine
 10
306.084397
 20
224.762411
 30
0.0
 11
306.084397
 21
298.704001
 31
0.0
  0
POLYLINE
  5
1F7
100
AcDbEntity
  8
1
390
0
  6
Continuous
 62
     7
100
AcDb2dPolyline
 66
     1
 10
0.0
 20
0.0
 30
0.0
 40
3.0
 41
3.0
  0
VERTEX
  5
1F8
100
AcDbEntity
  8
1
390
0
 62
     7
100
AcDbVertex
100
AcDb2dVertex
 10
290.584397
 20
223.991934
 30
0.0
  0
VERTEX
  5
1F9
100
AcDbEntity
  8
1
390
0
 62
     7
100
AcDbVertex
100
AcDb2dVertex
 10
290.608926
 20
223.992964
 30
0.0
  0
VERTEX
  5
1FA
100
AcDbEntity
  8
1
390
0
 62
     7
100
AcDbVertex
100
AcDb2dVertex
 10
290.633395
 20
223.995196
 30
0.0
  0
VERTEX
  5
1FB
100
AcDbEntity
  8
1
390
0
 62
     7
100
AcDbVertex
100
AcDb2dVertex
 10
290.657746
 20
223.998624
 30
0.0
  0
VERTEX
  5
1FC
100
AcDbEntity
  8
1
390
0
 62
     7
100
AcDbVertex
100
AcDb2dVertex
 10
290.681921
 20
224.003241
 30
0.0
  0
VERTEX
  5
1FD
100
AcDbEntity
  8
1
390
0
 62
     7
100
AcDbVertex
100
AcDb2dVertex
 10
290.705859
 20
224.009035
 30
0.0
  0
VERTEX
  5
1FE
100
AcDbEntity
  8
1
390
0
 62
     7
100
AcDbVertex
100
AcDb2dVertex
 10
290.729505
 20
224.015991
 30
0.0
  0
VERTEX
  5
1FF
100
AcDbEntity
  8
1
390
0
 62
     7
100
AcDbVertex
100
AcDb2dVertex
 10
290.752802
 20
224.024094
 30
0.0
  0
VERTEX
  5
200
100
AcDbEntity
  8
1
390
0
 62
     7
100
AcDbVertex
100
AcDb2dVertex
 10
290.775692
 20
224.033324
 30
0.0
  0
VERTEX
  5
201
100
AcDbEntity
  8
1
390
0
 62
     7
100
AcDbVertex
100
AcDb2dVertex
 10
290.798121
 20
224.043659
 30
0.0
  0
VERTEX
  5
202
100
AcDbEntity
  8
1
390
0
 62
     7
100
AcDbVertex
100
AcDb2dVertex
 10
290.820035
 20
224.055073
 30
0.0
  0
VERTEX
  5
203
100
AcDbEntity
  8
1
390
0
 62
     7
100
AcDbVertex
100
AcDb2dVertex
 10
290.841382
 20
224.067539
 30
0.0
  0
VERTEX
  5
204
100
AcDbEntity
  8
1
390
0
 62
     7
100
AcDbVertex
100
AcDb2dVertex
 10
290.862109
 20
224.081027
 30
0.0
  0
VERTEX
  5
205
100
AcDbEntity
  8
1
390
0
 62
     7
100
AcDbVertex
100
AcDb2dVertex
 10
290.882167
 20
224.095506
 30
0.0
  0
VERTEX
  5
206
100
AcDbEntity
  8
1
390
0
 62
     7
100
AcDbVertex
100
AcDb2dVertex
 10
290.901508
 20
224.110939
 30
0.0
  0
VERTEX
  5
207
100
AcDbEntity
  8
1
390
0
 62
     7
100
AcDbVertex
100
AcDb2dVertex
 10
290.920084
 20
224.127289
 30
0.0
  0
VERTEX
  5
208
100
AcDbEntity
  8
1
390
0
 62
     7
100
AcDbVertex
100
AcDb2dVertex
 10
290.937852
 20
224.144518
 30
0.0
  0
VERTEX
  5
209
100
AcDbEntity
  8
1
390
0
 62
     7
100
AcDbVertex
100
AcDb2dVertex
 10
290.954768
 20
224.162584
 30
0.0
  0
VERTEX
  5
20A
100
AcDbEntity
  8
1
390
0
 62
     7
100
AcDbVertex
100
AcDb2dVertex
 10
290.970792
 20
224.181443
 30
0.0
  0
VERTEX
  5
20B
100
AcDbEntity
  8
1
390
0
 62
     7
100
AcDbVertex
100
AcDb2dVertex
 10
290.985885
 20
224.20105
 30
0.0
  0
VERTEX
  5
20C
100
AcDbEntity
  8
1
390
0
 62
     7
100
AcDbVertex
100
AcDb2dVertex
 10
291.000011
 20
224.221358
 30
0.0
  0
VERTEX
  5
20D
100
AcDbEntity
  8
1
390
0
 62
     7
100
AcDbVertex
100
AcDb2dVertex
 10
291.013136
 20
224.242317
 30
0.0
  0
VERTEX
  5
20E
100
AcDbEntity
  8
1
390
0
 62
     7
100
AcDbVertex
100
AcDb2dVertex
 10
291.025228
 20
224.263878
 30
0.0
  0
VERTEX
  5
20F
100
AcDbEntity
  8
1
390
0
 62
     7
100
AcDbVertex
100
AcDb2dVertex
 10
291.036258
 20
224.285988
 30
0.0
  0
VERTEX
  5
210
100
AcDbEntity
  8
1
390
0
 62
     7
100
AcDbVertex
100
AcDb2dVertex
 10
291.046199
 20
224.308594
 30
0.0
  0
VERTEX
  5
211
100
AcDbEntity
  8
1
390
0
 62
     7
100
AcDbVertex
100
AcDb2dVertex
 10
291.055028
 20
224.331642
 30
0.0
  0
VERTEX
  5
212
100
AcDbEntity
  8
1
390
0
 62
     7
100
AcDbVertex
100
AcDb2dVertex
 10
291.062723
 20
224.355076
 30
0.0
  0
VERTEX
  5
213
100
AcDbEntity
  8
1
390
0
 62
     7
100
AcDbVertex
100
AcDb2dVertex
 10
291.069266
 20
224.37884
 30
0.0
  0
VERTEX
  5
214
100
AcDbEntity
  8
1
390
0
 62
     7
100
AcDbVertex
100
AcDb2dVertex
 10
291.074641
 20
224.402876
 30
0.0
  0
VERTEX
  5
215
100
AcDbEntity
  8
1
390
0
 62
     7
100
AcDbVertex
100
AcDb2dVertex
 10
291.078835
 20
224.427127
 30
0.0
  0
VERTEX
  5
216
100
AcDbEntity
  8
1
390
0
 62
     7
100
AcDbVertex
100
AcDb2dVertex
 10
291.081838
 20
224.451535
 30
0.0
  0
VERTEX
  5
217
100
AcDbEntity
  8
1
390
0
 62
     7
100
AcDbVertex
100
AcDb2dVertex
 10
291.083643
 20
224.476039
 30
0.0
  0
VERTEX
  5
218
100
AcDbEntity
  8
1
390
0
 62
     7
100
AcDbVertex
100
AcDb2dVertex
 10
291.084245
 20
224.500582
 30
0.0
  0
SEQEND
  5
219
100
AcDbEntity
  8
0
390
0
  0
LINE
  5
21A
100
AcDbEntity
  8
1
390
0
  6
Continuous
 62
     7
100
AcDbLine
 10
290.584397
 20
223.991934
 30
0.0
 11
290.084397
 21
223.983206
 31
0.0
  0
LINE
  5
21B
100
AcDbEntity
  8
1
390
0
  6
Continuous
 62
     7
100
AcDbLine
 10
290.084397
 20
223.983206
 30
0.0
 11
290.084397
 21
225.033206
 31
0.0
  0
LINE
  5
21C
100
AcDbEntity
  8
1
390
0
  6
Continuous
 62
     7
100
AcDbLine
 10
290.084397
 20
298.433206
 30
0.0
 11
290.084397
 21
299.483206
 31
0.0
  0
LINE
  5
21D
100
AcDbEntity
  8
1
390
0
  6
Continuous
 62
     7
100
AcDbLine
 10
290.084397
 20
299.483206
 30
0.0
 11
290.584397
 21
299.474479
 31
0.0
  0
LINE
  5
21E
100
AcDbEntity
  8
1
390
0
  6
Continuous
 62
     7
100
AcDbLine
 10
306.084397
 20
224.262487
 30
0.0
 11
290.584397
 21
223.991934
 31
0.0
  0
LINE
  5
21F
100
AcDbEntity
  8
1
390
0
  6
Continuous
 62
     7
100
AcDbLine
 10
306.084397
 20
224.762411
 30
0.0
 11
306.084397
 21
224.262487
 31
0.0
  0
ARC
  5
220
100
AcDbEntity
  8
1
390
0
  6
Continuous
 62
     7
100
AcDbCircle
 10
271.384397
 20
221.733206
 30
0.0
 40
2.0
210
0.0
220
0.0
230
1.0
100
AcDbArc
 50
90.0
 51
180.0
  0
LINE
  5
221
100
AcDbEntity
  8
1
390
0
  6
Continuous
 62
     7
100
AcDbLine
 10
306.084397
 20
223.733206
 30
0.0
 11
271.384397
 21
223.733206
 31
0.0
  0
LINE
  5
222
100
AcDbEntity
  8
1
390
0
  6
Continuous
 62
     7
100
AcDbLine
 10
306.084397
 20
223.733206
 30
0.0
 11
306.084397
 21
224.262487
 31
0.0
  0
LINE
  5
223
100
AcDbEntity
  8
1
390
0
  6
Continuous
 62
     7
100
AcDbLine
 10
321.084397
 20
298.733206
 30
0.0
 11
306.084397
 21
298.733206
 31
0.0
  0
LINE
  5
224
100
AcDbEntity
  8
1
390
0
  6
Continuous
 62
     7
100
AcDbLine
 10
321.084397
 20
202.733206
 30
0.0
 11
271.384397
 21
202.733206
 31
0.0
  0
ARC
  5
225
100
AcDbEntity
  8
1
390
0
  6
Continuous
 62
     7
100
AcDbCircle
 10
271.384397
 20
204.733206
 30
0.0
 40
2.0
210
0.0
220
0.0
230
1.0
100
AcDbArc
 50
180.0
 51
270.0
  0
LINE
  5
226
100
AcDbEntity
  8
1
390
0
  6
Continuous
 62
     7
100
AcDbLine
 10
269.384397
 20
204.733206
 30
0.0
 11
269.384397
 21
221.733206
 31
0.0
  0
ARC
  5
227
100
AcDbEntity
  8
1
390
0
  6
Continuous
 62
     7
100
AcDbCircle
 10
321.084397
 20
296.733206
 30
0.0
 40
2.0
210
0.0
220
0.0
230
1.0
100
AcDbArc
 50
0.0
 51
90.0
  0
LINE
  5
228
100
AcDbEntity
  8
1
390
0
  6
Continuous
 62
     7
100
AcDbLine
 10
323.084397
 20
296.733206
 30
0.0
 11
323.084397
 21
204.733206
 31
0.0
  0
ARC
  5
229
100
AcDbEntity
  8
1
390
0
  6
Continuous
 62
     7
100
AcDbCircle
 10
321.084397
 20
204.733206
 30
0.0
 40
2.0
210
0.0
220
0.0
230
1.0
100
AcDbArc
 50
270.0
 51
360.0
  0
LINE
  5
22A
100
AcDbEntity
  8
1
390
0
  6
DOT
 62
     9
100
AcDbLine
 10
264.384397
 20
297.233206
 30
0.0
 11
264.384397
 21
226.233206
 31
0.0
  0
LINE
  5
22B
100
AcDbEntity
  8
1
390
0
  6
DOT
 62
     9
100
AcDbLine
 10
264.084397
 20
297.733206
 30
0.0
 11
264.384397
 21
297.733206
 31
0.0
  0
LINE
  5
22C
100
AcDbEntity
  8
1
390
0
  6
DOT
 62
     9
100
AcDbLine
 10
264.384397
 20
297.733206
 30
0.0
 11
264.384397
 21
297.233206
 31
0.0
  0
LINE
  5
22D
100
AcDbEntity
  8
1
390
0
  6
DOT
 62
     9
100
AcDbLine
 10
264.084397
 20
225.733206
 30
0.0
 11
264.384397
 21
225.733206
 31
0.0
  0
LINE
  5
22E
100
AcDbEntity
  8
1
390
0
  6
DOT
 62
     9
100
AcDbLine
 10
264.384397
 20
226.233206
 30
0.0
 11
264.384397
 21
225.733206
 31
0.0
  0
LINE
  5
22F
100
AcDbEntity
  8
1
390
0
  6
Continuous
 62
     7
100
AcDbLine
 10
282.584397
 20
199.233206
 30
0.0
 11
298.584397
 21
199.233206
 31
0.0
  0
LINE
  5
230
100
AcDbEntity
  8
1
390
0
  6
DOT
 62
     9
100
AcDbLine
 10
319.084397
 20
282.733206
 30
0.0
 11
319.084397
 21
278.733206
 31
0.0
  0
LINE
  5
231
100
AcDbEntity
  8
1
390
0
  6
Continuous
 62
     7
100
AcDbLine
 10
302.584397
 20
202.033206
 30
0.0
 11
310.584397
 21
202.033206
 31
0.0
  0
LINE
  5
232
100
AcDbEntity
  8
1
390
0
  6
Continuous
 62
     7
100
AcDbLine
 10
310.284397
 20
201.733206
 30
0.0
 11
302.884397
 21
201.733206
 31
0.0
  0
LINE
  5
233
100
AcDbEntity
  8
1
390
0
  6
DOT
 62
     9
100
AcDbLine
 10
309.084397
 20
207.733206
 30
0.0
 11
304.102462
 21
207.733206
 31
0.0
  0
LINE
  5
234
100
AcDbEntity
  8
1
390
0
  6
DOT
 62
     9
100
AcDbLine
 10
304.102462
 20
201.733206
 30
0.0
 11
304.102462
 21
207.733206
 31
0.0
  0
LINE
  5
235
100
AcDbEntity
  8
1
390
0
  6
DOT
 62
     9
100
AcDbLine
 10
305.084397
 20
202.933206
 30
0.0
 11
308.084397
 21
202.933206
 31
0.0
  0
LINE
  5
236
100
AcDbEntity
  8
1
390
0
  6
DOT
 62
     9
100
AcDbLine
 10
320.084397
 20
255.533206
 30
0.0
 11
320.084397
 21
252.533206
 31
0.0
  0
LINE
  5
237
100
AcDbEntity
  8
1
390
0
  6
DOT
 62
     9
100
AcDbLine
 10
320.084397
 20
232.033206
 30
0.0
 11
320.084397
 21
229.033206
 31
0.0
  0
LINE
  5
238
100
AcDbEntity
  8
1
390
0
  6
DOT
 62
     9
100
AcDbLine
 10
320.084397
 20
208.733206
 30
0.0
 11
320.084397
 21
205.733206
 31
0.0
  0
LINE
  5
239
100
AcDbEntity
  8
1
390
0
  6
DOT
 62
     9
100
AcDbLine
 10
303.834397
 20
207.733206
 30
0.0
 11
303.85081
 21
207.733206
 31
0.0
  0
LINE
  5
23A
100
AcDbEntity
  8
1
390
0
  6
DOT
 62
     9
100
AcDbLine
 10
303.85081
 20
207.733206
 30
0.0
 11
303.85081
 21
201.733206
 31
0.0
  0
LINE
  5
23B
100
AcDbEntity
  8
1
390
0
  6
DOT
 62
     9
100
AcDbLine
 10
303.85081
 20
207.733206
 30
0.0
 11
304.102462
 21
207.733206
 31
0.0
  0
LINE
  5
23C
100
AcDbEntity
  8
1
390
0
  6
DOT
 62
     9
100
AcDbLine
 10
319.084397
 20
232.733206
 30
0.0
 11
319.084397
 21
228.733206
 31
0.0
  0
LINE
  5
23D
100
AcDbEntity
  8
1
390
0
  6
DOT
 62
     9
100
AcDbLine
 10
308.084397
 20
202.133206
 30
0.0
 11
310.584397
 21
202.133206
 31
0.0
  0
LINE
  5
23E
100
AcDbEntity
  8
1
390
0
  6
Continuous
 62
     7
100
AcDbLine
 10
310.584397
 20
202.133206
 30
0.0
 11
313.084397
 21
202.133206
 31
0.0
  0
LINE
  5
23F
100
AcDbEntity
  8
1
390
0
  6
Continuous
 62
     7
100
AcDbLine
 10
313.084397
 20
202.133206
 30
0.0
 11
318.084397
 21
202.133206
 31
0.0
  0
LINE
  5
240
100
AcDbEntity
  8
1
390
0
  6
DOT
 62
     9
100
AcDbLine
 10
288.384397
 20
229.797667
 30
0.0
 11
288.384397
 21
236.797667
 31
0.0
  0
LINE
  5
241
100
AcDbEntity
  8
1
390
0
  6
Continuous
 62
     7
100
AcDbLine
 10
315.584397
 20
198.871957
 30
0.0
 11
315.469245
 21
198.871957
 31
0.0
  0
ARC
  5
242
100
AcDbEntity
  8
1
390
0
  6
Continuous
 62
     7
100
AcDbCircle
 10
314.169425
 20
200.600255
 30
0.0
 40
2.162533
210
0.0
220
0.0
230
1.0
100
AcDbArc
 50
274.375145
 51
306.94612
  0
POLYLINE
  5
243
100
AcDbEntity
  8
1
390
0
  6
Continuous
 62
     7
100
AcDb2dPolyline
 66
     1
 10
0.0
 20
0.0
 30
0.0
 40
3.0
 41
3.0
  0
VERTEX
  5
244
100
AcDbEntity
  8
1
390
0
 62
     7
100
AcDbVertex
100
AcDb2dVertex
 10
314.334397
 20
198.444024
 30
0.0
 42
-0.022068
  0
VERTEX
  5
245
100
AcDbEntity
  8
1
390
0
 62
     7
100
AcDbVertex
100
AcDb2dVertex
 10
313.902002
 20
198.433623
 30
0.0
  0
VERTEX
  5
246
100
AcDbEntity
  8
1
390
0
 62
     7
100
AcDbVertex
100
AcDb2dVertex
 10
313.834397
 20
198.444024
 30
0.0
  0
SEQEND
  5
247
100
AcDbEntity
  8
0
390
0
  0
LINE
  5
248
100
AcDbEntity
  8
1
390
0
  6
Continuous
 62
     7
100
AcDbLine
 10
313.834397
 20
198.444024
 30
0.0
 11
313.834397
 21
198.871957
 31
0.0
  0
LINE
  5
249
100
AcDbEntity
  8
1
390
0
  6
Continuous
 62
     7
100
AcDbLine
 10
313.834397
 20
198.871957
 30
0.0
 11
312.334397
 21
198.871957
 31
0.0
  0
LINE
  5
24A
100
AcDbEntity
  8
1
390
0
  6
Continuous
 62
     7
100
AcDbLine
 10
312.334397
 20
198.871957
 30
0.0
 11
312.334397
 21
198.444024
 31
0.0
  0
ARC
  5
24B
100
AcDbEntity
  8
1
390
0
  6
Continuous
 62
     7
100
AcDbCircle
 10
312.084397
 20
201.319187
 30
0.0
 40
2.886011
210
0.0
220
0.0
230
1.0
100
AcDbArc
 50
265.030539
 51
274.969461
  0
ARC
  5
24C
100
AcDbEntity
  8
1
390
0
  6
Continuous
 62
     7
100
AcDbCircle
 10
312.009535
 20
200.627215
 30
0.0
 40
2.190205
210
0.0
220
0.0
230
1.0
100
AcDbArc
 50
233.265251
 51
265.413484
  0
LINE
  5
24D
100
AcDbEntity
  8
1
390
0
  6
Continuous
 62
     7
100
AcDbLine
 10
310.699549
 20
198.871957
 30
0.0
 11
310.584397
 21
198.871957
 31
0.0
  0
LINE
  5
24E
100
AcDbEntity
  8
1
390
0
  6
DOT
 62
     9
100
AcDbLine
 10
312.333918
 20
198.442182
 30
0.0
 11
312.334397
 21
198.444024
 31
0.0
  0
LINE
  5
24F
100
AcDbEntity
  8
1
390
0
  6
Continuous
 62
     7
100
AcDbLine
 10
316.334397
 20
201.133206
 30
0.0
 11
313.084397
 21
201.133206
 31
0.0
  0
LINE
  5
250
100
AcDbEntity
  8
1
390
0
  6
Continuous
 62
     7
100
AcDbLine
 10
313.084397
 20
201.133206
 30
0.0
 11
309.834397
 21
201.133206
 31
0.0
  0
LINE
  5
251
100
AcDbEntity
  8
1
390
0
  6
DOT
 62
     9
100
AcDbLine
 10
312.334397
 20
200.133206
 30
0.0
 11
313.834397
 21
200.133206
 31
0.0
  0
LINE
  5
252
100
AcDbEntity
  8
1
390
0
  6
DOT
 62
     9
100
AcDbLine
 10
313.834397
 20
198.871957
 30
0.0
 11
313.834397
 21
200.133206
 31
0.0
  0
LINE
  5
253
100
AcDbEntity
  8
1
390
0
  6
DOT
 62
     9
100
AcDbLine
 10
312.334397
 20
198.871957
 30
0.0
 11
312.334397
 21
200.133206
 31
0.0
  0
LINE
  5
254
100
AcDbEntity
  8
1
390
0
  6
DOT
 62
     9
100
AcDbLine
 10
312.334397
 20
200.133206
 30
0.0
 11
311.834397
 21
200.133206
 31
0.0
  0
LINE
  5
255
100
AcDbEntity
  8
1
390
0
  6
DOT
 62
     9
100
AcDbLine
 10
314.334397
 20
200.133206
 30
0.0
 11
313.834397
 21
200.133206
 31
0.0
  0
LINE
  5
256
100
AcDbEntity
  8
1
390
0
  6
DOT
 62
     9
100
AcDbLine
 10
315.469245
 20
198.871957
 30
0.0
 11
315.469245
 21
200.133206
 31
0.0
  0
LINE
  5
257
100
AcDbEntity
  8
1
390
0
  6
DOT
 62
     9
100
AcDbLine
 10
315.469245
 20
200.133206
 30
0.0
 11
315.584397
 21
200.133206
 31
0.0
  0
LINE
  5
258
100
AcDbEntity
  8
1
390
0
  6
DOT
 62
     9
100
AcDbLine
 10
310.584397
 20
200.133206
 30
0.0
 11
310.699549
 21
200.133206
 31
0.0
  0
LINE
  5
259
100
AcDbEntity
  8
1
390
0
  6
DOT
 62
     9
100
AcDbLine
 10
310.699549
 20
198.871957
 30
0.0
 11
310.699549
 21
200.133206
 31
0.0
  0
LINE
  5
25A
100
AcDbEntity
  8
1
390
0
  6
DOT
 62
     9
100
AcDbLine
 10
310.699549
 20
198.871957
 30
0.0
 11
310.699549
 21
200.133206
 31
0.0
  0
LINE
  5
25B
100
AcDbEntity
  8
1
390
0
  6
DOT
 62
     9
100
AcDbLine
 10
310.699549
 20
200.133206
 30
0.0
 11
311.834397
 21
200.133206
 31
0.0
  0
LINE
  5
25C
100
AcDbEntity
  8
1
390
0
  6
DOT
 62
     9
100
AcDbLine
 10
314.334397
 20
200.133206
 30
0.0
 11
315.469245
 21
200.133206
 31
0.0
  0
LINE
  5
25D
100
AcDbEntity
  8
1
390
0
  6
DOT
 62
     9
100
AcDbLine
 10
289.084397
 20
225.033206
 30
0.0
 11
289.084397
 21
298.433206
 31
0.0
  0
ARC
  5
25E
100
AcDbEntity
  8
1
390
0
  6
Continuous
 62
     7
100
AcDbCircle
 10
266.094792
 20
298.722811
 30
0.0
 40
2.010422
210
0.0
220
0.0
230
1.0
100
AcDbArc
 50
90.296265
 51
179.703735
  0
ARC
  5
25F
100
AcDbEntity
  8
1
390
0
  6
Continuous
 62
     7
100
AcDbCircle
 10
282.584397
 20
202.733206
 30
0.0
 40
3.5
210
0.0
220
0.0
230
1.0
100
AcDbArc
 50
180.0
 51
270.0
  0
ARC
  5
260
100
AcDbEntity
  8
1
390
0
  6
Continuous
 62
     7
100
AcDbCircle
 10
298.584397
 20
202.733206
 30
0.0
 40
3.5
210
0.0
220
0.0
230
1.0
100
AcDbArc
 50
270.0
 51
360.0
  0
ARC
  5
261
100
AcDbEntity
  8
1
390
0
  6
DOT
 62
     9
100
AcDbCircle
 10
322.084397
 20
277.733206
 30
0.0
 40
1.0
210
0.0
220
0.0
230
1.0
100
AcDbArc
 50
0.0
 51
90.0
  0
ARC
  5
262
100
AcDbEntity
  8
1
390
0
  6
DOT
 62
     9
100
AcDbCircle
 10
322.084397
 20
283.733206
 30
0.0
 40
1.0
210
0.0
220
0.0
230
1.0
100
AcDbArc
 50
270.0
 51
360.0
  0
LINE
  5
263
100
AcDbEntity
  8
1
390
0
  6
DOT
 62
     9
100
AcDbLine
 10
322.084397
 20
282.733206
 30
0.0
 11
319.084397
 21
282.733206
 31
0.0
  0
LINE
  5
264
100
AcDbEntity
  8
1
390
0
  6
DOT
 62
     9
100
AcDbLine
 10
319.084397
 20
278.733206
 30
0.0
 11
322.084397
 21
278.733206
 31
0.0
  0
LINE
  5
265
100
AcDbEntity
  8
1
390
0
  6
Continuous
 62
     7
100
AcDbLine
 10
284.084397
 20
199.233206
 30
0.0
 11
284.084397
 21
198.733206
 31
0.0
  0
LINE
  5
266
100
AcDbEntity
  8
1
390
0
  6
Continuous
 62
     7
100
AcDbLine
 10
297.084397
 20
198.733206
 30
0.0
 11
297.084397
 21
199.233206
 31
0.0
  0
ARC
  5
267
100
AcDbEntity
  8
1
390
0
  6
Continuous
 62
     7
100
AcDbCircle
 10
284.584397
 20
198.733206
 30
0.0
 40
0.5
210
0.0
220
0.0
230
1.0
100
AcDbArc
 50
180.0
 51
270.0
  0
ARC
  5
268
100
AcDbEntity
  8
1
390
0
  6
DOT
 62
     9
100
AcDbCircle
 10
284.584397
 20
198.733206
 30
0.0
 40
0.5
210
0.0
220
0.0
230
1.0
100
AcDbArc
 50
270.0
 51
360.0
  0
ARC
  5
269
100
AcDbEntity
  8
1
390
0
  6
Continuous
 62
     7
100
AcDbCircle
 10
296.584397
 20
198.733206
 30
0.0
 40
0.5
210
0.0
220
0.0
230
1.0
100
AcDbArc
 50
270.0
 51
360.0
  0
ARC
  5
26A
100
AcDbEntity
  8
1
390
0
  6
DOT
 62
     9
100
AcDbCircle
 10
296.584397
 20
198.733206
 30
0.0
 40
0.5
210
0.0
220
0.0
230
1.0
100
AcDbArc
 50
180.0
 51
270.0
  0
LINE
  5
26B
100
AcDbEntity
  8
1
390
0
  6
Continuous
 62
     7
100
AcDbLine
 10
284.584397
 20
198.233206
 30
0.0
 11
296.584397
 21
198.233206
 31
0.0
  0
LINE
  5
26C
100
AcDbEntity
  8
1
390
0
  6
DOT
 62
     9
100
AcDbLine
 10
285.084397
 20
199.233206
 30
0.0
 11
285.084397
 21
198.733206
 31
0.0
  0
LINE
  5
26D
100
AcDbEntity
  8
1
390
0
  6
DOT
 62
     9
100
AcDbLine
 10
296.084397
 20
198.733206
 30
0.0
 11
296.084397
 21
199.233206
 31
0.0
  0
LINE
  5
26E
100
AcDbEntity
  8
1
390
0
  6
Continuous
 62
     7
100
AcDbLine
 10
302.584397
 20
202.733206
 30
0.0
 11
302.584397
 21
202.033206
 31
0.0
  0
LINE
  5
26F
100
AcDbEntity
  8
1
390
0
  6
Continuous
 62
     7
100
AcDbLine
 10
310.584397
 20
202.033206
 30
0.0
 11
310.584397
 21
202.733206
 31
0.0
  0
LINE
  5
270
100
AcDbEntity
  8
1
390
0
  6
Continuous
 62
     7
100
AcDbLine
 10
302.584397
 20
202.033206
 30
0.0
 11
302.884397
 21
201.733206
 31
0.0
  0
LINE
  5
271
100
AcDbEntity
  8
1
390
0
  6
Continuous
 62
     7
100
AcDbLine
 10
310.284397
 20
201.733206
 30
0.0
 11
310.584397
 21
202.033206
 31
0.0
  0
LINE
  5
272
100
AcDbEntity
  8
1
390
0
  6
DOT
 62
     9
100
AcDbLine
 10
309.084397
 20
201.733206
 30
0.0
 11
309.084397
 21
207.733206
 31
0.0
  0
ARC
  5
273
100
AcDbEntity
  8
1
390
0
  6
DOT
 62
     9
100
AcDbCircle
 10
322.084397
 20
251.533206
 30
0.0
 40
1.0
210
0.0
220
0.0
230
1.0
100
AcDbArc
 50
0.0
 51
90.0
  0
ARC
  5
274
100
AcDbEntity
  8
1
390
0
  6
DOT
 62
     9
100
AcDbCircle
 10
322.084397
 20
256.533206
 30
0.0
 40
1.0
210
0.0
220
0.0
230
1.0
100
AcDbArc
 50
270.0
 51
360.0
  0
ARC
  5
275
100
AcDbEntity
  8
1
390
0
  6
DOT
 62
     9
100
AcDbCircle
 10
322.084397
 20
204.733206
 30
0.0
 40
1.0
210
0.0
220
0.0
230
1.0
100
AcDbArc
 50
0.0
 51
90.0
  0
ARC
  5
276
100
AcDbEntity
  8
1
390
0
  6
DOT
 62
     9
100
AcDbCircle
 10
322.084397
 20
209.733206
 30
0.0
 40
1.0
210
0.0
220
0.0
230
1.0
100
AcDbArc
 50
270.0
 51
360.0
  0
ARC
  5
277
100
AcDbEntity
  8
1
390
0
  6
DOT
 62
     9
100
AcDbCircle
 10
322.084397
 20
228.033206
 30
0.0
 40
1.0
210
0.0
220
0.0
230
1.0
100
AcDbArc
 50
0.0
 51
90.0
  0
ARC
  5
278
100
AcDbEntity
  8
1
390
0
  6
DOT
 62
     9
100
AcDbCircle
 10
322.084397
 20
233.033206
 30
0.0
 40
1.0
210
0.0
220
0.0
230
1.0
100
AcDbArc
 50
270.0
 51
360.0
  0
LINE
  5
279
100
AcDbEntity
  8
1
390
0
  6
DOT
 62
     9
100
AcDbLine
 10
308.084397
 20
202.933206
 30
0.0
 11
308.084397
 21
207.733206
 31
0.0
  0
LINE
  5
27A
100
AcDbEntity
  8
1
390
0
  6
DOT
 62
     9
100
AcDbLine
 10
305.084397
 20
207.733206
 30
0.0
 11
305.084397
 21
202.933206
 31
0.0
  0
LINE
  5
27B
100
AcDbEntity
  8
1
390
0
  6
DOT
 62
     9
100
AcDbLine
 10
305.084397
 20
202.933206
 30
0.0
 11
305.284397
 21
202.733206
 31
0.0
  0
LINE
  5
27C
100
AcDbEntity
  8
1
390
0
  6
DOT
 62
     9
100
AcDbLine
 10
307.884397
 20
202.733206
 30
0.0
 11
308.084397
 21
202.933206
 31
0.0
  0
LINE
  5
27D
100
AcDbEntity
  8
1
390
0
  6
DOT
 62
     9
100
AcDbLine
 10
322.084397
 20
255.533206
 30
0.0
 11
320.084397
 21
255.533206
 31
0.0
  0
LINE
  5
27E
100
AcDbEntity
  8
1
390
0
  6
DOT
 62
     9
100
AcDbLine
 10
320.084397
 20
252.533206
 30
0.0
 11
322.084397
 21
252.533206
 31
0.0
  0
LINE
  5
27F
100
AcDbEntity
  8
1
390
0
  6
DOT
 62
     9
100
AcDbLine
 10
322.084397
 20
232.033206
 30
0.0
 11
320.084397
 21
232.033206
 31
0.0
  0
LINE
  5
280
100
AcDbEntity
  8
1
390
0
  6
DOT
 62
     9
100
AcDbLine
 10
320.084397
 20
229.033206
 30
0.0
 11
322.084397
 21
229.033206
 31
0.0
  0
LINE
  5
281
100
AcDbEntity
  8
1
390
0
  6
DOT
 62
     9
100
AcDbLine
 10
322.084397
 20
208.733206
 30
0.0
 11
320.084397
 21
208.733206
 31
0.0
  0
LINE
  5
282
100
AcDbEntity
  8
1
390
0
  6
DOT
 62
     9
100
AcDbLine
 10
320.084397
 20
205.733206
 30
0.0
 11
322.084397
 21
205.733206
 31
0.0
  0
LINE
  5
283
100
AcDbEntity
  8
1
390
0
  6
DOT
 62
     9
100
AcDbLine
 10
307.284397
 20
202.733206
 30
0.0
 11
307.284397
 21
207.733206
 31
0.0
  0
LINE
  5
284
100
AcDbEntity
  8
1
390
0
  6
DOT
 62
     9
100
AcDbLine
 10
306.684397
 20
207.733206
 30
0.0
 11
306.684397
 21
202.733206
 31
0.0
  0
LINE
  5
285
100
AcDbEntity
  8
1
390
0
  6
DOT
 62
     9
100
AcDbLine
 10
303.834397
 20
207.733206
 30
0.0
 11
303.834397
 21
201.733206
 31
0.0
  0
LINE
  5
286
100
AcDbEntity
  8
1
390
0
  6
DOT
 62
     9
100
AcDbLine
 10
306.084397
 20
202.733206
 30
0.0
 11
306.084397
 21
207.733206
 31
0.0
  0
LINE
  5
287
100
AcDbEntity
  8
1
390
0
  6
DOT
 62
     9
100
AcDbLine
 10
305.484397
 20
207.733206
 30
0.0
 11
305.484397
 21
202.733206
 31
0.0
  0
ARC
  5
288
100
AcDbEntity
  8
1
390
0
  6
DOT
 62
     9
100
AcDbCircle
 10
322.084397
 20
227.733206
 30
0.0
 40
1.0
210
0.0
220
0.0
230
1.0
100
AcDbArc
 50
0.0
 51
90.0
  0
ARC
  5
289
100
AcDbEntity
  8
1
390
0
  6
DOT
 62
     9
100
AcDbCircle
 10
322.084397
 20
233.733206
 30
0.0
 40
1.0
210
0.0
220
0.0
230
1.0
100
AcDbArc
 50
270.0
 51
360.0
  0
LINE
  5
28A
100
AcDbEntity
  8
1
390
0
  6
DOT
 62
     9
100
AcDbLine
 10
322.084397
 20
232.733206
 30
0.0
 11
319.084397
 21
232.733206
 31
0.0
  0
LINE
  5
28B
100
AcDbEntity
  8
1
390
0
  6
DOT
 62
     9
100
AcDbLine
 10
319.084397
 20
228.733206
 30
0.0
 11
322.084397
 21
228.733206
 31
0.0
  0
LINE
  5
28C
100
AcDbEntity
  8
1
390
0
  6
Continuous
 62
     7
100
AcDbLine
 10
318.084397
 20
202.133206
 30
0.0
 11
318.084397
 21
202.733206
 31
0.0
  0
LINE
  5
28D
100
AcDbEntity
  8
1
390
0
  6
DOT
 62
     9
100
AcDbLine
 10
308.084397
 20
202.733206
 30
0.0
 11
308.084397
 21
202.133206
 31
0.0
  0
LINE
  5
28E
100
AcDbEntity
  8
1
390
0
  6
DOT
 62
     9
100
AcDbLine
 10
264.384397
 20
229.797667
 30
0.0
 11
288.384397
 21
229.797667
 31
0.0
  0
LINE
  5
28F
100
AcDbEntity
  8
1
390
0
  6
DOT
 62
     9
100
AcDbLine
 10
288.384397
 20
236.797667
 30
0.0
 11
264.384397
 21
236.797667
 31
0.0
  0
ARC
  5
290
100
AcDbEntity
  8
1
390
0
  6
Continuous
 62
     7
100
AcDbCircle
 10
314.334397
 20
200.433206
 30
0.0
 40
2.0
210
0.0
220
0.0
230
1.0
100
AcDbArc
 50
308.682187
 51
360.0
  0
ARC
  5
291
100
AcDbEntity
  8
1
390
0
  6
Continuous
 62
     7
100
AcDbCircle
 10
311.834397
 20
200.433206
 30
0.0
 40
2.0
210
0.0
220
0.0
230
1.0
100
AcDbArc
 50
180.0
 51
231.317813
  0
LINE
  5
292
100
AcDbEntity
  8
1
390
0
  6
Continuous
 62
     7
100
AcDbLine
 10
316.334397
 20
200.433206
 30
0.0
 11
316.334397
 21
201.133206
 31
0.0
  0
LINE
  5
293
100
AcDbEntity
  8
1
390
0
  6
Continuous
 62
     7
100
AcDbLine
 10
309.834397
 20
201.133206
 30
0.0
 11
309.834397
 21
200.433206
 31
0.0
  0
LINE
  5
294
100
AcDbEntity
  8
1
390
0
  6
Continuous
 62
     7
100
AcDbLine
 10
316.084397
 20
201.133206
 30
0.0
 11
316.084397
 21
202.133206
 31
0.0
  0
LINE
  5
295
100
AcDbEntity
  8
1
390
0
  6
DOT
 62
     9
100
AcDbLine
 10
310.084397
 20
202.133206
 30
0.0
 11
310.084397
 21
201.733206
 31
0.0
  0
LINE
  5
296
100
AcDbEntity
  8
1
390
0
  6
Continuous
 62
     7
100
AcDbLine
 10
310.084397
 20
201.733206
 30
0.0
 11
310.084397
 21
201.133206
 31
0.0
  0
LINE
  5
297
100
AcDbEntity
  8
1
390
0
  6
DOT
 62
     9
100
AcDbLine
 10
315.584397
 20
198.871957
 30
0.0
 11
315.584397
 21
200.133206
 31
0.0
  0
LINE
  5
298
100
AcDbEntity
  8
1
390
0
  6
DOT
 62
     9
100
AcDbLine
 10
310.584397
 20
200.133206
 30
0.0
 11
310.584397
 21
198.871957
 31
0.0
  0
ARC
  5
299
100
AcDbEntity
  8
1
390
0
  6
Continuous
 62
     7
100
AcDbCircle
 10
101.707416
 20
100.244557
 30
0.0
 40
6.5
210
0.0
220
0.0
230
1.0
100
AcDbArc
 50
90.0
 51
270.0
  0
ARC
  5
29A
100
AcDbEntity
  8
1
390
0
  6
Continuous
 62
     7
100
AcDbCircle
 10
101.707416
 20
100.244557
 30
0.0
 40
6.5
210
0.0
220
0.0
230
1.0
100
AcDbArc
 50
270.0
 51
90.0
  0
CIRCLE
  5
29B
100
AcDbEntity
  8
1
390
0
  6
Continuous
 62
     7
100
AcDbCircle
 10
101.707416
 20
100.244557
 30
0.0
 40
5.5
210
0.0
220
0.0
230
1.0
  0
ARC
  5
29C
100
AcDbEntity
  8
1
390
0
  6
Continuous
 62
     7
100
AcDbCircle
 10
126.707416
 20
100.244557
 30
0.0
 40
6.5
210
0.0
220
0.0
230
1.0
100
AcDbArc
 50
90.0
 51
270.0
  0
ARC
  5
29D
100
AcDbEntity
  8
1
390
0
  6
Continuous
 62
     7
100
AcDbCircle
 10
126.707416
 20
100.244557
 30
0.0
 40
6.5
210
0.0
220
0.0
230
1.0
100
AcDbArc
 50
270.0
 51
90.0
  0
CIRCLE
  5
29E
100
AcDbEntity
  8
1
390
0
  6
Continuous
 62
     7
100
AcDbCircle
 10
126.707416
 20
100.244557
 30
0.0
 40
5.5
210
0.0
220
0.0
230
1.0
  0
ARC
  5
29F
100
AcDbEntity
  8
1
390
0
  6
Continuous
 62
     7
100
AcDbCircle
 10
151.707416
 20
100.244557
 30
0.0
 40
6.5
210
0.0
220
0.0
230
1.0
100
AcDbArc
 50
90.0
 51
270.0
  0
ARC
  5
2A0
100
AcDbEntity
  8
1
390
0
  6
Continuous
 62
     7
100
AcDbCircle
 10
151.707416
 20
100.244557
 30
0.0
 40
6.5
210
0.0
220
0.0
230
1.0
100
AcDbArc
 50
270.0
 51
90.0
  0
CIRCLE
  5
2A1
100
AcDbEntity
  8
1
390
0
  6
Continuous
 62
     7
100
AcDbCircle
 10
151.707416
 20
100.244557
 30
0.0
 40
5.5
210
0.0
220
0.0
230
1.0
  0
CIRCLE
  5
2A2
100
AcDbEntity
  8
1
390
0
  6
Continuous
 62
     7
100
AcDbCircle
 10
85.207416
 20
77.744557
 30
0.0
 40
3.25
210
0.0
220
0.0
230
1.0
  0
LINE
  5
2A3
100
AcDbEntity
  8
1
390
0
  6
Continuous
 62
     7
100
AcDbLine
 10
82.822568
 20
76.994557
 30
0.0
 11
83.957416
 21
76.994557
 31
0.0
  0
POLYLINE
  5
2A4
100
AcDbEntity
  8
1
390
0
  6
Continuous
 62
     7
100
AcDb2dPolyline
 66
     1
 10
0.0
 20
0.0
 30
0.0
 40
3.0
 41
3.0
  0
VERTEX
  5
2A5
100
AcDbEntity
  8
1
390
0
 62
     7
100
AcDbVertex
100
AcDb2dVertex
 10
83.957416
 20
76.994557
 30
0.0
  0
VERTEX
  5
2A6
100
AcDbEntity
  8
1
390
0
 62
     7
100
AcDbVertex
100
AcDb2dVertex
 10
83.977871
 20
76.994137
 30
0.0
  0
VERTEX
  5
2A7
100
AcDbEntity
  8
1
390
0
 62
     7
100
AcDbVertex
100
AcDb2dVertex
 10
83.998326
 20
76.992878
 30
0.0
  0
VERTEX
  5
2A8
100
AcDbEntity
  8
1
390
0
 62
     7
100
AcDbVertex
100
AcDb2dVertex
 10
84.018725
 20
76.990782
 30
0.0
  0
VERTEX
  5
2A9
100
AcDbEntity
  8
1
390
0
 62
     7
100
AcDbVertex
100
AcDb2dVertex
 10
84.039014
 20
76.987854
 30
0.0
  0
VERTEX
  5
2AA
100
AcDbEntity
  8
1
390
0
 62
     7
100
AcDbVertex
100
AcDb2dVertex
 10
84.059763
 20
76.983968
 30
0.0
  0
VERTEX
  5
2AB
100
AcDbEntity
  8
1
390
0
 62
     7
100
AcDbVertex
100
AcDb2dVertex
 10
84.080355
 20
76.979204
 30
0.0
  0
VERTEX
  5
2AC
100
AcDbEntity
  8
1
390
0
 62
     7
100
AcDbVertex
100
AcDb2dVertex
 10
84.100734
 20
76.973575
 30
0.0
  0
VERTEX
  5
2AD
100
AcDbEntity
  8
1
390
0
 62
     7
100
AcDbVertex
100
AcDb2dVertex
 10
84.120842
 20
76.967095
 30
0.0
  0
VERTEX
  5
2AE
100
AcDbEntity
  8
1
390
0
 62
     7
100
AcDbVertex
100
AcDb2dVertex
 10
84.140119
 20
76.95998
 30
0.0
  0
VERTEX
  5
2AF
100
AcDbEntity
  8
1
390
0
 62
     7
100
AcDbVertex
100
AcDb2dVertex
 10
84.159105
 20
76.952071
 30
0.0
  0
VERTEX
  5
2B0
100
AcDbEntity
  8
1
390
0
 62
     7
100
AcDbVertex
100
AcDb2dVertex
 10
84.177753
 20
76.943389
 30
0.0
  0
VERTEX
  5
2B1
100
AcDbEntity
  8
1
390
0
 62
     7
100
AcDbVertex
100
AcDb2dVertex
 10
84.196013
 20
76.933956
 30
0.0
  0
VERTEX
  5
2B2
100
AcDbEntity
  8
1
390
0
 62
     7
100
AcDbVertex
100
AcDb2dVertex
 10
84.214372
 20
76.923476
 30
0.0
  0
VERTEX
  5
2B3
100
AcDbEntity
  8
1
390
0
 62
     7
100
AcDbVertex
100
AcDb2dVertex
 10
84.232289
 20
76.91222
 30
0.0
  0
VERTEX
  5
2B4
100
AcDbEntity
  8
1
390
0
 62
     7
100
AcDbVertex
100
AcDb2dVertex
 10
84.249715
 20
76.900217
 30
0.0
  0
VERTEX
  5
2B5
100
AcDbEntity
  8
1
390
0
 62
     7
100
AcDbVertex
100
AcDb2dVertex
 10
84.266602
 20
76.8875
 30
0.0
  0
VERTEX
  5
2B6
100
AcDbEntity
  8
1
390
0
 62
     7
100
AcDbVertex
100
AcDb2dVertex
 10
84.282618
 20
76.874349
 30
0.0
  0
VERTEX
  5
2B7
100
AcDbEntity
  8
1
390
0
 62
     7
100
AcDbVertex
100
AcDb2dVertex
 10
84.298088
 20
76.860535
 30
0.0
  0
VERTEX
  5
2B8
100
AcDbEntity
  8
1
390
0
 62
     7
100
AcDbVertex
100
AcDb2dVertex
 10
84.312974
 20
76.846093
 30
0.0
  0
VERTEX
  5
2B9
100
AcDbEntity
  8
1
390
0
 62
     7
100
AcDbVertex
100
AcDb2dVertex
 10
84.327236
 20
76.831059
 30
0.0
  0
VERTEX
  5
2BA
100
AcDbEntity
  8
1
390
0
 62
     7
100
AcDbVertex
100
AcDb2dVertex
 10
84.341245
 20
76.814985
 30
0.0
  0
VERTEX
  5
2BB
100
AcDbEntity
  8
1
390
0
 62
     7
100
AcDbVertex
100
AcDb2dVertex
 10
84.354567
 20
76.798313
 30
0.0
  0
VERTEX
  5
2BC
100
AcDbEntity
  8
1
390
0
 62
     7
100
AcDbVertex
100
AcDb2dVertex
 10
84.367169
 20
76.78109
 30
0.0
  0
VERTEX
  5
2BD
100
AcDbEntity
  8
1
390
0
 62
     7
100
AcDbVertex
100
AcDb2dVertex
 10
84.379014
 20
76.763361
 30
0.0
  0
VERTEX
  5
2BE
100
AcDbEntity
  8
1
390
0
 62
     7
100
AcDbVertex
100
AcDb2dVertex
 10
84.389811
 20
76.74562
 30
0.0
  0
VERTEX
  5
2BF
100
AcDbEntity
  8
1
390
0
 62
     7
100
AcDbVertex
100
AcDb2dVertex
 10
84.399872
 20
76.727431
 30
0.0
  0
VERTEX
  5
2C0
100
AcDbEntity
  8
1
390
0
 62
     7
100
AcDbVertex
100
AcDb2dVertex
 10
84.409169
 20
76.708841
 30
0.0
  0
VERTEX
  5
2C1
100
AcDbEntity
  8
1
390
0
 62
     7
100
AcDbVertex
100
AcDb2dVertex
 10
84.417679
 20
76.689898
 30
0.0
  0
VERTEX
  5
2C2
100
AcDbEntity
  8
1
390
0
 62
     7
100
AcDbVertex
100
AcDb2dVertex
 10
84.425605
 20
76.670049
 30
0.0
  0
VERTEX
  5
2C3
100
AcDbEntity
  8
1
390
0
 62
     7
100
AcDbVertex
100
AcDb2dVertex
 10
84.432681
 20
76.649863
 30
0.0
  0
VERTEX
  5
2C4
100
AcDbEntity
  8
1
390
0
 62
     7
100
AcDbVertex
100
AcDb2dVertex
 10
84.438889
 20
76.629397
 30
0.0
  0
VERTEX
  5
2C5
100
AcDbEntity
  8
1
390
0
 62
     7
100
AcDbVertex
100
AcDb2dVertex
 10
84.444211
 20
76.608708
 30
0.0
  0
VERTEX
  5
2C6
100
AcDbEntity
  8
1
390
0
 62
     7
100
AcDbVertex
100
AcDb2dVertex
 10
84.448947
 20
76.586169
 30
0.0
  0
VERTEX
  5
2C7
100
AcDbEntity
  8
1
390
0
 62
     7
100
AcDbVertex
100
AcDb2dVertex
 10
84.452642
 20
76.563407
 30
0.0
  0
VERTEX
  5
2C8
100
AcDbEntity
  8
1
390
0
 62
     7
100
AcDbVertex
100
AcDb2dVertex
 10
84.45529
 20
76.5405
 30
0.0
  0
VERTEX
  5
2C9
100
AcDbEntity
  8
1
390
0
 62
     7
100
AcDbVertex
100
AcDb2dVertex
 10
84.456884
 20
76.517524
 30
0.0
  0
VERTEX
  5
2CA
100
AcDbEntity
  8
1
390
0
 62
     7
100
AcDbVertex
100
AcDb2dVertex
 10
84.457416
 20
76.494557
 30
0.0
  0
SEQEND
  5
2CB
100
AcDbEntity
  8
0
390
0
  0
LINE
  5
2CC
100
AcDbEntity
  8
1
390
0
  6
Continuous
 62
     7
100
AcDbLine
 10
84.457416
 20
76.494557
 30
0.0
 11
84.457416
 21
75.359709
 31
0.0
  0
ARC
  5
2CD
100
AcDbEntity
  8
1
390
0
  6
Continuous
 62
     7
100
AcDbCircle
 10
85.207416
 20
77.744557
 30
0.0
 40
2.5
210
0.0
220
0.0
230
1.0
100
AcDbArc
 50
252.542397
 51
287.457603
  0
POLYLINE
  5
2CE
100
AcDbEntity
  8
1
390
0
  6
Continuous
 62
     7
100
AcDb2dPolyline
 66
     1
 10
0.0
 20
0.0
 30
0.0
 40
3.0
 41
3.0
  0
VERTEX
  5
2CF
100
AcDbEntity
  8
1
390
0
 62
     7
100
AcDbVertex
100
AcDb2dVertex
 10
85.957416
 20
76.494557
 30
0.0
  0
VERTEX
  5
2D0
100
AcDbEntity
  8
1
390
0
 62
     7
100
AcDbVertex
100
AcDb2dVertex
 10
85.957837
 20
76.515012
 30
0.0
  0
VERTEX
  5
2D1
100
AcDbEntity
  8
1
390
0
 62
     7
100
AcDbVertex
100
AcDb2dVertex
 10
85.959096
 20
76.535467
 30
0.0
  0
VERTEX
  5
2D2
100
AcDbEntity
  8
1
390
0
 62
     7
100
AcDbVertex
100
AcDb2dVertex
 10
85.961191
 20
76.555866
 30
0.0
  0
VERTEX
  5
2D3
100
AcDbEntity
  8
1
390
0
 62
     7
100
AcDbVertex
100
AcDb2dVertex
 10
85.964119
 20
76.576155
 30
0.0
  0
VERTEX
  5
2D4
100
AcDbEntity
  8
1
390
0
 62
     7
100
AcDbVertex
100
AcDb2dVertex
 10
85.968005
 20
76.596903
 30
0.0
  0
VERTEX
  5
2D5
100
AcDbEntity
  8
1
390
0
 62
     7
100
AcDbVertex
100
AcDb2dVertex
 10
85.972769
 20
76.617496
 30
0.0
  0
VERTEX
  5
2D6
100
AcDbEntity
  8
1
390
0
 62
     7
100
AcDbVertex
100
AcDb2dVertex
 10
85.978398
 20
76.637874
 30
0.0
  0
VERTEX
  5
2D7
100
AcDbEntity
  8
1
390
0
 62
     7
100
AcDbVertex
100
AcDb2dVertex
 10
85.984878
 20
76.657982
 30
0.0
  0
VERTEX
  5
2D8
100
AcDbEntity
  8
1
390
0
 62
     7
100
AcDbVertex
100
AcDb2dVertex
 10
85.991994
 20
76.67726
 30
0.0
  0
VERTEX
  5
2D9
100
AcDbEntity
  8
1
390
0
 62
     7
100
AcDbVertex
100
AcDb2dVertex
 10
85.999903
 20
76.696246
 30
0.0
  0
VERTEX
  5
2DA
100
AcDbEntity
  8
1
390
0
 62
     7
100
AcDbVertex
100
AcDb2dVertex
 10
86.008584
 20
76.714894
 30
0.0
  0
VERTEX
  5
2DB
100
AcDbEntity
  8
1
390
0
 62
     7
100
AcDbVertex
100
AcDb2dVertex
 10
86.018017
 20
76.733154
 30
0.0
  0
VERTEX
  5
2DC
100
AcDbEntity
  8
1
390
0
 62
     7
100
AcDbVertex
100
AcDb2dVertex
 10
86.028497
 20
76.751513
 30
0.0
  0
VERTEX
  5
2DD
100
AcDbEntity
  8
1
390
0
 62
     7
100
AcDbVertex
100
AcDb2dVertex
 10
86.039754
 20
76.76943
 30
0.0
  0
VERTEX
  5
2DE
100
AcDbEntity
  8
1
390
0
 62
     7
100
AcDbVertex
100
AcDb2dVertex
 10
86.051756
 20
76.786855
 30
0.0
  0
VERTEX
  5
2DF
100
AcDbEntity
  8
1
390
0
 62
     7
100
AcDbVertex
100
AcDb2dVertex
 10
86.064474
 20
76.803743
 30
0.0
  0
VERTEX
  5
2E0
100
AcDbEntity
  8
1
390
0
 62
     7
100
AcDbVertex
100
AcDb2dVertex
 10
86.077624
 20
76.819759
 30
0.0
  0
VERTEX
  5
2E1
100
AcDbEntity
  8
1
390
0
 62
     7
100
AcDbVertex
100
AcDb2dVertex
 10
86.091439
 20
76.835229
 30
0.0
  0
VERTEX
  5
2E2
100
AcDbEntity
  8
1
390
0
 62
     7
100
AcDbVertex
100
AcDb2dVertex
 10
86.105881
 20
76.850115
 30
0.0
  0
VERTEX
  5
2E3
100
AcDbEntity
  8
1
390
0
 62
     7
100
AcDbVertex
100
AcDb2dVertex
 10
86.120915
 20
76.864377
 30
0.0
  0
VERTEX
  5
2E4
100
AcDbEntity
  8
1
390
0
 62
     7
100
AcDbVertex
100
AcDb2dVertex
 10
86.136989
 20
76.878386
 30
0.0
  0
VERTEX
  5
2E5
100
AcDbEntity
  8
1
390
0
 62
     7
100
AcDbVertex
100
AcDb2dVertex
 10
86.15366
 20
76.891708
 30
0.0
  0
VERTEX
  5
2E6
100
AcDbEntity
  8
1
390
0
 62
     7
100
AcDbVertex
100
AcDb2dVertex
 10
86.170884
 20
76.90431
 30
0.0
  0
VERTEX
  5
2E7
100
AcDbEntity
  8
1
390
0
 62
     7
100
AcDbVertex
100
AcDb2dVertex
 10
86.188612
 20
76.916154
 30
0.0
  0
VERTEX
  5
2E8
100
AcDbEntity
  8
1
390
0
 62
     7
100
AcDbVertex
100
AcDb2dVertex
 10
86.206353
 20
76.926952
 30
0.0
  0
VERTEX
  5
2E9
100
AcDbEntity
  8
1
390
0
 62
     7
100
AcDbVertex
100
AcDb2dVertex
 10
86.224542
 20
76.937012
 30
0.0
  0
VERTEX
  5
2EA
100
AcDbEntity
  8
1
390
0
 62
     7
100
AcDbVertex
100
AcDb2dVertex
 10
86.243133
 20
76.94631
 30
0.0
  0
VERTEX
  5
2EB
100
AcDbEntity
  8
1
390
0
 62
     7
100
AcDbVertex
100
AcDb2dVertex
 10
86.262075
 20
76.95482
 30
0.0
  0
VERTEX
  5
2EC
100
AcDbEntity
  8
1
390
0
 62
     7
100
AcDbVertex
100
AcDb2dVertex
 10
86.281924
 20
76.962746
 30
0.0
  0
VERTEX
  5
2ED
100
AcDbEntity
  8
1
390
0
 62
     7
100
AcDbVertex
100
AcDb2dVertex
 10
86.30211
 20
76.969822
 30
0.0
  0
VERTEX
  5
2EE
100
AcDbEntity
  8
1
390
0
 62
     7
100
AcDbVertex
100
AcDb2dVertex
 10
86.322576
 20
76.97603
 30
0.0
  0
VERTEX
  5
2EF
100
AcDbEntity
  8
1
390
0
 62
     7
100
AcDbVertex
100
AcDb2dVertex
 10
86.343265
 20
76.981352
 30
0.0
  0
VERTEX
  5
2F0
100
AcDbEntity
  8
1
390
0
 62
     7
100
AcDbVertex
100
AcDb2dVertex
 10
86.365804
 20
76.986088
 30
0.0
  0
VERTEX
  5
2F1
100
AcDbEntity
  8
1
390
0
 62
     7
100
AcDbVertex
100
AcDb2dVertex
 10
86.388566
 20
76.989783
 30
0.0
  0
VERTEX
  5
2F2
100
AcDbEntity
  8
1
390
0
 62
     7
100
AcDbVertex
100
AcDb2dVertex
 10
86.411474
 20
76.992431
 30
0.0
  0
VERTEX
  5
2F3
100
AcDbEntity
  8
1
390
0
 62
     7
100
AcDbVertex
100
AcDb2dVertex
 10
86.434449
 20
76.994024
 30
0.0
  0
VERTEX
  5
2F4
100
AcDbEntity
  8
1
390
0
 62
     7
100
AcDbVertex
100
AcDb2dVertex
 10
86.457416
 20
76.994557
 30
0.0
  0
SEQEND
  5
2F5
100
AcDbEntity
  8
0
390
0
  0
LINE
  5
2F6
100
AcDbEntity
  8
1
390
0
  6
Continuous
 62
     7
100
AcDbLine
 10
86.457416
 20
76.994557
 30
0.0
 11
87.592264
 21
76.994557
 31
0.0
  0
ARC
  5
2F7
100
AcDbEntity
  8
1
390
0
  6
Continuous
 62
     7
100
AcDbCircle
 10
85.207416
 20
77.744557
 30
0.0
 40
2.5
210
0.0
220
0.0
230
1.0
100
AcDbArc
 50
342.542397
 51
17.457603
  0
LINE
  5
2F8
100
AcDbEntity
  8
1
390
0
  6
Continuous
 62
     7
100
AcDbLine
 10
87.592264
 20
78.494557
 30
0.0
 11
86.457416
 21
78.494557
 31
0.0
  0
POLYLINE
  5
2F9
100
AcDbEntity
  8
1
390
0
  6
Continuous
 62
     7
100
AcDb2dPolyline
 66
     1
 10
0.0
 20
0.0
 30
0.0
 40
3.0
 41
3.0
  0
VERTEX
  5
2FA
100
AcDbEntity
  8
1
390
0
 62
     7
100
AcDbVertex
100
AcDb2dVertex
 10
86.457416
 20
78.494557
 30
0.0
  0
VERTEX
  5
2FB
100
AcDbEntity
  8
1
390
0
 62
     7
100
AcDbVertex
100
AcDb2dVertex
 10
86.436961
 20
78.494977
 30
0.0
  0
VERTEX
  5
2FC
100
AcDbEntity
  8
1
390
0
 62
     7
100
AcDbVertex
100
AcDb2dVertex
 10
86.416507
 20
78.496237
 30
0.0
  0
VERTEX
  5
2FD
100
AcDbEntity
  8
1
390
0
 62
     7
100
AcDbVertex
100
AcDb2dVertex
 10
86.396108
 20
78.498332
 30
0.0
  0
VERTEX
  5
2FE
100
AcDbEntity
  8
1
390
0
 62
     7
100
AcDbVertex
100
AcDb2dVertex
 10
86.375819
 20
78.50126
 30
0.0
  0
VERTEX
  5
2FF
100
AcDbEntity
  8
1
390
0
 62
     7
100
AcDbVertex
100
AcDb2dVertex
 10
86.35507
 20
78.505146
 30
0.0
  0
VERTEX
  5
300
100
AcDbEntity
  8
1
390
0
 62
     7
100
AcDbVertex
100
AcDb2dVertex
 10
86.334478
 20
78.50991
 30
0.0
  0
VERTEX
  5
301
100
AcDbEntity
  8
1
390
0
 62
     7
100
AcDbVertex
100
AcDb2dVertex
 10
86.314099
 20
78.515539
 30
0.0
  0
VERTEX
  5
302
100
AcDbEntity
  8
1
390
0
 62
     7
100
AcDbVertex
100
AcDb2dVertex
 10
86.293991
 20
78.522019
 30
0.0
  0
VERTEX
  5
303
100
AcDbEntity
  8
1
390
0
 62
     7
100
AcDbVertex
100
AcDb2dVertex
 10
86.274714
 20
78.529135
 30
0.0
  0
VERTEX
  5
304
100
AcDbEntity
  8
1
390
0
 62
     7
100
AcDbVertex
100
AcDb2dVertex
 10
86.255727
 20
78.537044
 30
0.0
  0
VERTEX
  5
305
100
AcDbEntity
  8
1
390
0
 62
     7
100
AcDbVertex
100
AcDb2dVertex
 10
86.23708
 20
78.545725
 30
0.0
  0
VERTEX
  5
306
100
AcDbEntity
  8
1
390
0
 62
     7
100
AcDbVertex
100
AcDb2dVertex
 10
86.21882
 20
78.555158
 30
0.0
  0
VERTEX
  5
307
100
AcDbEntity
  8
1
390
0
 62
     7
100
AcDbVertex
100
AcDb2dVertex
 10
86.20046
 20
78.565638
 30
0.0
  0
VERTEX
  5
308
100
AcDbEntity
  8
1
390
0
 62
     7
100
AcDbVertex
100
AcDb2dVertex
 10
86.182544
 20
78.576895
 30
0.0
  0
VERTEX
  5
309
100
AcDbEntity
  8
1
390
0
 62
     7
100
AcDbVertex
100
AcDb2dVertex
 10
86.165118
 20
78.588897
 30
0.0
  0
VERTEX
  5
30A
100
AcDbEntity
  8
1
390
0
 62
     7
100
AcDbVertex
100
AcDb2dVertex
 10
86.14823
 20
78.601614
 30
0.0
  0
VERTEX
  5
30B
100
AcDbEntity
  8
1
390
0
 62
     7
100
AcDbVertex
100
AcDb2dVertex
 10
86.132215
 20
78.614765
 30
0.0
  0
VERTEX
  5
30C
100
AcDbEntity
  8
1
390
0
 62
     7
100
AcDbVertex
100
AcDb2dVertex
 10
86.116745
 20
78.628579
 30
0.0
  0
VERTEX
  5
30D
100
AcDbEntity
  8
1
390
0
 62
     7
100
AcDbVertex
100
AcDb2dVertex
 10
86.101859
 20
78.643022
 30
0.0
  0
VERTEX
  5
30E
100
AcDbEntity
  8
1
390
0
 62
     7
100
AcDbVertex
100
AcDb2dVertex
 10
86.087596
 20
78.658056
 30
0.0
  0
VERTEX
  5
30F
100
AcDbEntity
  8
1
390
0
 62
     7
100
AcDbVertex
100
AcDb2dVertex
 10
86.073588
 20
78.674129
 30
0.0
  0
VERTEX
  5
310
100
AcDbEntity
  8
1
390
0
 62
     7
100
AcDbVertex
100
AcDb2dVertex
 10
86.060265
 20
78.690801
 30
0.0
  0
VERTEX
  5
311
100
AcDbEntity
  8
1
390
0
 62
     7
100
AcDbVertex
100
AcDb2dVertex
 10
86.047664
 20
78.708024
 30
0.0
  0
VERTEX
  5
312
100
AcDbEntity
  8
1
390
0
 62
     7
100
AcDbVertex
100
AcDb2dVertex
 10
86.035819
 20
78.725753
 30
0.0
  0
VERTEX
  5
313
100
AcDbEntity
  8
1
390
0
 62
     7
100
AcDbVertex
100
AcDb2dVertex
 10
86.025021
 20
78.743494
 30
0.0
  0
VERTEX
  5
314
100
AcDbEntity
  8
1
390
0
 62
     7
100
AcDbVertex
100
AcDb2dVertex
 10
86.014961
 20
78.761683
 30
0.0
  0
VERTEX
  5
315
100
AcDbEntity
  8
1
390
0
 62
     7
100
AcDbVertex
100
AcDb2dVertex
 10
86.005663
 20
78.780273
 30
0.0
  0
VERTEX
  5
316
100
AcDbEntity
  8
1
390
0
 62
     7
100
AcDbVertex
100
AcDb2dVertex
 10
85.997154
 20
78.799216
 30
0.0
  0
VERTEX
  5
317
100
AcDbEntity
  8
1
390
0
 62
     7
100
AcDbVertex
100
AcDb2dVertex
 10
85.989228
 20
78.819065
 30
0.0
  0
VERTEX
  5
318
100
AcDbEntity
  8
1
390
0
 62
     7
100
AcDbVertex
100
AcDb2dVertex
 10
85.982152
 20
78.839251
 30
0.0
  0
VERTEX
  5
319
100
AcDbEntity
  8
1
390
0
 62
     7
100
AcDbVertex
100
AcDb2dVertex
 10
85.975943
 20
78.859717
 30
0.0
  0
VERTEX
  5
31A
100
AcDbEntity
  8
1
390
0
 62
     7
100
AcDbVertex
100
AcDb2dVertex
 10
85.970621
 20
78.880406
 30
0.0
  0
VERTEX
  5
31B
100
AcDbEntity
  8
1
390
0
 62
     7
100
AcDbVertex
100
AcDb2dVertex
 10
85.965886
 20
78.902945
 30
0.0
  0
VERTEX
  5
31C
100
AcDbEntity
  8
1
390
0
 62
     7
100
AcDbVertex
100
AcDb2dVertex
 10
85.962191
 20
78.925707
 30
0.0
  0
VERTEX
  5
31D
100
AcDbEntity
  8
1
390
0
 62
     7
100
AcDbVertex
100
AcDb2dVertex
 10
85.959543
 20
78.948614
 30
0.0
  0
VERTEX
  5
31E
100
AcDbEntity
  8
1
390
0
 62
     7
100
AcDbVertex
100
AcDb2dVertex
 10
85.957949
 20
78.97159
 30
0.0
  0
VERTEX
  5
31F
100
AcDbEntity
  8
1
390
0
 62
     7
100
AcDbVertex
100
AcDb2dVertex
 10
85.957416
 20
78.994557
 30
0.0
  0
SEQEND
  5
320
100
AcDbEntity
  8
0
390
0
  0
LINE
  5
321
100
AcDbEntity
  8
1
390
0
  6
Continuous
 62
     7
100
AcDbLine
 10
85.957416
 20
78.994557
 30
0.0
 11
85.957416
 21
80.129405
 31
0.0
  0
ARC
  5
322
100
AcDbEntity
  8
1
390
0
  6
Continuous
 62
     7
100
AcDbCircle
 10
85.207416
 20
77.744557
 30
0.0
 40
2.5
210
0.0
220
0.0
230
1.0
100
AcDbArc
 50
72.542397
 51
107.457603
  0
LINE
  5
323
100
AcDbEntity
  8
1
390
0
  6
Continuous
 62
     7
100
AcDbLine
 10
84.457416
 20
80.129405
 30
0.0
 11
84.457416
 21
78.994557
 31
0.0
  0
POLYLINE
  5
324
100
AcDbEntity
  8
1
390
0
  6
Continuous
 62
     7
100
AcDb2dPolyline
 66
     1
 10
0.0
 20
0.0
 30
0.0
 40
3.0
 41
3.0
  0
VERTEX
  5
325
100
AcDbEntity
  8
1
390
0
 62
     7
100
AcDbVertex
100
AcDb2dVertex
 10
84.457416
 20
78.994557
 30
0.0
  0
VERTEX
  5
326
100
AcDbEntity
  8
1
390
0
 62
     7
100
AcDbVertex
100
AcDb2dVertex
 10
84.456996
 20
78.974102
 30
0.0
  0
VERTEX
  5
327
100
AcDbEntity
  8
1
390
0
 62
     7
100
AcDbVertex
100
AcDb2dVertex
 10
84.455737
 20
78.953648
 30
0.0
  0
VERTEX
  5
328
100
AcDbEntity
  8
1
390
0
 62
     7
100
AcDbVertex
100
AcDb2dVertex
 10
84.453642
 20
78.933249
 30
0.0
  0
VERTEX
  5
329
100
AcDbEntity
  8
1
390
0
 62
     7
100
AcDbVertex
100
AcDb2dVertex
 10
84.450713
 20
78.91296
 30
0.0
  0
VERTEX
  5
32A
100
AcDbEntity
  8
1
390
0
 62
     7
100
AcDbVertex
100
AcDb2dVertex
 10
84.446828
 20
78.892211
 30
0.0
  0
VERTEX
  5
32B
100
AcDbEntity
  8
1
390
0
 62
     7
100
AcDbVertex
100
AcDb2dVertex
 10
84.442063
 20
78.871619
 30
0.0
  0
VERTEX
  5
32C
100
AcDbEntity
  8
1
390
0
 62
     7
100
AcDbVertex
100
AcDb2dVertex
 10
84.436434
 20
78.85124
 30
0.0
  0
VERTEX
  5
32D
100
AcDbEntity
  8
1
390
0
 62
     7
100
AcDbVertex
100
AcDb2dVertex
 10
84.429954
 20
78.831132
 30
0.0
  0
VERTEX
  5
32E
100
AcDbEntity
  8
1
390
0
 62
     7
100
AcDbVertex
100
AcDb2dVertex
 10
84.422839
 20
78.811855
 30
0.0
  0
VERTEX
  5
32F
100
AcDbEntity
  8
1
390
0
 62
     7
100
AcDbVertex
100
AcDb2dVertex
 10
84.41493
 20
78.792868
 30
0.0
  0
VERTEX
  5
330
100
AcDbEntity
  8
1
390
0
 62
     7
100
AcDbVertex
100
AcDb2dVertex
 10
84.406248
 20
78.774221
 30
0.0
  0
VERTEX
  5
331
100
AcDbEntity
  8
1
390
0
 62
     7
100
AcDbVertex
100
AcDb2dVertex
 10
84.396816
 20
78.755961
 30
0.0
  0
VERTEX
  5
332
100
AcDbEntity
  8
1
390
0
 62
     7
100
AcDbVertex
100
AcDb2dVertex
 10
84.386336
 20
78.737601
 30
0.0
  0
VERTEX
  5
333
100
AcDbEntity
  8
1
390
0
 62
     7
100
AcDbVertex
100
AcDb2dVertex
 10
84.375079
 20
78.719685
 30
0.0
  0
VERTEX
  5
334
100
AcDbEntity
  8
1
390
0
 62
     7
100
AcDbVertex
100
AcDb2dVertex
 10
84.363076
 20
78.702259
 30
0.0
  0
VERTEX
  5
335
100
AcDbEntity
  8
1
390
0
 62
     7
100
AcDbVertex
100
AcDb2dVertex
 10
84.350359
 20
78.685371
 30
0.0
  0
VERTEX
  5
336
100
AcDbEntity
  8
1
390
0
 62
     7
100
AcDbVertex
100
AcDb2dVertex
 10
84.337209
 20
78.669356
 30
0.0
  0
VERTEX
  5
337
100
AcDbEntity
  8
1
390
0
 62
     7
100
AcDbVertex
100
AcDb2dVertex
 10
84.323394
 20
78.653885
 30
0.0
  0
VERTEX
  5
338
100
AcDbEntity
  8
1
390
0
 62
     7
100
AcDbVertex
100
AcDb2dVertex
 10
84.308952
 20
78.639
 30
0.0
  0
VERTEX
  5
339
100
AcDbEntity
  8
1
390
0
 62
     7
100
AcDbVertex
100
AcDb2dVertex
 10
84.293918
 20
78.624737
 30
0.0
  0
VERTEX
  5
33A
100
AcDbEntity
  8
1
390
0
 62
     7
100
AcDbVertex
100
AcDb2dVertex
 10
84.277844
 20
78.610729
 30
0.0
  0
VERTEX
  5
33B
100
AcDbEntity
  8
1
390
0
 62
     7
100
AcDbVertex
100
AcDb2dVertex
 10
84.261172
 20
78.597406
 30
0.0
  0
VERTEX
  5
33C
100
AcDbEntity
  8
1
390
0
 62
     7
100
AcDbVertex
100
AcDb2dVertex
 10
84.243949
 20
78.584805
 30
0.0
  0
VERTEX
  5
33D
100
AcDbEntity
  8
1
390
0
 62
     7
100
AcDbVertex
100
AcDb2dVertex
 10
84.226221
 20
78.57296
 30
0.0
  0
VERTEX
  5
33E
100
AcDbEntity
  8
1
390
0
 62
     7
100
AcDbVertex
100
AcDb2dVertex
 10
84.20848
 20
78.562162
 30
0.0
  0
VERTEX
  5
33F
100
AcDbEntity
  8
1
390
0
 62
     7
100
AcDbVertex
100
AcDb2dVertex
 10
84.19029
 20
78.552102
 30
0.0
  0
VERTEX
  5
340
100
AcDbEntity
  8
1
390
0
 62
     7
100
AcDbVertex
100
AcDb2dVertex
 10
84.1717
 20
78.542804
 30
0.0
  0
VERTEX
  5
341
100
AcDbEntity
  8
1
390
0
 62
     7
100
AcDbVertex
100
AcDb2dVertex
 10
84.152757
 20
78.534294
 30
0.0
  0
VERTEX
  5
342
100
AcDbEntity
  8
1
390
0
 62
     7
100
AcDbVertex
100
AcDb2dVertex
 10
84.132908
 20
78.526369
 30
0.0
  0
VERTEX
  5
343
100
AcDbEntity
  8
1
390
0
 62
     7
100
AcDbVertex
100
AcDb2dVertex
 10
84.112722
 20
78.519292
 30
0.0
  0
VERTEX
  5
344
100
AcDbEntity
  8
1
390
0
 62
     7
100
AcDbVertex
100
AcDb2dVertex
 10
84.092256
 20
78.513084
 30
0.0
  0
VERTEX
  5
345
100
AcDbEntity
  8
1
390
0
 62
     7
100
AcDbVertex
100
AcDb2dVertex
 10
84.071568
 20
78.507762
 30
0.0
  0
VERTEX
  5
346
100
AcDbEntity
  8
1
390
0
 62
     7
100
AcDbVertex
100
AcDb2dVertex
 10
84.049028
 20
78.503027
 30
0.0
  0
VERTEX
  5
347
100
AcDbEntity
  8
1
390
0
 62
     7
100
AcDbVertex
100
AcDb2dVertex
 10
84.026266
 20
78.499332
 30
0.0
  0
VERTEX
  5
348
100
AcDbEntity
  8
1
390
0
 62
     7
100
AcDbVertex
100
AcDb2dVertex
 10
84.003359
 20
78.496684
 30
0.0
  0
VERTEX
  5
349
100
AcDbEntity
  8
1
390
0
 62
     7
100
AcDbVertex
100
AcDb2dVertex
 10
83.980383
 20
78.49509
 30
0.0
  0
VERTEX
  5
34A
100
AcDbEntity
  8
1
390
0
 62
     7
100
AcDbVertex
100
AcDb2dVertex
 10
83.957416
 20
78.494557
 30
0.0
  0
SEQEND
  5
34B
100
AcDbEntity
  8
0
390
0
  0
LINE
  5
34C
100
AcDbEntity
  8
1
390
0
  6
Continuous
 62
     7
100
AcDbLine
 10
83.957416
 20
78.494557
 30
0.0
 11
82.822568
 21
78.494557
 31
0.0
  0
ARC
  5
34D
100
AcDbEntity
  8
1
390
0
  6
Continuous
 62
     7
100
AcDbCircle
 10
85.207416
 20
77.744557
 30
0.0
 40
2.5
210
0.0
220
0.0
230
1.0
100
AcDbArc
 50
162.542397
 51
197.457603
  0
LINE
  5
34E
100
AcDbEntity
  8
1
390
0
  6
Continuous
 62
     7
100
AcDbLine
 10
85.957416
 20
75.359709
 30
0.0
 11
85.957416
 21
76.494557
 31
0.0
  0
CIRCLE
  5
34F
100
AcDbEntity
  8
1
390
0
  6
Continuous
 62
     7
100
AcDbCircle
 10
126.707416
 20
100.244557
 30
0.0
 40
11.5
210
0.0
220
0.0
230
0.9999999999999999
  0
CIRCLE
  5
350
100
AcDbEntity
  8
1
390
0
  6
Continuous
 62
     7
100
AcDbCircle
 10
101.707416
 20
100.244557
 30
0.0
 40
11.5
210
0.0
220
0.0
230
1.0
  0
CIRCLE
  5
351
100
AcDbEntity
  8
1
390
0
  6
Continuous
 62
     7
100
AcDbCircle
 10
151.707416
 20
100.244557
 30
0.0
 40
11.5
210
0.0
220
0.0
230
0.9999999999999999
  0
CIRCLE
  5
352
100
AcDbEntity
  8
1
390
0
  6
DOT
 62
     9
100
AcDbCircle
 10
85.207416
 20
77.744557
 30
0.0
 40
3.0
210
0.0
220
0.0
230
1.0
  0
CIRCLE
  5
353
100
AcDbEntity
  8
1
390
0
  6
Continuous
 62
     7
100
AcDbCircle
 10
144.707416
 20
84.244557
 30
0.0
 40
3.7
210
0.0
220
0.0
230
1.0
  0
ARC
  5
354
100
AcDbEntity
  8
1
390
0
  6
Continuous
 62
     7
100
AcDbCircle
 10
144.707416
 20
84.244557
 30
0.0
 40
2.75
210
0.0
220
0.0
230
1.0
100
AcDbArc
 50
83.737087
 51
96.262913
  0
LINE
  5
355
100
AcDbEntity
  8
1
390
0
  6
Continuous
 62
     7
100
AcDbLine
 10
144.407416
 20
86.726492
 30
0.0
 11
144.407416
 21
86.978145
 31
0.0
  0
LINE
  5
356
100
AcDbEntity
  8
1
390
0
  6
Continuous
 62
     7
100
AcDbLine
 10
145.007416
 20
86.978145
 30
0.0
 11
145.007416
 21
86.726492
 31
0.0
  0
ARC
  5
357
100
AcDbEntity
  8
1
390
0
  6
Continuous
 62
     7
100
AcDbCircle
 10
144.707416
 20
84.244557
 30
0.0
 40
2.5
210
0.0
220
0.0
230
1.0
100
AcDbArc
 50
96.892103
 51
83.107897
  0
CIRCLE
  5
358
100
AcDbEntity
  8
1
390
0
  6
Continuous
 62
     7
100
AcDbCircle
 10
144.707416
 20
84.244557
 30
0.0
 40
4.0
210
0.0
220
0.0
230
1.0
  0
CIRCLE
  5
359
100
AcDbEntity
  8
1
390
0
  6
Continuous
 62
     7
100
AcDbCircle
 10
85.207416
 20
77.744557
 30
0.0
 40
5.0
210
0.0
220
0.0
230
1.0
  0
LINE
  5
35A
100
AcDbEntity
  8
1
390
0
  6
Continuous
 62
     7
100
AcDbLine
 10
77.707416
 20
69.744557
 30
0.0
 11
77.707416
 21
119.444557
 31
0.0
  0
LINE
  5
35B
100
AcDbEntity
  8
1
390
0
  6
Continuous
 62
     7
100
AcDbLine
 10
175.707416
 20
69.744557
 30
0.0
 11
175.707416
 21
119.444557
 31
0.0
  0
CIRCLE
  5
35C
100
AcDbEntity
  8
1
390
0
  6
Continuous
 62
     7
100
AcDbCircle
 10
145.400237
 20
83.844557
 30
0.0
 40
0.3
210
0.0
220
0.0
230
1.0
  0
CIRCLE
  5
35D
100
AcDbEntity
  8
1
390
0
  6
Continuous
 62
     7
100
AcDbCircle
 10
144.014596
 20
83.844557
 30
0.0
 40
0.3
210
0.0
220
0.0
230
1.0
  0
CIRCLE
  5
35E
100
AcDbEntity
  8
1
390
0
  6
Continuous
 62
     7
100
AcDbCircle
 10
144.707416
 20
85.044557
 30
0.0
 40
0.3
210
0.0
220
0.0
230
1.0
  0
CIRCLE
  5
35F
100
AcDbEntity
  8
1
390
0
  6
Continuous
 62
     7
100
AcDbCircle
 10
144.707416
 20
84.244557
 30
0.0
 40
1.3
210
0.0
220
0.0
230
1.0
  0
CIRCLE
  5
360
100
AcDbEntity
  8
1
390
0
  6
Continuous
 62
     7
100
AcDbCircle
 10
144.707416
 20
84.244557
 30
0.0
 40
1.5
210
0.0
220
0.0
230
1.0
  0
LINE
  5
361
100
AcDbEntity
  8
1
390
0
  6
Continuous
 62
     7
100
AcDbLine
 10
77.707416
 20
121.444557
 30
0.0
 11
175.707416
 21
121.444557
 31
0.0
  0
LINE
  5
362
100
AcDbEntity
  8
1
390
0
  6
Continuous
 62
     7
100
AcDbLine
 10
175.707416
 20
121.444557
 30
0.0
 11
175.707416
 21
119.444557
 31
0.0
  0
LINE
  5
363
100
AcDbEntity
  8
1
390
0
  6
Continuous
 62
     7
100
AcDbLine
 10
77.707416
 20
119.444557
 30
0.0
 11
77.707416
 21
121.444557
 31
0.0
  0
LINE
  5
364
100
AcDbEntity
  8
1
390
0
  6
Continuous
 62
     7
100
AcDbLine
 10
173.707416
 20
67.744557
 30
0.0
 11
144.207416
 21
67.744557
 31
0.0
  0
LINE
  5
365
100
AcDbEntity
  8
1
390
0
  6
Continuous
 62
     7
100
AcDbLine
 10
144.207416
 20
67.744557
 30
0.0
 11
109.207416
 21
67.744557
 31
0.0
  0
LINE
  5
366
100
AcDbEntity
  8
1
390
0
  6
Continuous
 62
     7
100
AcDbLine
 10
109.207416
 20
67.744557
 30
0.0
 11
79.707416
 21
67.744557
 31
0.0
  0
ARC
  5
367
100
AcDbEntity
  8
1
390
0
  6
Continuous
 62
     7
100
AcDbCircle
 10
79.707416
 20
69.744557
 30
0.0
 40
2.0
210
0.0
220
0.0
230
1.0
100
AcDbArc
 50
180.0
 51
270.0
  0
ARC
  5
368
100
AcDbEntity
  8
1
390
0
  6
Continuous
 62
     7
100
AcDbCircle
 10
173.707416
 20
69.744557
 30
0.0
 40
2.0
210
0.0
220
0.0
230
1.0
100
AcDbArc
 50
270.0
 51
360.0
  0
LINE
  5
369
100
AcDbEntity
  8
1
390
0
  6
DOT
 62
     9
100
AcDbLine
 10
145.707416
 20
70.744557
 30
0.0
 11
142.707416
 21
70.744557
 31
0.0
  0
LINE
  5
36A
100
AcDbEntity
  8
1
390
0
  6
DOT
 62
     9
100
AcDbLine
 10
110.707416
 20
70.744557
 30
0.0
 11
107.707416
 21
70.744557
 31
0.0
  0
ARC
  5
36B
100
AcDbEntity
  8
1
390
0
  6
Continuous
 62
     7
100
AcDbCircle
 10
77.207416
 20
124.744557
 30
0.0
 40
2.0
210
0.0
220
0.0
230
1.0
100
AcDbArc
 50
90.0
 51
180.0
  0
LINE
  5
36C
100
AcDbEntity
  8
1
390
0
  6
Continuous
 62
     7
100
AcDbLine
 10
178.207416
 20
121.744557
 30
0.0
 11
178.207416
 21
124.744557
 31
0.0
  0
LINE
  5
36D
100
AcDbEntity
  8
1
390
0
  6
Continuous
 62
     7
100
AcDbLine
 10
178.207416
 20
121.744557
 30
0.0
 11
177.207416
 21
121.744557
 31
0.0
  0
ARC
  5
36E
100
AcDbEntity
  8
1
390
0
  6
DOT
 62
     9
100
AcDbCircle
 10
176.207416
 20
124.744557
 30
0.0
 40
2.0
210
0.0
220
0.0
230
1.0
100
AcDbArc
 50
0.0
 51
90.0
  0
LINE
  5
36F
100
AcDbEntity
  8
1
390
0
  6
Continuous
 62
     7
100
AcDbLine
 10
75.207416
 20
121.744557
 30
0.0
 11
75.207416
 21
124.744557
 31
0.0
  0
LINE
  5
370
100
AcDbEntity
  8
1
390
0
  6
Continuous
 62
     7
100
AcDbLine
 10
76.207416
 20
121.744557
 30
0.0
 11
75.207416
 21
121.744557
 31
0.0
  0
LINE
  5
371
100
AcDbEntity
  8
1
390
0
  6
Continuous
 62
     7
100
AcDbLine
 10
77.207416
 20
126.744557
 30
0.0
 11
176.207416
 21
126.744557
 31
0.0
  0
LINE
  5
372
100
AcDbEntity
  8
1
390
0
  6
Continuous
 62
     7
100
AcDbLine
 10
177.207416
 20
121.744557
 30
0.0
 11
76.207416
 21
121.744557
 31
0.0
  0
LINE
  5
373
100
AcDbEntity
  8
1
390
0
  6
DOT
 62
     9
100
AcDbLine
 10
77.707416
 20
84.744557
 30
0.0
 11
175.707416
 21
84.744557
 31
0.0
  0
LINE
  5
374
100
AcDbEntity
  8
1
390
0
  6
Continuous
 62
     7
100
AcDbLine
 10
177.207416
 20
121.744557
 30
0.0
 11
176.963058
 21
101.744557
 31
0.0
  0
LINE
  5
375
100
AcDbEntity
  8
1
390
0
  6
Continuous
 62
     7
100
AcDbLine
 10
176.963058
 20
101.744557
 30
0.0
 11
176.463095
 21
101.744557
 31
0.0
  0
LINE
  5
376
100
AcDbEntity
  8
1
390
0
  6
Continuous
 62
     7
100
AcDbLine
 10
176.463095
 20
101.744557
 30
0.0
 11
175.707416
 21
101.744557
 31
0.0
  0
LINE
  5
377
100
AcDbEntity
  8
1
390
0
  6
DOT
 62
     9
100
AcDbLine
 10
175.707416
 20
101.744557
 30
0.0
 11
158.031972
 21
101.744557
 31
0.0
  0
LINE
  5
378
100
AcDbEntity
  8
1
390
0
  6
DOT
 62
     9
100
AcDbLine
 10
158.031972
 20
101.744557
 30
0.0
 11
156.998919
 21
101.744557
 31
0.0
  0
LINE
  5
379
100
AcDbEntity
  8
1
390
0
  6
DOT
 62
     9
100
AcDbLine
 10
156.998919
 20
101.744557
 30
0.0
 11
146.415914
 21
101.744557
 31
0.0
  0
LINE
  5
37A
100
AcDbEntity
  8
1
390
0
  6
DOT
 62
     9
100
AcDbLine
 10
146.415914
 20
101.744557
 30
0.0
 11
145.382861
 21
101.744557
 31
0.0
  0
LINE
  5
37B
100
AcDbEntity
  8
1
390
0
  6
DOT
 62
     9
100
AcDbLine
 10
145.382861
 20
101.744557
 30
0.0
 11
133.031972
 21
101.744557
 31
0.0
  0
LINE
  5
37C
100
AcDbEntity
  8
1
390
0
  6
DOT
 62
     9
100
AcDbLine
 10
133.031972
 20
101.744557
 30
0.0
 11
131.998919
 21
101.744557
 31
0.0
  0
LINE
  5
37D
100
AcDbEntity
  8
1
390
0
  6
DOT
 62
     9
100
AcDbLine
 10
131.998919
 20
101.744557
 30
0.0
 11
121.415914
 21
101.744557
 31
0.0
  0
LINE
  5
37E
100
AcDbEntity
  8
1
390
0
  6
DOT
 62
     9
100
AcDbLine
 10
121.415914
 20
101.744557
 30
0.0
 11
120.382861
 21
101.744557
 31
0.0
  0
LINE
  5
37F
100
AcDbEntity
  8
1
390
0
  6
DOT
 62
     9
100
AcDbLine
 10
120.382861
 20
101.744557
 30
0.0
 11
108.031972
 21
101.744557
 31
0.0
  0
LINE
  5
380
100
AcDbEntity
  8
1
390
0
  6
DOT
 62
     9
100
AcDbLine
 10
108.031972
 20
101.744557
 30
0.0
 11
106.998919
 21
101.744557
 31
0.0
  0
LINE
  5
381
100
AcDbEntity
  8
1
390
0
  6
DOT
 62
     9
100
AcDbLine
 10
106.998919
 20
101.744557
 30
0.0
 11
96.415914
 21
101.744557
 31
0.0
  0
LINE
  5
382
100
AcDbEntity
  8
1
390
0
  6
DOT
 62
     9
100
AcDbLine
 10
96.415914
 20
101.744557
 30
0.0
 11
95.382861
 21
101.744557
 31
0.0
  0
LINE
  5
383
100
AcDbEntity
  8
1
390
0
  6
DOT
 62
     9
100
AcDbLine
 10
95.382861
 20
101.744557
 30
0.0
 11
77.707416
 21
101.744557
 31
0.0
  0
LINE
  5
384
100
AcDbEntity
  8
1
390
0
  6
Continuous
 62
     7
100
AcDbLine
 10
77.707416
 20
101.744557
 30
0.0
 11
76.951737
 21
101.744557
 31
0.0
  0
LINE
  5
385
100
AcDbEntity
  8
1
390
0
  6
Continuous
 62
     7
100
AcDbLine
 10
76.451775
 20
101.744557
 30
0.0
 11
76.207416
 21
121.744557
 31
0.0
  0
LINE
  5
386
100
AcDbEntity
  8
1
390
0
  6
Continuous
 62
     7
100
AcDbLine
 10
76.951737
 20
101.744557
 30
0.0
 11
76.451775
 21
101.744557
 31
0.0
  0
LINE
  5
387
100
AcDbEntity
  8
1
390
0
  6
Continuous
 62
     7
100
AcDbLine
 10
76.736697
 20
84.744557
 30
0.0
 11
76.457416
 21
100.744557
 31
0.0
  0
LINE
  5
388
100
AcDbEntity
  8
1
390
0
  6
Continuous
 62
     7
100
AcDbLine
 10
76.457416
 20
100.744557
 30
0.0
 11
76.95734
 21
100.744557
 31
0.0
  0
LINE
  5
389
100
AcDbEntity
  8
1
390
0
  6
Continuous
 62
     7
100
AcDbLine
 10
77.236621
 20
84.744557
 30
0.0
 11
76.736697
 21
84.744557
 31
0.0
  0
LINE
  5
38A
100
AcDbEntity
  8
1
390
0
  6
Continuous
 62
     7
100
AcDbLine
 10
175.707416
 20
84.744557
 30
0.0
 11
176.178211
 21
84.744557
 31
0.0
  0
LINE
  5
38B
100
AcDbEntity
  8
1
390
0
  6
Continuous
 62
     7
100
AcDbLine
 10
77.236621
 20
84.744557
 30
0.0
 11
77.707416
 21
84.744557
 31
0.0
  0
LINE
  5
38C
100
AcDbEntity
  8
1
390
0
  6
Continuous
 62
     7
100
AcDbLine
 10
176.448765
 20
100.244557
 30
0.0
 11
175.957416
 21
100.744557
 31
0.0
  0
LINE
  5
38D
100
AcDbEntity
  8
1
390
0
  6
Continuous
 62
     7
100
AcDbLine
 10
76.95734
 20
100.744557
 30
0.0
 11
77.707416
 21
100.744557
 31
0.0
  0
LINE
  5
38E
100
AcDbEntity
  8
1
390
0
  6
DOT
 62
     9
100
AcDbLine
 10
77.707416
 20
100.744557
 30
0.0
 11
95.226676
 21
100.744557
 31
0.0
  0
LINE
  5
38F
100
AcDbEntity
  8
1
390
0
  6
DOT
 62
     9
100
AcDbLine
 10
95.226676
 20
100.744557
 30
0.0
 11
96.230191
 21
100.744557
 31
0.0
  0
LINE
  5
390
100
AcDbEntity
  8
1
390
0
  6
DOT
 62
     9
100
AcDbLine
 10
96.230191
 20
100.744557
 30
0.0
 11
107.184642
 21
100.744557
 31
0.0
  0
LINE
  5
391
100
AcDbEntity
  8
1
390
0
  6
DOT
 62
     9
100
AcDbLine
 10
107.184642
 20
100.744557
 30
0.0
 11
108.188157
 21
100.744557
 31
0.0
  0
LINE
  5
392
100
AcDbEntity
  8
1
390
0
  6
DOT
 62
     9
100
AcDbLine
 10
108.188157
 20
100.744557
 30
0.0
 11
120.226676
 21
100.744557
 31
0.0
  0
LINE
  5
393
100
AcDbEntity
  8
1
390
0
  6
DOT
 62
     9
100
AcDbLine
 10
120.226676
 20
100.744557
 30
0.0
 11
121.230191
 21
100.744557
 31
0.0
  0
LINE
  5
394
100
AcDbEntity
  8
1
390
0
  6
DOT
 62
     9
100
AcDbLine
 10
121.230191
 20
100.744557
 30
0.0
 11
132.184642
 21
100.744557
 31
0.0
  0
LINE
  5
395
100
AcDbEntity
  8
1
390
0
  6
DOT
 62
     9
100
AcDbLine
 10
132.184642
 20
100.744557
 30
0.0
 11
133.188157
 21
100.744557
 31
0.0
  0
LINE
  5
396
100
AcDbEntity
  8
1
390
0
  6
DOT
 62
     9
100
AcDbLine
 10
133.188157
 20
100.744557
 30
0.0
 11
145.226676
 21
100.744557
 31
0.0
  0
LINE
  5
397
100
AcDbEntity
  8
1
390
0
  6
DOT
 62
     9
100
AcDbLine
 10
145.226676
 20
100.744557
 30
0.0
 11
146.230191
 21
100.744557
 31
0.0
  0
LINE
  5
398
100
AcDbEntity
  8
1
390
0
  6
DOT
 62
     9
100
AcDbLine
 10
146.230191
 20
100.744557
 30
0.0
 11
157.184642
 21
100.744557
 31
0.0
  0
LINE
  5
399
100
AcDbEntity
  8
1
390
0
  6
DOT
 62
     9
100
AcDbLine
 10
157.184642
 20
100.744557
 30
0.0
 11
158.188157
 21
100.744557
 31
0.0
  0
LINE
  5
39A
100
AcDbEntity
  8
1
390
0
  6
DOT
 62
     9
100
AcDbLine
 10
158.188157
 20
100.744557
 30
0.0
 11
175.707416
 21
100.744557
 31
0.0
  0
LINE
  5
39B
100
AcDbEntity
  8
1
390
0
  6
Continuous
 62
     7
100
AcDbLine
 10
175.707416
 20
100.744557
 30
0.0
 11
175.957416
 21
100.744557
 31
0.0
  0
LINE
  5
39C
100
AcDbEntity
  8
1
390
0
  6
Continuous
 62
     7
100
AcDbLine
 10
176.939964
 20
99.744709
 30
0.0
 11
176.678135
 21
84.744557
 31
0.0
  0
LINE
  5
39D
100
AcDbEntity
  8
1
390
0
  6
Continuous
 62
     7
100
AcDbLine
 10
176.678135
 20
84.744557
 30
0.0
 11
176.178211
 21
84.744557
 31
0.0
  0
LINE
  5
39E
100
AcDbEntity
  8
1
390
0
  6
Continuous
 62
     7
100
AcDbLine
 10
176.448765
 20
100.244557
 30
0.0
 11
176.939964
 21
99.744709
 31
0.0
  0
LINE
  5
39F
100
AcDbEntity
  8
1
390
0
  6
DOT
 62
     9
100
AcDbLine
 10
77.807416
 20
100.744557
 30
0.0
 11
77.807416
 21
101.744557
 31
0.0
  0
LINE
  5
3A0
100
AcDbEntity
  8
1
390
0
  6
Continuous
 62
     7
100
AcDbLine
 10
176.95084
 20
100.744557
 30
0.0
 11
175.957416
 21
100.744557
 31
0.0
  0
LINE
  5
3A1
100
AcDbEntity
  8
1
390
0
  6
Continuous
 62
     7
100
AcDbLine
 10
176.95084
 20
100.744557
 30
0.0
 11
176.963058
 21
101.744557
 31
0.0
  0
LINE
  5
3A2
100
AcDbEntity
  8
1
390
0
  6
DOT
 62
     9
100
AcDbLine
 10
175.207416
 20
126.444557
 30
0.0
 11
174.707416
 21
126.444557
 31
0.0
  0
LINE
  5
3A3
100
AcDbEntity
  8
1
390
0
  6
DOT
 62
     9
100
AcDbLine
 10
175.207416
 20
126.744557
 30
0.0
 11
175.207416
 21
126.444557
 31
0.0
  0
LINE
  5
3A4
100
AcDbEntity
  8
1
390
0
  6
DOT
 62
     9
100
AcDbLine
 10
78.207416
 20
126.744557
 30
0.0
 11
78.207416
 21
126.444557
 31
0.0
  0
LINE
  5
3A5
100
AcDbEntity
  8
1
390
0
  6
DOT
 62
     9
100
AcDbLine
 10
78.707416
 20
126.444557
 30
0.0
 11
78.207416
 21
126.444557
 31
0.0
  0
LINE
  5
3A6
100
AcDbEntity
  8
1
390
0
  6
DOT
 62
     9
100
AcDbLine
 10
174.707416
 20
126.444557
 30
0.0
 11
78.707416
 21
126.444557
 31
0.0
  0
LINE
  5
3A7
100
AcDbEntity
  8
1
390
0
  6
DOT
 62
     9
100
AcDbLine
 10
128.707416
 20
71.744557
 30
0.0
 11
124.707416
 21
71.744557
 31
0.0
  0
LINE
  5
3A8
100
AcDbEntity
  8
1
390
0
  6
DOT
 62
     9
100
AcDbLine
 10
82.207169
 20
102.444557
 30
0.0
 11
89.207169
 21
102.444557
 31
0.0
  0
LINE
  5
3A9
100
AcDbEntity
  8
1
390
0
  6
DOT
 62
     9
100
AcDbLine
 10
95.707416
 20
71.744557
 30
0.0
 11
91.707416
 21
71.744557
 31
0.0
  0
LINE
  5
3AA
100
AcDbEntity
  8
1
390
0
  6
DOT
 62
     9
100
AcDbLine
 10
161.707416
 20
71.744557
 30
0.0
 11
157.707416
 21
71.744557
 31
0.0
  0
ARC
  5
3AB
100
AcDbEntity
  8
1
390
0
  6
DOT
 62
     9
100
AcDbCircle
 10
141.707416
 20
68.744557
 30
0.0
 40
1.0
210
0.0
220
0.0
230
1.0
100
AcDbArc
 50
270.0
 51
360.0
  0
ARC
  5
3AC
100
AcDbEntity
  8
1
390
0
  6
DOT
 62
     9
100
AcDbCircle
 10
146.707416
 20
68.744557
 30
0.0
 40
1.0
210
0.0
220
0.0
230
1.0
100
AcDbArc
 50
180.0
 51
270.0
  0
ARC
  5
3AD
100
AcDbEntity
  8
1
390
0
  6
DOT
 62
     9
100
AcDbCircle
 10
106.707416
 20
68.744557
 30
0.0
 40
1.0
210
0.0
220
0.0
230
1.0
100
AcDbArc
 50
270.0
 51
360.0
  0
ARC
  5
3AE
100
AcDbEntity
  8
1
390
0
  6
DOT
 62
     9
100
AcDbCircle
 10
111.707416
 20
68.744557
 30
0.0
 40
1.0
210
0.0
220
0.0
230
1.0
100
AcDbArc
 50
180.0
 51
270.0
  0
LINE
  5
3AF
100
AcDbEntity
  8
1
390
0
  6
DOT
 62
     9
100
AcDbLine
 10
145.707416
 20
68.744557
 30
0.0
 11
145.707416
 21
70.744557
 31
0.0
  0
LINE
  5
3B0
100
AcDbEntity
  8
1
390
0
  6
DOT
 62
     9
100
AcDbLine
 10
142.707416
 20
70.744557
 30
0.0
 11
142.707416
 21
68.744557
 31
0.0
  0
LINE
  5
3B1
100
AcDbEntity
  8
1
390
0
  6
DOT
 62
     9
100
AcDbLine
 10
110.707416
 20
68.744557
 30
0.0
 11
110.707416
 21
70.744557
 31
0.0
  0
LINE
  5
3B2
100
AcDbEntity
  8
1
390
0
  6
DOT
 62
     9
100
AcDbLine
 10
107.707416
 20
70.744557
 30
0.0
 11
107.707416
 21
68.744557
 31
0.0
  0
ARC
  5
3B3
100
AcDbEntity
  8
1
390
0
  6
Continuous
 62
     7
100
AcDbCircle
 10
176.197021
 20
124.734162
 30
0.0
 40
2.010422
210
0.0
220
0.0
230
1.0
100
AcDbArc
 50
0.296265
 51
89.703735
  0
ARC
  5
3B4
100
AcDbEntity
  8
1
390
0
  6
DOT
 62
     9
100
AcDbCircle
 10
123.707416
 20
68.744557
 30
0.0
 40
1.0
210
0.0
220
0.0
230
1.0
100
AcDbArc
 50
270.0
 51
360.0
  0
ARC
  5
3B5
100
AcDbEntity
  8
1
390
0
  6
DOT
 62
     9
100
AcDbCircle
 10
129.707416
 20
68.744557
 30
0.0
 40
1.0
210
0.0
220
0.0
230
1.0
100
AcDbArc
 50
180.0
 51
270.0
  0
LINE
  5
3B6
100
AcDbEntity
  8
1
390
0
  6
DOT
 62
     9
100
AcDbLine
 10
128.707416
 20
68.744557
 30
0.0
 11
128.707416
 21
71.744557
 31
0.0
  0
LINE
  5
3B7
100
AcDbEntity
  8
1
390
0
  6
DOT
 62
     9
100
AcDbLine
 10
124.707416
 20
71.744557
 30
0.0
 11
124.707416
 21
68.744557
 31
0.0
  0
LINE
  5
3B8
100
AcDbEntity
  8
1
390
0
  6
DOT
 62
     9
100
AcDbLine
 10
82.207169
 20
126.444557
 30
0.0
 11
82.207169
 21
102.444557
 31
0.0
  0
LINE
  5
3B9
100
AcDbEntity
  8
1
390
0
  6
DOT
 62
     9
100
AcDbLine
 10
89.207169
 20
102.444557
 30
0.0
 11
89.207169
 21
126.444557
 31
0.0
  0
ARC
  5
3BA
100
AcDbEntity
  8
1
390
0
  6
DOT
 62
     9
100
AcDbCircle
 10
156.707416
 20
68.744557
 30
0.0
 40
1.0
210
0.0
220
0.0
230
1.0
100
AcDbArc
 50
270.0
 51
360.0
  0
ARC
  5
3BB
100
AcDbEntity
  8
1
390
0
  6
DOT
 62
     9
100
AcDbCircle
 10
162.707416
 20
68.744557
 30
0.0
 40
1.0
210
0.0
220
0.0
230
1.0
100
AcDbArc
 50
180.0
 51
270.0
  0
ARC
  5
3BC
100
AcDbEntity
  8
1
390
0
  6
DOT
 62
     9
100
AcDbCircle
 10
90.707416
 20
68.744557
 30
0.0
 40
1.0
210
0.0
220
0.0
230
1.0
100
AcDbArc
 50
270.0
 51
360.0
  0
ARC
  5
3BD
100
AcDbEntity
  8
1
390
0
  6
DOT
 62
     9
100
AcDbCircle
 10
96.707416
 20
68.744557
 30
0.0
 40
1.0
210
0.0
220
0.0
230
1.0
100
AcDbArc
 50
180.0
 51
270.0
  0
LINE
  5
3BE
100
AcDbEntity
  8
1
390
0
  6
DOT
 62
     9
100
AcDbLine
 10
95.707416
 20
68.744557
 30
0.0
 11
95.707416
 21
71.744557
 31
0.0
  0
LINE
  5
3BF
100
AcDbEntity
  8
1
390
0
  6
DOT
 62
     9
100
AcDbLine
 10
91.707416
 20
71.744557
 30
0.0
 11
91.707416
 21
68.744557
 31
0.0
  0
LINE
  5
3C0
100
AcDbEntity
  8
1
390
0
  6
DOT
 62
     9
100
AcDbLine
 10
161.707416
 20
68.744557
 30
0.0
 11
161.707416
 21
71.744557
 31
0.0
  0
LINE
  5
3C1
100
AcDbEntity
  8
1
390
0
  6
DOT
 62
     9
100
AcDbLine
 10
157.707416
 20
71.744557
 30
0.0
 11
157.707416
 21
68.744557
 31
0.0
  0
LINE
  5
3C2
100
AcDbEntity
  8
1
390
0
  6
Continuous
 62
     7
100
AcDbLine
 10
507.461378
 20
204.733206
 30
0.0
 11
509.461378
 21
202.733206
 31
0.0
  0
LINE
  5
3C3
100
AcDbEntity
  8
1
390
0
  6
Continuous
 62
     7
100
AcDbLine
 10
509.461378
 20
202.733206
 30
0.0
 11
411.461378
 21
202.733206
 31
0.0
  0
LINE
  5
3C4
100
AcDbEntity
  8
1
390
0
  6
Continuous
 62
     7
100
AcDbLine
 10
413.461378
 20
204.733206
 30
0.0
 11
411.461378
 21
202.733206
 31
0.0
  0
LINE
  5
3C5
100
AcDbEntity
  8
1
390
0
  6
Continuous
 62
     7
100
AcDbLine
 10
411.461378
 20
202.733206
 30
0.0
 11
411.461378
 21
298.733206
 31
0.0
  0
LINE
  5
3C6
100
AcDbEntity
  8
1
390
0
  6
Continuous
 62
     7
100
AcDbLine
 10
411.461378
 20
298.733206
 30
0.0
 11
413.461378
 21
296.733206
 31
0.0
  0
CIRCLE
  5
3C7
100
AcDbEntity
  8
1
390
0
  6
Continuous
 62
     7
100
AcDbCircle
 10
427.461378
 20
280.733206
 30
0.0
 40
2.0
210
0.0
220
0.0
230
1.0
  0
LINE
  5
3C8
100
AcDbEntity
  8
1
390
0
  6
Continuous
 62
     7
100
AcDbLine
 10
411.461378
 20
298.733206
 30
0.0
 11
509.461378
 21
298.733206
 31
0.0
  0
LINE
  5
3C9
100
AcDbEntity
  8
1
390
0
  6
Continuous
 62
     7
100
AcDbLine
 10
509.461378
 20
298.733206
 30
0.0
 11
507.461378
 21
296.733206
 31
0.0
  0
CIRCLE
  5
3CA
100
AcDbEntity
  8
1
390
0
  6
Continuous
 62
     7
100
AcDbCircle
 10
477.961378
 20
230.533206
 30
0.0
 40
1.5
210
0.0
220
0.0
230
1.0
  0
CIRCLE
  5
3CB
100
AcDbEntity
  8
1
390
0
  6
Continuous
 62
     7
100
AcDbCircle
 10
477.961378
 20
254.033206
 30
0.0
 40
1.5
210
0.0
220
0.0
230
1.0
  0
CIRCLE
  5
3CC
100
AcDbEntity
  8
1
390
0
  6
Continuous
 62
     7
100
AcDbCircle
 10
477.961378
 20
207.233206
 30
0.0
 40
1.5
210
0.0
220
0.0
230
1.0
  0
CIRCLE
  5
3CD
100
AcDbEntity
  8
1
390
0
  6
Continuous
 62
     7
100
AcDbCircle
 10
442.961378
 20
207.233206
 30
0.0
 40
1.5
210
0.0
220
0.0
230
1.0
  0
CIRCLE
  5
3CE
100
AcDbEntity
  8
1
390
0
  6
Continuous
 62
     7
100
AcDbCircle
 10
442.961378
 20
230.533206
 30
0.0
 40
1.5
210
0.0
220
0.0
230
1.0
  0
CIRCLE
  5
3CF
100
AcDbEntity
  8
1
390
0
  6
Continuous
 62
     7
100
AcDbCircle
 10
460.461378
 20
230.733206
 30
0.0
 40
2.0
210
0.0
220
0.0
230
1.0
  0
CIRCLE
  5
3D0
100
AcDbEntity
  8
1
390
0
  6
Continuous
 62
     7
100
AcDbCircle
 10
442.961378
 20
254.033206
 30
0.0
 40
1.5
210
0.0
220
0.0
230
1.0
  0
CIRCLE
  5
3D1
100
AcDbEntity
  8
1
390
0
  6
Continuous
 62
     7
100
AcDbCircle
 10
493.461378
 20
280.733206
 30
0.0
 40
2.0
210
0.0
220
0.0
230
1.0
  0
LINE
  5
3D2
100
AcDbEntity
  8
1
390
0
  6
Continuous
 62
     7
100
AcDbLine
 10
509.461378
 20
298.733206
 30
0.0
 11
509.461378
 21
202.733206
 31
0.0
  0
LINE
  5
3D3
100
AcDbEntity
  8
1
390
0
  6
Continuous
 62
     7
100
AcDbLine
 10
496.961378
 20
202.133206
 30
0.0
 11
506.961378
 21
202.133206
 31
0.0
  0
LINE
  5
3D4
100
AcDbEntity
  8
1
390
0
  6
Continuous
 62
     7
100
AcDbLine
 10
504.461378
 20
198.871957
 30
0.0
 11
504.346226
 21
198.871957
 31
0.0
  0
ARC
  5
3D5
100
AcDbEntity
  8
1
390
0
  6
Continuous
 62
     7
100
AcDbCircle
 10
503.046406
 20
200.600255
 30
0.0
 40
2.162533
210
0.0
220
0.0
230
1.0
100
AcDbArc
 50
274.375145
 51
306.94612
  0
POLYLINE
  5
3D6
100
AcDbEntity
  8
1
390
0
  6
Continuous
 62
     7
100
AcDb2dPolyline
 66
     1
 10
0.0
 20
0.0
 30
0.0
 40
3.0
 41
3.0
  0
VERTEX
  5
3D7
100
AcDbEntity
  8
1
390
0
 62
     7
100
AcDbVertex
100
AcDb2dVertex
 10
503.211378
 20
198.444024
 30
0.0
 42
-0.022068
  0
VERTEX
  5
3D8
100
AcDbEntity
  8
1
390
0
 62
     7
100
AcDbVertex
100
AcDb2dVertex
 10
502.778983
 20
198.433623
 30
0.0
  0
VERTEX
  5
3D9
100
AcDbEntity
  8
1
390
0
 62
     7
100
AcDbVertex
100
AcDb2dVertex
 10
502.711378
 20
198.444024
 30
0.0
  0
SEQEND
  5
3DA
100
AcDbEntity
  8
0
390
0
  0
LINE
  5
3DB
100
AcDbEntity
  8
1
390
0
  6
Continuous
 62
     7
100
AcDbLine
 10
502.711378
 20
198.444024
 30
0.0
 11
502.711378
 21
198.871957
 31
0.0
  0
LINE
  5
3DC
100
AcDbEntity
  8
1
390
0
  6
Continuous
 62
     7
100
AcDbLine
 10
502.711378
 20
198.871957
 30
0.0
 11
501.211378
 21
198.871957
 31
0.0
  0
LINE
  5
3DD
100
AcDbEntity
  8
1
390
0
  6
Continuous
 62
     7
100
AcDbLine
 10
501.211378
 20
198.871957
 30
0.0
 11
501.211378
 21
198.444024
 31
0.0
  0
ARC
  5
3DE
100
AcDbEntity
  8
1
390
0
  6
Continuous
 62
     7
100
AcDbCircle
 10
500.961378
 20
201.319187
 30
0.0
 40
2.886011
210
0.0
220
0.0
230
1.0
100
AcDbArc
 50
265.030539
 51
274.969461
  0
ARC
  5
3DF
100
AcDbEntity
  8
1
390
0
  6
Continuous
 62
     7
100
AcDbCircle
 10
500.886516
 20
200.627215
 30
0.0
 40
2.190205
210
0.0
220
0.0
230
1.0
100
AcDbArc
 50
233.265251
 51
265.413484
  0
LINE
  5
3E0
100
AcDbEntity
  8
1
390
0
  6
Continuous
 62
     7
100
AcDbLine
 10
499.57653
 20
198.871957
 30
0.0
 11
499.461378
 21
198.871957
 31
0.0
  0
LINE
  5
3E1
100
AcDbEntity
  8
1
390
0
  6
Continuous
 62
     7
100
AcDbLine
 10
505.211378
 20
201.133206
 30
0.0
 11
498.711378
 21
201.133206
 31
0.0
  0
LINE
  5
3E2
100
AcDbEntity
  8
1
390
0
  6
DOT
 62
     9
100
AcDbLine
 10
501.211378
 20
200.133206
 30
0.0
 11
502.711378
 21
200.133206
 31
0.0
  0
LINE
  5
3E3
100
AcDbEntity
  8
1
390
0
  6
DOT
 62
     9
100
AcDbLine
 10
502.711378
 20
198.871957
 30
0.0
 11
502.711378
 21
200.133206
 31
0.0
  0
LINE
  5
3E4
100
AcDbEntity
  8
1
390
0
  6
DOT
 62
     9
100
AcDbLine
 10
501.211378
 20
198.871957
 30
0.0
 11
501.211378
 21
200.133206
 31
0.0
  0
LINE
  5
3E5
100
AcDbEntity
  8
1
390
0
  6
DOT
 62
     9
100
AcDbLine
 10
501.211378
 20
200.133206
 30
0.0
 11
500.711378
 21
200.133206
 31
0.0
  0
LINE
  5
3E6
100
AcDbEntity
  8
1
390
0
  6
DOT
 62
     9
100
AcDbLine
 10
503.211378
 20
200.133206
 30
0.0
 11
502.711378
 21
200.133206
 31
0.0
  0
LINE
  5
3E7
100
AcDbEntity
  8
1
390
0
  6
DOT
 62
     9
100
AcDbLine
 10
499.57653
 20
200.133206
 30
0.0
 11
500.711378
 21
200.133206
 31
0.0
  0
LINE
  5
3E8
100
AcDbEntity
  8
1
390
0
  6
DOT
 62
     9
100
AcDbLine
 10
499.461378
 20
200.133206
 30
0.0
 11
499.57653
 21
200.133206
 31
0.0
  0
LINE
  5
3E9
100
AcDbEntity
  8
1
390
0
  6
DOT
 62
     9
100
AcDbLine
 10
499.57653
 20
198.871957
 30
0.0
 11
499.57653
 21
200.133206
 31
0.0
  0
LINE
  5
3EA
100
AcDbEntity
  8
1
390
0
  6
DOT
 62
     9
100
AcDbLine
 10
499.57653
 20
198.871957
 30
0.0
 11
499.57653
 21
200.133206
 31
0.0
  0
LINE
  5
3EB
100
AcDbEntity
  8
1
390
0
  6
DOT
 62
     9
100
AcDbLine
 10
504.346226
 20
198.871957
 30
0.0
 11
504.346226
 21
200.133206
 31
0.0
  0
LINE
  5
3EC
100
AcDbEntity
  8
1
390
0
  6
DOT
 62
     9
100
AcDbLine
 10
504.346226
 20
200.133206
 30
0.0
 11
504.461378
 21
200.133206
 31
0.0
  0
LINE
  5
3ED
100
AcDbEntity
  8
1
390
0
  6
DOT
 62
     9
100
AcDbLine
 10
503.211378
 20
200.133206
 30
0.0
 11
504.346226
 21
200.133206
 31
0.0
  0
LINE
  5
3EE
100
AcDbEntity
  8
1
390
0
  6
Continuous
 62
     7
100
AcDbLine
 10
438.461378
 20
202.033206
 30
0.0
 11
442.461378
 21
202.033206
 31
0.0
  0
LINE
  5
3EF
100
AcDbEntity
  8
1
390
0
  6
Continuous
 62
     7
100
AcDbLine
 10
442.461378
 20
202.033206
 30
0.0
 11
446.461378
 21
202.033206
 31
0.0
  0
LINE
  5
3F0
100
AcDbEntity
  8
1
390
0
  6
Continuous
 62
     7
100
AcDbLine
 10
446.161378
 20
201.733206
 30
0.0
 11
442.461378
 21
201.733206
 31
0.0
  0
LINE
  5
3F1
100
AcDbEntity
  8
1
390
0
  6
Continuous
 62
     7
100
AcDbLine
 10
442.461378
 20
201.733206
 30
0.0
 11
438.761378
 21
201.733206
 31
0.0
  0
LINE
  5
3F2
100
AcDbEntity
  8
1
390
0
  6
DOT
 62
     9
100
AcDbLine
 10
444.961378
 20
207.733206
 30
0.0
 11
439.961378
 21
207.733206
 31
0.0
  0
LINE
  5
3F3
100
AcDbEntity
  8
1
390
0
  6
DOT
 62
     9
100
AcDbLine
 10
442.161378
 20
201.733206
 30
0.0
 11
442.161378
 21
202.733206
 31
0.0
  0
LINE
  5
3F4
100
AcDbEntity
  8
1
390
0
  6
DOT
 62
     9
100
AcDbLine
 10
442.761378
 20
202.733206
 30
0.0
 11
442.761378
 21
201.733206
 31
0.0
  0
LINE
  5
3F5
100
AcDbEntity
  8
1
390
0
  6
DOT
 62
     9
100
AcDbLine
 10
440.961378
 20
202.933206
 30
0.0
 11
442.461378
 21
202.933206
 31
0.0
  0
LINE
  5
3F6
100
AcDbEntity
  8
1
390
0
  6
DOT
 62
     9
100
AcDbLine
 10
442.461378
 20
202.933206
 30
0.0
 11
443.961378
 21
202.933206
 31
0.0
  0
LINE
  5
3F7
100
AcDbEntity
  8
1
390
0
  6
Continuous
 62
     7
100
AcDbLine
 10
410.22883
 20
298.96583
 30
0.0
 11
410.22883
 21
224.500582
 31
0.0
  0
LINE
  5
3F8
100
AcDbEntity
  8
1
390
0
  6
Continuous
 62
     7
100
AcDbLine
 10
410.490659
 20
224.762411
 30
0.0
 11
410.490659
 21
298.704001
 31
0.0
  0
LINE
  5
3F9
100
AcDbEntity
  8
1
390
0
  6
DOT
 62
     9
100
AcDbLine
 10
509.461378
 20
223.733206
 30
0.0
 11
411.461378
 21
223.733206
 31
0.0
  0
POLYLINE
  5
3FA
100
AcDbEntity
  8
1
390
0
  6
Continuous
 62
     7
100
AcDb2dPolyline
 66
     1
 10
0.0
 20
0.0
 30
0.0
 40
3.0
 41
3.0
  0
VERTEX
  5
3FB
100
AcDbEntity
  8
1
390
0
 62
     7
100
AcDbVertex
100
AcDb2dVertex
 10
410.720029
 20
223.991934
 30
0.0
  0
VERTEX
  5
3FC
100
AcDbEntity
  8
1
390
0
 62
     7
100
AcDbVertex
100
AcDb2dVertex
 10
410.695925
 20
223.992964
 30
0.0
  0
VERTEX
  5
3FD
100
AcDbEntity
  8
1
390
0
 62
     7
100
AcDbVertex
100
AcDb2dVertex
 10
410.671878
 20
223.995196
 30
0.0
  0
VERTEX
  5
3FE
100
AcDbEntity
  8
1
390
0
 62
     7
100
AcDbVertex
100
AcDb2dVertex
 10
410.647949
 20
223.998624
 30
0.0
  0
VERTEX
  5
3FF
100
AcDbEntity
  8
1
390
0
 62
     7
100
AcDbVertex
100
AcDb2dVertex
 10
410.624193
 20
224.003241
 30
0.0
  0
VERTEX
  5
400
100
AcDbEntity
  8
1
390
0
 62
     7
100
AcDbVertex
100
AcDb2dVertex
 10
410.600668
 20
224.009035
 30
0.0
  0
VERTEX
  5
401
100
AcDbEntity
  8
1
390
0
 62
     7
100
AcDbVertex
100
AcDb2dVertex
 10
410.577431
 20
224.015991
 30
0.0
  0
VERTEX
  5
402
100
AcDbEntity
  8
1
390
0
 62
     7
100
AcDbVertex
100
AcDb2dVertex
 10
410.554538
 20
224.024094
 30
0.0
  0
VERTEX
  5
403
100
AcDbEntity
  8
1
390
0
 62
     7
100
AcDbVertex
100
AcDb2dVertex
 10
410.532044
 20
224.033324
 30
0.0
  0
VERTEX
  5
404
100
AcDbEntity
  8
1
390
0
 62
     7
100
AcDbVertex
100
AcDb2dVertex
 10
410.510003
 20
224.043659
 30
0.0
  0
VERTEX
  5
405
100
AcDbEntity
  8
1
390
0
 62
     7
100
AcDbVertex
100
AcDb2dVertex
 10
410.488468
 20
224.055073
 30
0.0
  0
VERTEX
  5
406
100
AcDbEntity
  8
1
390
0
 62
     7
100
AcDbVertex
100
AcDb2dVertex
 10
410.467491
 20
224.067539
 30
0.0
  0
VERTEX
  5
407
100
AcDbEntity
  8
1
390
0
 62
     7
100
AcDbVertex
100
AcDb2dVertex
 10
410.447122
 20
224.081027
 30
0.0
  0
VERTEX
  5
408
100
AcDbEntity
  8
1
390
0
 62
     7
100
AcDbVertex
100
AcDb2dVertex
 10
410.427411
 20
224.095506
 30
0.0
  0
VERTEX
  5
409
100
AcDbEntity
  8
1
390
0
 62
     7
100
AcDbVertex
100
AcDb2dVertex
 10
410.408405
 20
224.110939
 30
0.0
  0
VERTEX
  5
40A
100
AcDbEntity
  8
1
390
0
 62
     7
100
AcDbVertex
100
AcDb2dVertex
 10
410.39015
 20
224.127289
 30
0.0
  0
VERTEX
  5
40B
100
AcDbEntity
  8
1
390
0
 62
     7
100
AcDbVertex
100
AcDb2dVertex
 10
410.37269
 20
224.144518
 30
0.0
  0
VERTEX
  5
40C
100
AcDbEntity
  8
1
390
0
 62
     7
100
AcDbVertex
100
AcDb2dVertex
 10
410.356066
 20
224.162584
 30
0.0
  0
VERTEX
  5
40D
100
AcDbEntity
  8
1
390
0
 62
     7
100
AcDbVertex
100
AcDb2dVertex
 10
410.34032
 20
224.181443
 30
0.0
  0
VERTEX
  5
40E
100
AcDbEntity
  8
1
390
0
 62
     7
100
AcDbVertex
100
AcDb2dVertex
 10
410.325488
 20
224.20105
 30
0.0
  0
VERTEX
  5
40F
100
AcDbEntity
  8
1
390
0
 62
     7
100
AcDbVertex
100
AcDb2dVertex
 10
410.311606
 20
224.221358
 30
0.0
  0
VERTEX
  5
410
100
AcDbEntity
  8
1
390
0
 62
     7
100
AcDbVertex
100
AcDb2dVertex
 10
410.298708
 20
224.242317
 30
0.0
  0
VERTEX
  5
411
100
AcDbEntity
  8
1
390
0
 62
     7
100
AcDbVertex
100
AcDb2dVertex
 10
410.286826
 20
224.263878
 30
0.0
  0
VERTEX
  5
412
100
AcDbEntity
  8
1
390
0
 62
     7
100
AcDbVertex
100
AcDb2dVertex
 10
410.275987
 20
224.285988
 30
0.0
  0
VERTEX
  5
413
100
AcDbEntity
  8
1
390
0
 62
     7
100
AcDbVertex
100
AcDb2dVertex
 10
410.266217
 20
224.308594
 30
0.0
  0
VERTEX
  5
414
100
AcDbEntity
  8
1
390
0
 62
     7
100
AcDbVertex
100
AcDb2dVertex
 10
410.257541
 20
224.331642
 30
0.0
  0
VERTEX
  5
415
100
AcDbEntity
  8
1
390
0
 62
     7
100
AcDbVertex
100
AcDb2dVertex
 10
410.249979
 20
224.355076
 30
0.0
  0
VERTEX
  5
416
100
AcDbEntity
  8
1
390
0
 62
     7
100
AcDbVertex
100
AcDb2dVertex
 10
410.243549
 20
224.37884
 30
0.0
  0
VERTEX
  5
417
100
AcDbEntity
  8
1
390
0
 62
     7
100
AcDbVertex
100
AcDb2dVertex
 10
410.238268
 20
224.402876
 30
0.0
  0
VERTEX
  5
418
100
AcDbEntity
  8
1
390
0
 62
     7
100
AcDbVertex
100
AcDb2dVertex
 10
410.234146
 20
224.427127
 30
0.0
  0
VERTEX
  5
419
100
AcDbEntity
  8
1
390
0
 62
     7
100
AcDbVertex
100
AcDb2dVertex
 10
410.231195
 20
224.451535
 30
0.0
  0
VERTEX
  5
41A
100
AcDbEntity
  8
1
390
0
 62
     7
100
AcDbVertex
100
AcDb2dVertex
 10
410.229422
 20
224.476039
 30
0.0
  0
VERTEX
  5
41B
100
AcDbEntity
  8
1
390
0
 62
     7
100
AcDbVertex
100
AcDb2dVertex
 10
410.22883
 20
224.500582
 30
0.0
  0
SEQEND
  5
41C
100
AcDbEntity
  8
0
390
0
  0
ELLIPSE
  5
41D
100
AcDbEntity
  8
1
390
0
  6
Continuous
 62
     7
100
AcDbEllipse
 10
410.990735
 20
224.762563
 30
0.0
 11
-0.3536610945847896
 21
-0.3536610945847896
 31
0.0
210
0.0
220
0.0
230
1.0
 40
0.999695
 41
5.4979394370297019
 42
7.068431177329443
  0
LINE
  5
41E
100
AcDbEntity
  8
1
390
0
  6
Continuous
 62
     7
100
AcDbLine
 10
411.211378
 20
299.483206
 30
0.0
 11
510.211454
 21
299.483206
 31
0.0
  0
LINE
  5
41F
100
AcDbEntity
  8
1
390
0
  6
Continuous
 62
     7
100
AcDbLine
 10
410.990583
 20
299.203925
 30
0.0
 11
509.932173
 21
299.203925
 31
0.0
  0
LINE
  5
420
100
AcDbEntity
  8
1
390
0
  6
Continuous
 62
     7
100
AcDbLine
 10
411.211378
 20
299.483206
 30
0.0
 11
410.720029
 21
299.474479
 31
0.0
  0
POLYLINE
  5
421
100
AcDbEntity
  8
1
390
0
  6
Continuous
 62
     7
100
AcDb2dPolyline
 66
     1
 10
0.0
 20
0.0
 30
0.0
 40
3.0
 41
3.0
  0
VERTEX
  5
422
100
AcDbEntity
  8
1
390
0
 62
     7
100
AcDbVertex
100
AcDb2dVertex
 10
410.22883
 20
298.96583
 30
0.0
  0
VERTEX
  5
423
100
AcDbEntity
  8
1
390
0
 62
     7
100
AcDbVertex
100
AcDb2dVertex
 10
410.229422
 20
298.990373
 30
0.0
  0
VERTEX
  5
424
100
AcDbEntity
  8
1
390
0
 62
     7
100
AcDbVertex
100
AcDb2dVertex
 10
410.231195
 20
299.014878
 30
0.0
  0
VERTEX
  5
425
100
AcDbEntity
  8
1
390
0
 62
     7
100
AcDbVertex
100
AcDb2dVertex
 10
410.234146
 20
299.039285
 30
0.0
  0
VERTEX
  5
426
100
AcDbEntity
  8
1
390
0
 62
     7
100
AcDbVertex
100
AcDb2dVertex
 10
410.238268
 20
299.063536
 30
0.0
  0
VERTEX
  5
427
100
AcDbEntity
  8
1
390
0
 62
     7
100
AcDbVertex
100
AcDb2dVertex
 10
410.243549
 20
299.087572
 30
0.0
  0
VERTEX
  5
428
100
AcDbEntity
  8
1
390
0
 62
     7
100
AcDbVertex
100
AcDb2dVertex
 10
410.249979
 20
299.111336
 30
0.0
  0
VERTEX
  5
429
100
AcDbEntity
  8
1
390
0
 62
     7
100
AcDbVertex
100
AcDb2dVertex
 10
410.257541
 20
299.13477
 30
0.0
  0
VERTEX
  5
42A
100
AcDbEntity
  8
1
390
0
 62
     7
100
AcDbVertex
100
AcDb2dVertex
 10
410.266217
 20
299.157818
 30
0.0
  0
VERTEX
  5
42B
100
AcDbEntity
  8
1
390
0
 62
     7
100
AcDbVertex
100
AcDb2dVertex
 10
410.275987
 20
299.180424
 30
0.0
  0
VERTEX
  5
42C
100
AcDbEntity
  8
1
390
0
 62
     7
100
AcDbVertex
100
AcDb2dVertex
 10
410.286826
 20
299.202534
 30
0.0
  0
VERTEX
  5
42D
100
AcDbEntity
  8
1
390
0
 62
     7
100
AcDbVertex
100
AcDb2dVertex
 10
410.298708
 20
299.224095
 30
0.0
  0
VERTEX
  5
42E
100
AcDbEntity
  8
1
390
0
 62
     7
100
AcDbVertex
100
AcDb2dVertex
 10
410.311606
 20
299.245054
 30
0.0
  0
VERTEX
  5
42F
100
AcDbEntity
  8
1
390
0
 62
     7
100
AcDbVertex
100
AcDb2dVertex
 10
410.325488
 20
299.265362
 30
0.0
  0
VERTEX
  5
430
100
AcDbEntity
  8
1
390
0
 62
     7
100
AcDbVertex
100
AcDb2dVertex
 10
410.34032
 20
299.284969
 30
0.0
  0
VERTEX
  5
431
100
AcDbEntity
  8
1
390
0
 62
     7
100
AcDbVertex
100
AcDb2dVertex
 10
410.356066
 20
299.303828
 30
0.0
  0
VERTEX
  5
432
100
AcDbEntity
  8
1
390
0
 62
     7
100
AcDbVertex
100
AcDb2dVertex
 10
410.37269
 20
299.321894
 30
0.0
  0
VERTEX
  5
433
100
AcDbEntity
  8
1
390
0
 62
     7
100
AcDbVertex
100
AcDb2dVertex
 10
410.39015
 20
299.339123
 30
0.0
  0
VERTEX
  5
434
100
AcDbEntity
  8
1
390
0
 62
     7
100
AcDbVertex
100
AcDb2dVertex
 10
410.408405
 20
299.355474
 30
0.0
  0
VERTEX
  5
435
100
AcDbEntity
  8
1
390
0
 62
     7
100
AcDbVertex
100
AcDb2dVertex
 10
410.427411
 20
299.370907
 30
0.0
  0
VERTEX
  5
436
100
AcDbEntity
  8
1
390
0
 62
     7
100
AcDbVertex
100
AcDb2dVertex
 10
410.447122
 20
299.385385
 30
0.0
  0
VERTEX
  5
437
100
AcDbEntity
  8
1
390
0
 62
     7
100
AcDbVertex
100
AcDb2dVertex
 10
410.467491
 20
299.398873
 30
0.0
  0
VERTEX
  5
438
100
AcDbEntity
  8
1
390
0
 62
     7
100
AcDbVertex
100
AcDb2dVertex
 10
410.488468
 20
299.41134
 30
0.0
  0
VERTEX
  5
439
100
AcDbEntity
  8
1
390
0
 62
     7
100
AcDbVertex
100
AcDb2dVertex
 10
410.510003
 20
299.422754
 30
0.0
  0
VERTEX
  5
43A
100
AcDbEntity
  8
1
390
0
 62
     7
100
AcDbVertex
100
AcDb2dVertex
 10
410.532044
 20
299.433088
 30
0.0
  0
VERTEX
  5
43B
100
AcDbEntity
  8
1
390
0
 62
     7
100
AcDbVertex
100
AcDb2dVertex
 10
410.554538
 20
299.442318
 30
0.0
  0
VERTEX
  5
43C
100
AcDbEntity
  8
1
390
0
 62
     7
100
AcDbVertex
100
AcDb2dVertex
 10
410.577431
 20
299.450421
 30
0.0
  0
VERTEX
  5
43D
100
AcDbEntity
  8
1
390
0
 62
     7
100
AcDbVertex
100
AcDb2dVertex
 10
410.600668
 20
299.457378
 30
0.0
  0
VERTEX
  5
43E
100
AcDbEntity
  8
1
390
0
 62
     7
100
AcDbVertex
100
AcDb2dVertex
 10
410.624193
 20
299.463171
 30
0.0
  0
VERTEX
  5
43F
100
AcDbEntity
  8
1
390
0
 62
     7
100
AcDbVertex
100
AcDb2dVertex
 10
410.647949
 20
299.467788
 30
0.0
  0
VERTEX
  5
440
100
AcDbEntity
  8
1
390
0
 62
     7
100
AcDbVertex
100
AcDb2dVertex
 10
410.671878
 20
299.471216
 30
0.0
  0
VERTEX
  5
441
100
AcDbEntity
  8
1
390
0
 62
     7
100
AcDbVertex
100
AcDb2dVertex
 10
410.695925
 20
299.473448
 30
0.0
  0
VERTEX
  5
442
100
AcDbEntity
  8
1
390
0
 62
     7
100
AcDbVertex
100
AcDb2dVertex
 10
410.720029
 20
299.474479
 30
0.0
  0
SEQEND
  5
443
100
AcDbEntity
  8
0
390
0
  0
ELLIPSE
  5
444
100
AcDbEntity
  8
1
390
0
  6
Continuous
 62
     7
100
AcDbEllipse
 10
410.990735
 20
298.703849
 30
0.0
 11
-0.3536610945847896
 21
0.3536610945847896
 31
0.0
210
0.0
220
0.0
230
1.0
 40
0.999695
 41
5.4979394370297161
 42
7.068431177329443
  0
LINE
  5
445
100
AcDbEntity
  8
1
390
0
  6
Continuous
 62
     7
100
AcDbLine
 10
411.461378
 20
224.262487
 30
0.0
 11
410.990583
 21
224.262487
 31
0.0
  0
ELLIPSE
  5
446
100
AcDbEntity
  8
1
390
0
  6
Continuous
 62
     7
100
AcDbEllipse
 10
509.93202
 20
298.703849
 30
0.0
 11
0.3536610945847896
 21
0.3536610945847896
 31
0.0
210
0.0
220
0.0
230
1.0
 40
0.999695
 41
5.4979394370297161
 42
7.068431177329443
  0
LINE
  5
447
100
AcDbEntity
  8
1
390
0
  6
Continuous
 62
     7
100
AcDbLine
 10
510.432097
 20
298.704001
 30
0.0
 11
510.432097
 21
224.762411
 31
0.0
  0
ELLIPSE
  5
448
100
AcDbEntity
  8
1
390
0
  6
Continuous
 62
     7
100
AcDbEllipse
 10
509.93202
 20
224.762563
 30
0.0
 11
0.3536610945847896
 21
-0.3536610945847896
 31
0.0
210
0.0
220
0.0
230
1.0
 40
0.999695
 41
5.4979394370297436
 42
7.068431177329443
  0
LINE
  5
449
100
AcDbEntity
  8
1
390
0
  6
Continuous
 62
     7
100
AcDbLine
 10
509.932173
 20
224.262487
 30
0.0
 11
509.461378
 21
224.262487
 31
0.0
  0
LINE
  5
44A
100
AcDbEntity
  8
1
390
0
  6
Continuous
 62
     7
100
AcDbLine
 10
510.211454
 20
223.983206
 30
0.0
 11
509.461378
 21
223.983206
 31
0.0
  0
LINE
  5
44B
100
AcDbEntity
  8
1
390
0
  6
DOT
 62
     9
100
AcDbLine
 10
509.461378
 20
223.983206
 30
0.0
 11
411.461378
 21
223.983206
 31
0.0
  0
LINE
  5
44C
100
AcDbEntity
  8
1
390
0
  6
Continuous
 62
     7
100
AcDbLine
 10
411.461378
 20
223.983206
 30
0.0
 11
411.211378
 21
223.983206
 31
0.0
  0
LINE
  5
44D
100
AcDbEntity
  8
1
390
0
  6
Continuous
 62
     7
100
AcDbLine
 10
410.720029
 20
223.991934
 30
0.0
 11
411.211378
 21
223.983206
 31
0.0
  0
LINE
  5
44E
100
AcDbEntity
  8
1
390
0
  6
DOT
 62
     9
100
AcDbLine
 10
509.461378
 20
224.262487
 30
0.0
 11
411.461378
 21
224.262487
 31
0.0
  0
ELLIPSE
  5
44F
100
AcDbEntity
  8
1
390
0
  6
Continuous
 62
     7
100
AcDbEllipse
 10
510.211301
 20
298.98313
 30
0.0
 11
0.3536610945847896
 21
0.3536610945847896
 31
0.0
210
0.0
220
0.0
230
1.0
 40
0.999695
 41
5.4979394370297161
 42
7.0684311773294706
  0
ELLIPSE
  5
450
100
AcDbEntity
  8
1
390
0
  6
Continuous
 62
     7
100
AcDbEllipse
 10
510.211301
 20
224.483282
 30
0.0
 11
0.3536610945847896
 21
-0.3536610945847896
 31
0.0
210
0.0
220
0.0
230
1.0
 40
0.999695
 41
5.4979394370297161
 42
7.0684311773294706
  0
LINE
  5
451
100
AcDbEntity
  8
1
390
0
  6
Continuous
 62
     7
100
AcDbLine
 10
510.711378
 20
298.983282
 30
0.0
 11
510.711378
 21
224.48313
 31
0.0
  0
LINE
  5
452
100
AcDbEntity
  8
1
390
0
  6
Continuous
 62
     7
100
AcDbLine
 10
427.461378
 20
199.233206
 30
0.0
 11
443.461378
 21
199.233206
 31
0.0
  0
LINE
  5
453
100
AcDbEntity
  8
1
390
0
  6
Continuous
 62
     7
100
AcDbLine
 10
477.461378
 20
199.233206
 30
0.0
 11
493.461378
 21
199.233206
 31
0.0
  0
LINE
  5
454
100
AcDbEntity
  8
1
390
0
  6
Continuous
 62
     7
100
AcDbLine
 10
452.461378
 20
199.233206
 30
0.0
 11
468.461378
 21
199.233206
 31
0.0
  0
LINE
  5
455
100
AcDbEntity
  8
1
390
0
  6
DOT
 62
     9
100
AcDbLine
 10
411.211378
 20
223.983206
 30
0.0
 11
411.211378
 21
225.033206
 31
0.0
  0
LINE
  5
456
100
AcDbEntity
  8
1
390
0
  6
DOT
 62
     9
100
AcDbLine
 10
411.211378
 20
298.433206
 30
0.0
 11
411.211378
 21
299.483206
 31
0.0
  0
LINE
  5
457
100
AcDbEntity
  8
1
390
0
  6
Continuous
 62
     7
100
AcDbLine
 10
410.217954
 20
298.433206
 30
0.0
 11
410.217954
 21
225.033206
 31
0.0
  0
LINE
  5
458
100
AcDbEntity
  8
1
390
0
  6
DOT
 62
     9
100
AcDbLine
 10
411.211378
 20
298.433206
 30
0.0
 11
410.22883
 21
298.433206
 31
0.0
  0
LINE
  5
459
100
AcDbEntity
  8
1
390
0
  6
Continuous
 62
     7
100
AcDbLine
 10
410.22883
 20
298.433206
 30
0.0
 11
410.217954
 21
298.433206
 31
0.0
  0
LINE
  5
45A
100
AcDbEntity
  8
1
390
0
  6
Continuous
 62
     7
100
AcDbLine
 10
410.217954
 20
225.033206
 30
0.0
 11
410.22883
 21
225.033206
 31
0.0
  0
LINE
  5
45B
100
AcDbEntity
  8
1
390
0
  6
DOT
 62
     9
100
AcDbLine
 10
410.22883
 20
225.033206
 30
0.0
 11
411.211378
 21
225.033206
 31
0.0
  0
LINE
  5
45C
100
AcDbEntity
  8
1
390
0
  6
DOT
 62
     9
100
AcDbLine
 10
411.211378
 20
225.033206
 30
0.0
 11
411.211378
 21
298.433206
 31
0.0
  0
LINE
  5
45D
100
AcDbEntity
  8
1
390
0
  6
Continuous
 62
     7
100
AcDbLine
 10
410.217954
 20
298.433206
 30
0.0
 11
410.205736
 21
298.433206
 31
0.0
  0
LINE
  5
45E
100
AcDbEntity
  8
1
390
0
  6
Continuous
 62
     7
100
AcDbLine
 10
410.217954
 20
225.033206
 30
0.0
 11
410.205736
 21
225.033206
 31
0.0
  0
LINE
  5
45F
100
AcDbEntity
  8
1
390
0
  6
Continuous
 62
     7
100
AcDbLine
 10
410.205736
 20
225.033206
 30
0.0
 11
410.205736
 21
224.477527
 31
0.0
  0
LINE
  5
460
100
AcDbEntity
  8
1
390
0
  6
Continuous
 62
     7
100
AcDbLine
 10
409.961378
 20
299.233243
 30
0.0
 11
409.961378
 21
224.233169
 31
0.0
  0
LINE
  5
461
100
AcDbEntity
  8
1
390
0
  6
Continuous
 62
     7
100
AcDbLine
 10
410.205736
 20
298.988885
 30
0.0
 11
410.205736
 21
298.433206
 31
0.0
  0
LINE
  5
462
100
AcDbEntity
  8
1
390
0
  6
DOT
 62
     9
100
AcDbLine
 10
411.211378
 20
225.033206
 30
0.0
 11
509.361378
 21
225.033206
 31
0.0
  0
LINE
  5
463
100
AcDbEntity
  8
1
390
0
  6
DOT
 62
     9
100
AcDbLine
 10
509.361378
 20
298.433206
 30
0.0
 11
411.211378
 21
298.433206
 31
0.0
  0
LINE
  5
464
100
AcDbEntity
  8
1
390
0
  6
DOT
 62
     9
100
AcDbLine
 10
509.361378
 20
225.033206
 30
0.0
 11
509.361378
 21
298.433206
 31
0.0
  0
LINE
  5
465
100
AcDbEntity
  8
1
390
0
  6
Continuous
 62
     7
100
AcDbLine
 10
510.461415
 20
299.733206
 30
0.0
 11
410.46134
 21
299.733206
 31
0.0
  0
LINE
  5
466
100
AcDbEntity
  8
1
390
0
  6
Continuous
 62
     7
100
AcDbLine
 10
510.217057
 20
299.488848
 30
0.0
 11
410.705699
 21
299.488848
 31
0.0
  0
ELLIPSE
  5
467
100
AcDbEntity
  8
1
390
0
  6
Continuous
 62
     7
100
AcDbEllipse
 10
510.216982
 20
224.477602
 30
0.0
 11
0.3536061641818966
 21
-0.3536061641819244
 31
0.0
210
0.0
220
0.0
230
1.0
 40
0.999851
 41
5.4978617713371136
 42
7.0685088430220731
  0
LINE
  5
468
100
AcDbEntity
  8
1
390
0
  6
Continuous
 62
     7
100
AcDbLine
 10
410.705699
 20
223.977564
 30
0.0
 11
411.461378
 21
223.977564
 31
0.0
  0
LINE
  5
469
100
AcDbEntity
  8
1
390
0
  6
DOT
 62
     9
100
AcDbLine
 10
411.461378
 20
223.977564
 30
0.0
 11
509.461378
 21
223.977564
 31
0.0
  0
LINE
  5
46A
100
AcDbEntity
  8
1
390
0
  6
Continuous
 62
     7
100
AcDbLine
 10
509.461378
 20
223.977564
 30
0.0
 11
510.217057
 21
223.977564
 31
0.0
  0
ELLIPSE
  5
46B
100
AcDbEntity
  8
1
390
0
  6
Continuous
 62
     7
100
AcDbEllipse
 10
410.705773
 20
224.477602
 30
0.0
 11
-0.3536061641819521
 21
-0.3536061641819244
 31
0.0
210
0.0
220
0.0
230
1.0
 40
0.999851
 41
5.4978617713371136
 42
7.0685088430220455
  0
ELLIPSE
  5
46C
100
AcDbEntity
  8
1
390
0
  6
Continuous
 62
     7
100
AcDbEllipse
 10
410.705773
 20
298.988811
 30
0.0
 11
-0.3536061641819521
 21
0.3536061641819521
 31
0.0
210
0.0
220
0.0
230
1.0
 40
0.999851
 41
5.4978617713371136
 42
7.0685088430220597
  0
ELLIPSE
  5
46D
100
AcDbEntity
  8
1
390
0
  6
Continuous
 62
     7
100
AcDbEllipse
 10
510.216982
 20
298.988811
 30
0.0
 11
0.3536061641818966
 21
0.3536061641819521
 31
0.0
210
0.0
220
0.0
230
1.0
 40
0.999851
 41
5.4978617713371136
 42
7.0685088430220597
  0
LINE
  5
46E
100
AcDbEntity
  8
1
390
0
  6
Continuous
 62
     7
100
AcDbLine
 10
510.717019
 20
224.477527
 30
0.0
 11
510.717019
 21
298.988885
 31
0.0
  0
ELLIPSE
  5
46F
100
AcDbEntity
  8
1
390
0
  6
Continuous
 62
     7
100
AcDbEllipse
 10
410.461415
 20
224.233243
 30
0.0
 11
-0.3536061641819521
 21
-0.3536061641819244
 31
0.0
210
0.0
220
0.0
230
1.0
 40
0.999851
 41
5.4978617713371554
 42
7.0685088430220731
  0
ELLIPSE
  5
470
100
AcDbEntity
  8
1
390
0
  6
Continuous
 62
     7
100
AcDbEllipse
 10
410.461415
 20
299.233169
 30
0.0
 11
-0.3536061641819521
 21
0.3536061641819521
 31
0.0
210
0.0
220
0.0
230
1.0
 40
0.999851
 41
5.4978617713371136
 42
7.0685088430220455
  0
LINE
  5
471
100
AcDbEntity
  8
1
390
0
  6
Continuous
 62
     7
100
AcDbLine
 10
410.46134
 20
223.733206
 30
0.0
 11
411.461378
 21
223.733206
 31
0.0
  0
LINE
  5
472
100
AcDbEntity
  8
1
390
0
  6
Continuous
 62
     7
100
AcDbLine
 10
509.461378
 20
223.733206
 30
0.0
 11
510.461415
 21
223.733206
 31
0.0
  0
LINE
  5
473
100
AcDbEntity
  8
1
390
0
  6
Continuous
 62
     7
100
AcDbLine
 10
510.961378
 20
224.233169
 30
0.0
 11
510.961378
 21
299.233243
 31
0.0
  0
ELLIPSE
  5
474
100
AcDbEntity
  8
1
390
0
  6
Continuous
 62
     7
100
AcDbEllipse
 10
510.46134
 20
299.233169
 30
0.0
 11
0.3536061641818966
 21
0.3536061641819521
 31
0.0
210
0.0
220
0.0
230
1.0
 40
0.999851
 41
5.4978617713371278
 42
7.0685088430220455
  0
ELLIPSE
  5
475
100
AcDbEntity
  8
1
390
0
  6
Continuous
 62
     7
100
AcDbEllipse
 10
510.46134
 20
224.233243
 30
0.0
 11
0.3536061641818966
 21
-0.3536061641819244
 31
0.0
210
0.0
220
0.0
230
1.0
 40
0.999851
 41
5.4978617713371278
 42
7.0685088430220313
  0
CIRCLE
  5
476
100
AcDbEntity
  8
1
390
0
  6
DOT
 62
     9
100
AcDbCircle
 10
501.461625
 20
233.297667
 30
0.0
 40
3.5
210
0.0
220
0.0
230
0.9999999999999999
  0
LINE
  5
477
100
AcDbEntity
  8
1
390
0
  6
Continuous
 62
     7
100
AcDbLine
 10
511.961378
 20
223.733206
 30
0.0
 11
511.961378
 21
299.733206
 31
0.0
  0
ARC
  5
478
100
AcDbEntity
  8
1
390
0
  6
Continuous
 62
     7
100
AcDbCircle
 10
510.961378
 20
223.733206
 30
0.0
 40
1.0
210
0.0
220
0.0
230
1.0
100
AcDbArc
 50
270.0
 51
360.0
  0
LINE
  5
479
100
AcDbEntity
  8
1
390
0
  6
Continuous
 62
     7
100
AcDbLine
 10
409.961378
 20
222.733206
 30
0.0
 11
411.461378
 21
222.733206
 31
0.0
  0
LINE
  5
47A
100
AcDbEntity
  8
1
390
0
  6
DOT
 62
     9
100
AcDbLine
 10
411.461378
 20
222.733206
 30
0.0
 11
509.461378
 21
222.733206
 31
0.0
  0
LINE
  5
47B
100
AcDbEntity
  8
1
390
0
  6
Continuous
 62
     7
100
AcDbLine
 10
509.461378
 20
222.733206
 30
0.0
 11
510.961378
 21
222.733206
 31
0.0
  0
ARC
  5
47C
100
AcDbEntity
  8
1
390
0
  6
Continuous
 62
     7
100
AcDbCircle
 10
409.961378
 20
223.733206
 30
0.0
 40
1.0
210
0.0
220
0.0
230
1.0
100
AcDbArc
 50
180.0
 51
270.0
  0
LINE
  5
47D
100
AcDbEntity
  8
1
390
0
  6
Continuous
 62
     7
100
AcDbLine
 10
408.961378
 20
299.733206
 30
0.0
 11
408.961378
 21
223.733206
 31
0.0
  0
ARC
  5
47E
100
AcDbEntity
  8
1
390
0
  6
Continuous
 62
     7
100
AcDbCircle
 10
409.961378
 20
299.733206
 30
0.0
 40
1.0
210
0.0
220
0.0
230
1.0
100
AcDbArc
 50
90.0
 51
180.0
  0
LINE
  5
47F
100
AcDbEntity
  8
1
390
0
  6
Continuous
 62
     7
100
AcDbLine
 10
510.961378
 20
300.733206
 30
0.0
 11
409.961378
 21
300.733206
 31
0.0
  0
ARC
  5
480
100
AcDbEntity
  8
1
390
0
  6
Continuous
 62
     7
100
AcDbCircle
 10
510.961378
 20
299.733206
 30
0.0
 40
1.0
210
0.0
220
0.0
230
1.0
100
AcDbArc
 50
0.0
 51
90.0
  0
LINE
  5
481
100
AcDbEntity
  8
1
390
0
  6
DOT
 62
     9
100
AcDbLine
 10
411.961378
 20
297.233206
 30
0.0
 11
411.961378
 21
226.233206
 31
0.0
  0
ARC
  5
482
100
AcDbEntity
  8
1
390
0
  6
DOT
 62
     9
100
AcDbCircle
 10
412.461378
 20
226.233206
 30
0.0
 40
0.5
210
0.0
220
0.0
230
1.0
100
AcDbArc
 50
180.0
 51
270.0
  0
ARC
  5
483
100
AcDbEntity
  8
1
390
0
  6
DOT
 62
     9
100
AcDbCircle
 10
412.461378
 20
297.233206
 30
0.0
 40
0.5
210
0.0
220
0.0
230
1.0
100
AcDbArc
 50
90.0
 51
180.0
  0
LINE
  5
484
100
AcDbEntity
  8
1
390
0
  6
DOT
 62
     9
100
AcDbLine
 10
508.461378
 20
297.733206
 30
0.0
 11
412.461378
 21
297.733206
 31
0.0
  0
LINE
  5
485
100
AcDbEntity
  8
1
390
0
  6
DOT
 62
     9
100
AcDbLine
 10
412.461378
 20
225.733206
 30
0.0
 11
508.461378
 21
225.733206
 31
0.0
  0
ARC
  5
486
100
AcDbEntity
  8
1
390
0
  6
DOT
 62
     9
100
AcDbCircle
 10
508.461378
 20
226.233206
 30
0.0
 40
0.5
210
0.0
220
0.0
230
1.0
100
AcDbArc
 50
270.0
 51
360.0
  0
ARC
  5
487
100
AcDbEntity
  8
1
390
0
  6
DOT
 62
     9
100
AcDbCircle
 10
508.461378
 20
297.233206
 30
0.0
 40
0.5
210
0.0
220
0.0
230
1.0
100
AcDbArc
 50
0.0
 51
90.0
  0
LINE
  5
488
100
AcDbEntity
  8
1
390
0
  6
DOT
 62
     9
100
AcDbLine
 10
508.961378
 20
226.233206
 30
0.0
 11
508.961378
 21
297.233206
 31
0.0
  0
LINE
  5
489
100
AcDbEntity
  8
1
390
0
  6
Continuous
 62
     7
100
AcDbLine
 10
506.961378
 20
202.133206
 30
0.0
 11
506.961378
 21
202.733206
 31
0.0
  0
LINE
  5
48A
100
AcDbEntity
  8
1
390
0
  6
Continuous
 62
     7
100
AcDbLine
 10
496.961378
 20
202.733206
 30
0.0
 11
496.961378
 21
202.133206
 31
0.0
  0
ARC
  5
48B
100
AcDbEntity
  8
1
390
0
  6
Continuous
 62
     7
100
AcDbCircle
 10
503.211378
 20
200.433206
 30
0.0
 40
2.0
210
0.0
220
0.0
230
1.0
100
AcDbArc
 50
308.682187
 51
360.0
  0
ARC
  5
48C
100
AcDbEntity
  8
1
390
0
  6
Continuous
 62
     7
100
AcDbCircle
 10
500.711378
 20
200.433206
 30
0.0
 40
2.0
210
0.0
220
0.0
230
1.0
100
AcDbArc
 50
180.0
 51
231.317813
  0
LINE
  5
48D
100
AcDbEntity
  8
1
390
0
  6
Continuous
 62
     7
100
AcDbLine
 10
505.211378
 20
200.433206
 30
0.0
 11
505.211378
 21
201.133206
 31
0.0
  0
LINE
  5
48E
100
AcDbEntity
  8
1
390
0
  6
Continuous
 62
     7
100
AcDbLine
 10
498.711378
 20
201.133206
 30
0.0
 11
498.711378
 21
200.433206
 31
0.0
  0
LINE
  5
48F
100
AcDbEntity
  8
1
390
0
  6
Continuous
 62
     7
100
AcDbLine
 10
504.961378
 20
201.133206
 30
0.0
 11
504.961378
 21
202.133206
 31
0.0
  0
LINE
  5
490
100
AcDbEntity
  8
1
390
0
  6
Continuous
 62
     7
100
AcDbLine
 10
498.961378
 20
202.133206
 30
0.0
 11
498.961378
 21
201.133206
 31
0.0
  0
LINE
  5
491
100
AcDbEntity
  8
1
390
0
  6
DOT
 62
     9
100
AcDbLine
 10
499.461378
 20
200.133206
 30
0.0
 11
499.461378
 21
198.871957
 31
0.0
  0
LINE
  5
492
100
AcDbEntity
  8
1
390
0
  6
DOT
 62
     9
100
AcDbLine
 10
504.461378
 20
198.871957
 30
0.0
 11
504.461378
 21
200.133206
 31
0.0
  0
LINE
  5
493
100
AcDbEntity
  8
1
390
0
  6
Continuous
 62
     7
100
AcDbLine
 10
438.461378
 20
202.733206
 30
0.0
 11
438.461378
 21
202.033206
 31
0.0
  0
LINE
  5
494
100
AcDbEntity
  8
1
390
0
  6
Continuous
 62
     7
100
AcDbLine
 10
446.461378
 20
202.033206
 30
0.0
 11
446.461378
 21
202.733206
 31
0.0
  0
LINE
  5
495
100
AcDbEntity
  8
1
390
0
  6
Continuous
 62
     7
100
AcDbLine
 10
438.461378
 20
202.033206
 30
0.0
 11
438.761378
 21
201.733206
 31
0.0
  0
LINE
  5
496
100
AcDbEntity
  8
1
390
0
  6
Continuous
 62
     7
100
AcDbLine
 10
446.161378
 20
201.733206
 30
0.0
 11
446.461378
 21
202.033206
 31
0.0
  0
LINE
  5
497
100
AcDbEntity
  8
1
390
0
  6
DOT
 62
     9
100
AcDbLine
 10
439.961378
 20
207.733206
 30
0.0
 11
439.961378
 21
201.733206
 31
0.0
  0
LINE
  5
498
100
AcDbEntity
  8
1
390
0
  6
DOT
 62
     9
100
AcDbLine
 10
444.961378
 20
201.733206
 30
0.0
 11
444.961378
 21
207.733206
 31
0.0
  0
LINE
  5
499
100
AcDbEntity
  8
1
390
0
  6
DOT
 62
     9
100
AcDbLine
 10
440.961378
 20
202.933206
 30
0.0
 11
441.161378
 21
202.733206
 31
0.0
  0
LINE
  5
49A
100
AcDbEntity
  8
1
390
0
  6
DOT
 62
     9
100
AcDbLine
 10
443.761378
 20
202.733206
 30
0.0
 11
443.961378
 21
202.933206
 31
0.0
  0
LINE
  5
49B
100
AcDbEntity
  8
1
390
0
  6
DOT
 62
     9
100
AcDbLine
 10
443.961378
 20
202.933206
 30
0.0
 11
443.961378
 21
206.115172
 31
0.0
  0
LINE
  5
49C
100
AcDbEntity
  8
1
390
0
  6
DOT
 62
     9
100
AcDbLine
 10
443.961378
 20
206.115172
 30
0.0
 11
443.961378
 21
207.733206
 31
0.0
  0
LINE
  5
49D
100
AcDbEntity
  8
1
390
0
  6
DOT
 62
     9
100
AcDbLine
 10
440.961378
 20
207.733206
 30
0.0
 11
440.961378
 21
202.933206
 31
0.0
  0
LINE
  5
49E
100
AcDbEntity
  8
1
390
0
  6
DOT
 62
     9
100
AcDbLine
 10
443.454198
 20
202.733206
 30
0.0
 11
443.454198
 21
207.733206
 31
0.0
  0
LINE
  5
49F
100
AcDbEntity
  8
1
390
0
  6
DOT
 62
     9
100
AcDbLine
 10
442.854198
 20
207.733206
 30
0.0
 11
442.854198
 21
202.733206
 31
0.0
  0
LINE
  5
4A0
100
AcDbEntity
  8
1
390
0
  6
DOT
 62
     9
100
AcDbLine
 10
442.068557
 20
202.733206
 30
0.0
 11
442.068557
 21
207.733206
 31
0.0
  0
LINE
  5
4A1
100
AcDbEntity
  8
1
390
0
  6
DOT
 62
     9
100
AcDbLine
 10
441.468557
 20
207.733206
 30
0.0
 11
441.468557
 21
202.733206
 31
0.0
  0
LINE
  5
4A2
100
AcDbEntity
  8
1
390
0
  6
DOT
 62
     9
100
AcDbLine
 10
442.761378
 20
202.733206
 30
0.0
 11
442.761378
 21
207.733206
 31
0.0
  0
LINE
  5
4A3
100
AcDbEntity
  8
1
390
0
  6
DOT
 62
     9
100
AcDbLine
 10
442.161378
 20
207.733206
 30
0.0
 11
442.161378
 21
202.733206
 31
0.0
  0
ARC
  5
4A4
100
AcDbEntity
  8
1
390
0
  6
Continuous
 62
     7
100
AcDbCircle
 10
427.461378
 20
202.733206
 30
0.0
 40
3.5
210
0.0
220
0.0
230
1.0
100
AcDbArc
 50
180.0
 51
270.0
  0
ARC
  5
4A5
100
AcDbEntity
  8
1
390
0
  6
Continuous
 62
     7
100
AcDbCircle
 10
443.461378
 20
202.733206
 30
0.0
 40
3.5
210
0.0
220
0.0
230
1.0
100
AcDbArc
 50
270.0
 51
360.0
  0
ARC
  5
4A6
100
AcDbEntity
  8
1
390
0
  6
Continuous
 62
     7
100
AcDbCircle
 10
477.461378
 20
202.733206
 30
0.0
 40
3.5
210
0.0
220
0.0
230
1.0
100
AcDbArc
 50
180.0
 51
270.0
  0
ARC
  5
4A7
100
AcDbEntity
  8
1
390
0
  6
Continuous
 62
     7
100
AcDbCircle
 10
493.461378
 20
202.733206
 30
0.0
 40
3.5
210
0.0
220
0.0
230
1.0
100
AcDbArc
 50
270.0
 51
360.0
  0
ARC
  5
4A8
100
AcDbEntity
  8
1
390
0
  6
Continuous
 62
     7
100
AcDbCircle
 10
452.461378
 20
202.733206
 30
0.0
 40
3.5
210
0.0
220
0.0
230
1.0
100
AcDbArc
 50
180.0
 51
270.0
  0
ARC
  5
4A9
100
AcDbEntity
  8
1
390
0
  6
Continuous
 62
     7
100
AcDbCircle
 10
468.461378
 20
202.733206
 30
0.0
 40
3.5
210
0.0
220
0.0
230
1.0
100
AcDbArc
 50
270.0
 51
360.0
  0
LINE
  5
4AA
100
AcDbEntity
  8
1
390
0
  6
Continuous
 62
     7
100
AcDbLine
 10
428.961378
 20
199.233206
 30
0.0
 11
428.961378
 21
198.733206
 31
0.0
  0
LINE
  5
4AB
100
AcDbEntity
  8
1
390
0
  6
Continuous
 62
     7
100
AcDbLine
 10
441.961378
 20
198.733206
 30
0.0
 11
441.961378
 21
199.233206
 31
0.0
  0
LINE
  5
4AC
100
AcDbEntity
  8
1
390
0
  6
Continuous
 62
     7
100
AcDbLine
 10
453.961378
 20
199.233206
 30
0.0
 11
453.961378
 21
198.733206
 31
0.0
  0
LINE
  5
4AD
100
AcDbEntity
  8
1
390
0
  6
Continuous
 62
     7
100
AcDbLine
 10
466.961378
 20
198.733206
 30
0.0
 11
466.961378
 21
199.233206
 31
0.0
  0
LINE
  5
4AE
100
AcDbEntity
  8
1
390
0
  6
Continuous
 62
     7
100
AcDbLine
 10
478.961378
 20
199.233206
 30
0.0
 11
478.961378
 21
198.733206
 31
0.0
  0
LINE
  5
4AF
100
AcDbEntity
  8
1
390
0
  6
Continuous
 62
     7
100
AcDbLine
 10
491.961378
 20
198.733206
 30
0.0
 11
491.961378
 21
199.233206
 31
0.0
  0
ARC
  5
4B0
100
AcDbEntity
  8
1
390
0
  6
Continuous
 62
     7
100
AcDbCircle
 10
429.461378
 20
198.733206
 30
0.0
 40
0.5
210
0.0
220
0.0
230
1.0
100
AcDbArc
 50
180.0
 51
270.0
  0
ARC
  5
4B1
100
AcDbEntity
  8
1
390
0
  6
DOT
 62
     9
100
AcDbCircle
 10
429.461378
 20
198.733206
 30
0.0
 40
0.5
210
0.0
220
0.0
230
1.0
100
AcDbArc
 50
270.0
 51
360.0
  0
ARC
  5
4B2
100
AcDbEntity
  8
1
390
0
  6
Continuous
 62
     7
100
AcDbCircle
 10
441.461378
 20
198.733206
 30
0.0
 40
0.5
210
0.0
220
0.0
230
1.0
100
AcDbArc
 50
270.0
 51
360.0
  0
ARC
  5
4B3
100
AcDbEntity
  8
1
390
0
  6
DOT
 62
     9
100
AcDbCircle
 10
441.461378
 20
198.733206
 30
0.0
 40
0.5
210
0.0
220
0.0
230
1.0
100
AcDbArc
 50
180.0
 51
270.0
  0
LINE
  5
4B4
100
AcDbEntity
  8
1
390
0
  6
Continuous
 62
     7
100
AcDbLine
 10
429.461378
 20
198.233206
 30
0.0
 11
441.461378
 21
198.233206
 31
0.0
  0
ARC
  5
4B5
100
AcDbEntity
  8
1
390
0
  6
Continuous
 62
     7
100
AcDbCircle
 10
454.461378
 20
198.733206
 30
0.0
 40
0.5
210
0.0
220
0.0
230
1.0
100
AcDbArc
 50
180.0
 51
270.0
  0
ARC
  5
4B6
100
AcDbEntity
  8
1
390
0
  6
DOT
 62
     9
100
AcDbCircle
 10
454.461378
 20
198.733206
 30
0.0
 40
0.5
210
0.0
220
0.0
230
1.0
100
AcDbArc
 50
270.0
 51
360.0
  0
ARC
  5
4B7
100
AcDbEntity
  8
1
390
0
  6
Continuous
 62
     7
100
AcDbCircle
 10
466.461378
 20
198.733206
 30
0.0
 40
0.5
210
0.0
220
0.0
230
1.0
100
AcDbArc
 50
270.0
 51
360.0
  0
ARC
  5
4B8
100
AcDbEntity
  8
1
390
0
  6
DOT
 62
     9
100
AcDbCircle
 10
466.461378
 20
198.733206
 30
0.0
 40
0.5
210
0.0
220
0.0
230
1.0
100
AcDbArc
 50
180.0
 51
270.0
  0
LINE
  5
4B9
100
AcDbEntity
  8
1
390
0
  6
Continuous
 62
     7
100
AcDbLine
 10
454.461378
 20
198.233206
 30
0.0
 11
466.461378
 21
198.233206
 31
0.0
  0
ARC
  5
4BA
100
AcDbEntity
  8
1
390
0
  6
Continuous
 62
     7
100
AcDbCircle
 10
479.461378
 20
198.733206
 30
0.0
 40
0.5
210
0.0
220
0.0
230
1.0
100
AcDbArc
 50
180.0
 51
270.0
  0
ARC
  5
4BB
100
AcDbEntity
  8
1
390
0
  6
DOT
 62
     9
100
AcDbCircle
 10
479.461378
 20
198.733206
 30
0.0
 40
0.5
210
0.0
220
0.0
230
1.0
100
AcDbArc
 50
270.0
 51
360.0
  0
ARC
  5
4BC
100
AcDbEntity
  8
1
390
0
  6
Continuous
 62
     7
100
AcDbCircle
 10
491.461378
 20
198.733206
 30
0.0
 40
0.5
210
0.0
220
0.0
230
1.0
100
AcDbArc
 50
270.0
 51
360.0
  0
ARC
  5
4BD
100
AcDbEntity
  8
1
390
0
  6
DOT
 62
     9
100
AcDbCircle
 10
491.461378
 20
198.733206
 30
0.0
 40
0.5
210
0.0
220
0.0
230
1.0
100
AcDbArc
 50
180.0
 51
270.0
  0
LINE
  5
4BE
100
AcDbEntity
  8
1
390
0
  6
Continuous
 62
     7
100
AcDbLine
 10
479.461378
 20
198.233206
 30
0.0
 11
491.461378
 21
198.233206
 31
0.0
  0
LINE
  5
4BF
100
AcDbEntity
  8
1
390
0
  6
DOT
 62
     9
100
AcDbLine
 10
429.961378
 20
199.233206
 30
0.0
 11
429.961378
 21
198.733206
 31
0.0
  0
LINE
  5
4C0
100
AcDbEntity
  8
1
390
0
  6
DOT
 62
     9
100
AcDbLine
 10
440.961378
 20
198.733206
 30
0.0
 11
440.961378
 21
199.233206
 31
0.0
  0
LINE
  5
4C1
100
AcDbEntity
  8
1
390
0
  6
DOT
 62
     9
100
AcDbLine
 10
454.961378
 20
199.233206
 30
0.0
 11
454.961378
 21
198.733206
 31
0.0
  0
LINE
  5
4C2
100
AcDbEntity
  8
1
390
0
  6
DOT
 62
     9
100
AcDbLine
 10
465.961378
 20
198.733206
 30
0.0
 11
465.961378
 21
199.233206
 31
0.0
  0
LINE
  5
4C3
100
AcDbEntity
  8
1
390
0
  6
DOT
 62
     9
100
AcDbLine
 10
479.961378
 20
199.233206
 30
0.0
 11
479.961378
 21
198.733206
 31
0.0
  0
LINE
  5
4C4
100
AcDbEntity
  8
1
390
0
  6
DOT
 62
     9
100
AcDbLine
 10
490.961378
 20
198.733206
 30
0.0
 11
490.961378
 21
199.233206
 31
0.0
  0
LINE
  5
4C6
100
AcDbEntity
  8
1
390
0
  6
CENTER
 62
     1
100
AcDbLine
 10
75.207416
 20
251.733206
 30
0.0
 11
178.207416
 21
251.733206
 31
0.0
  0
LINE
  5
4C7
100
AcDbEntity
  8
1
390
0
  6
CENTER
 62
     1
100
AcDbLine
 10
126.707416
 20
201.733206
 30
0.0
 11
126.707416
 21
301.733206
 31
0.0
  0
LINE
  5
4C8
100
AcDbEntity
  8
1
390
0
  6
CENTER
 62
     1
100
AcDbLine
 10
511.961378
 20
251.733206
 30
0.0
 11
408.961378
 21
251.733206
 31
0.0
  0
LINE
  5
4C9
100
AcDbEntity
  8
1
390
0
  6
CENTER
 62
     1
100
AcDbLine
 10
460.461378
 20
201.733206
 30
0.0
 11
460.461378
 21
301.733206
 31
0.0
  0
INSERT
  5
4DB
100
AcDbEntity
  8
1
390
0
100
AcDbBlockReference
  2
AID1615
 10
0.0
 20
0.0
 30
0.0
  0
INSERT
  5
4ED
100
AcDbEntity
  8
1
390
0
100
AcDbBlockReference
  2
AID1628
 10
0.0
 20
0.0
 30
0.0
  0
INSERT
  5
4FF
100
AcDbEntity
  8
1
390
0
100
AcDbBlockReference
  2
AID1641
 10
0.0
 20
0.0
 30
0.0
  0
INSERT
  5
511
100
AcDbEntity
  8
1
390
0
100
AcDbBlockReference
  2
AID1654
 10
0.0
 20
0.0
 30
0.0
  0
INSERT
  5
516
100
AcDbEntity
  8
1
390
0
100
AcDbBlockReference
  2
AID1667
 10
0.0
 20
0.0
 30
0.0
  0
INSERT
  5
51B
100
AcDbEntity
  8
1
390
0
100
AcDbBlockReference
  2
AID1670
 10
0.0
 20
0.0
 30
0.0
  0
INSERT
  5
520
100
AcDbEntity
  8
1
390
0
100
AcDbBlockReference
  2
AID1673
 10
0.0
 20
0.0
 30
0.0
  0
ENDSEC
  0
SECTION
  2
OBJECTS
  0
DICTIONARY
  5
19
100
AcDbDictionary
280
     0
281
     1
  3
ACAD_GROUP
350
1A
  3
ACAD_MLINESTYLE
350
1B
  3
ACAD_LAYOUT
350
1E
  3
ACAD_PLOTSETTINGS
350
22
  3
ACAD_PLOTSTYLENAME
350
1F
  3
ACAD_WIPEOUT_VARS
350
23
  0
DICTIONARY
  5
1A
102
{ACAD_REACTORS
330
19
102
}
100
AcDbDictionary
280
     0
281
     1
  0
DICTIONARY
  5
1B
102
{ACAD_REACTORS
330
19
102
}
100
AcDbDictionary
280
     0
281
     1
  3
Standard
350
1C
  0
MLINESTYLE
  5
1C
102
{ACAD_REACTORS
330
1B
102
}
100
AcDbMlineStyle
  2
Standard
 70
     0
  3

 62
     0
 51
90.0
 52
90.0
 71
     2
 49
0.5
 62
   256
  6
ByLayer
 49
-0.5
 62
   256
  6
ByLayer
  0
ACDBDICTIONARYWDFLT
  5
1F
102
{ACAD_REACTORS
330
19
102
}
100
AcDbDictionary
281
     1
  3
Normal
350
1D
100
AcDbDictionaryWithDefault
340
1D
  0
ACDBPLACEHOLDER
  5
1D
102
{ACAD_REACTORS
330
1F
102
}
  0
LAYOUT
  5
20
102
{ACAD_REACTORS
330
1E
102
}
100
AcDbPlotSettings
  1

  2

  4

  6

 40
0.0
 41
0.0
 42
0.0
 43
0.0
 44
0.0
 45
0.0
 46
0.0
 47
0.0
 48
0.0
 49
0.0
140
0.0
141
0.0
142
1.0
143
1.0
 70
  1024
 72
     0
 73
     0
 74
     0
  7

 75
     0
147
1.0
148
0.0
149
0.0
100
AcDbLayout
  1
Model
 70
     0
 71
     0
 10
0.0
 20
0.0
 11
0.0
 21
0.0
 12
0.0
 22
0.0
 32
0.0
 14
0.0
 24
0.0
 34
0.0
 15
0.0
 25
0.0
 35
0.0
146
0.0
 13
0.0
 23
0.0
 33
0.0
 16
0.0
 26
0.0
 36
0.0
 17
0.0
 27
0.0
 37
0.0
 76
     0
330
A
331
0
345
0
346
0
  0
LAYOUT
  5
21
102
{ACAD_REACTORS
330
1E
102
}
100
AcDbPlotSettings
  1

  2

  4

  6

 40
0.0
 41
0.0
 42
0.0
 43
0.0
 44
0.0
 45
0.0
 46
0.0
 47
0.0
 48
0.0
 49
0.0
140
0.0
141
0.0
142
1.0
143
1.0
 70
     0
 72
     0
 73
     0
 74
     0
  7

 75
     0
147
1.0
148
0.0
149
0.0
100
AcDbLayout
  1
Layout1
 70
     0
 71
     0
 10
0.0
 20
0.0
 11
0.0
 21
0.0
 12
0.0
 22
0.0
 32
0.0
 14
0.0
 24
0.0
 34
0.0
 15
0.0
 25
0.0
 35
0.0
146
0.0
 13
0.0
 23
0.0
 33
0.0
 16
0.0
 26
0.0
 36
0.0
 17
0.0
 27
0.0
 37
0.0
 76
     0
330
B
331
0
345
0
346
0
  0
DICTIONARY
  5
1E
102
{ACAD_REACTORS
330
19
102
}
100
AcDbDictionary
280
     0
281
     1
  3
Layout1
350
21
  3
Model
350
20
  0
DICTIONARY
  5
22
102
{ACAD_REACTORS
330
19
102
}
100
AcDbDictionary
280
     0
281
     1
  0
WIPEOUTVARIABLES
  5
23
100
AcDbWipeoutVariables
 70
     1
  0
ENDSEC
  0
EOF
