  0
SECTION
  2
HEADER
  9
$ACADVER
  1
AC1012
  9
$DWGCODEPAGE
  3
dos932
  9
$INSBASE
 10
0.0
 20
0.0
 30
0.0
  9
$EXTMIN
 10
0.0
 20
0.0
 30
0.0
  9
$EXTMAX
 10
420.334327336952
 20
297.490998986974
 30
0.0
  9
$LIMMIN
 10
0.0
 20
0.0
  9
$LIMMAX
 10
420.334327336952
 20
297.490998986974
  9
$ORTHOMODE
 70
           0
  9
$REGENMODE
 70
           1
  9
$FILLMODE
 70
           1
  9
$QTEXTMODE
 70
           0
  9
$MIRRTEXT
 70
           1
  9
$DRAGMODE
 70
           2
  9
$LTSCALE
 40
1.0
  9
$OSMODE
 70
           0
  9
$ATTMODE
 70
           1
  9
$TEXTSIZE
 40
0.2
  9
$TRACEWID
 40
0.05
  9
$TEXTSTYLE
  7
STANDARD
  9
$CLAYER
  8
0
  9
$CELTYPE
  6
CONTINUOUS
  9
$CECOLOR
 62
         256
  9
$CELTSCALE
 40
1.0
  9
$DELOBJ
 70
           1
  9
$DISPSILH
 70
           0
  9
$DIMSCALE
 40
1.0
  9
$DIMASZ
 40
0.18
  9
$DIMEXO
 40
0.0625
  9
$DIMDLI
 40
0.38
  9
$DIMRND
 40
0.0
  9
$DIMDLE
 40
0.0
  9
$DIMEXE
 40
0.18
  9
$DIMTP
 40
0.0
  9
$DIMTM
 40
0.0
  9
$DIMTXT
 40
0.18
  9
$DIMCEN
 40
0.09
  9
$DIMTSZ
 40
0.0
  9
$DIMTOL
 70
           0
  9
$DIMLIM
 70
           0
  9
$DIMTIH
 70
           1
  9
$DIMTOH
 70
           1
  9
$DIMSE1
 70
           0
  9
$DIMSE2
 70
           0
  9
$DIMTAD
 70
           0
  9
$DIMZIN
 70
           0
  9
$DIMBLK
  1

  9
$DIMASO
 70
           1
  9
$DIMSHO
 70
           1
  9
$DIMPOST
  1

  9
$DIMAPOST
  1

  9
$DIMALT
 70
           0
  9
$DIMALTD
 70
           2
  9
$DIMALTF
 40
25.4
  9
$DIMLFAC
 40
1.0
  9
$DIMTOFL
 70
           0
  9
$DIMTVP
 40
0.0
  9
$DIMTIX
 70
           0
  9
$DIMSOXD
 70
           0
  9
$DIMSAH
 70
           0
  9
$DIMBLK1
  1

  9
$DIMBLK2
  1

  9
$DIMSTYLE
  2
STANDARD
  9
$DIMCLRD
 70
           0
  9
$DIMCLRE
 70
           0
  9
$DIMCLRT
 70
           0
  9
$DIMTFAC
 40
1.0
  9
$DIMGAP
 40
0.09
  9
$DIMJUST
 70
           0
  9
$DIMSD1
 70
           0
  9
$DIMSD2
 70
           0
  9
$DIMTOLJ
 70
           1
  9
$DIMTZIN
 70
           0
  9
$DIMALTZ
 70
           0
  9
$DIMALTTZ
 70
           0
  9
$DIMFIT
 70
           3
  9
$DIMUPT
 70
           0
  9
$DIMUNIT
 70
           2
  9
$DIMDEC
 70
           4
  9
$DIMTDEC
 70
           4
  9
$DIMALTU
 70
           2
  9
$DIMALTTD
 70
           2
  9
$DIMTXSTY
  7
STANDARD
  9
$DIMAUNIT
 70
           0
  9
$LUNITS
 70
           2
  9
$LUPREC
 70
           4
  9
$SKETCHINC
 40
0.1
  9
$FILLETRAD
 40
0.0
  9
$AUNITS
 70
           0
  9
$AUPREC
 70
           0
  9
$MENU
  1
acad
  9
$ELEVATION
 40
0.0
  9
$PELEVATION
 40
0.0
  9
$THICKNESS
 40
0.0
  9
$LIMCHECK
 70
           0
  9
$BLIPMODE
 70
           1
  9
$CHAMFERA
 40
0.0
  9
$CHAMFERB
 40
0.0
  9
$CHAMFERC
 40
0.0
  9
$CHAMFERD
 40
0.0
  9
$SKPOLY
 70
           0
  9
$TDCREATE
 40
0.000000000
  9
$TDUPDATE
 40
0.000000000
  9
$TDINDWG
 40
0.0000000000
  9
$TDUSRTIMER
 40
0.0000000000
  9
$USRTIMER
 70
           1
  9
$ANGBASE
 50
0.0
  9
$ANGDIR
 70
           0
  9
$PDMODE
 70
           0
  9
$PDSIZE
 40
0.0
  9
$PLINEWID
 40
0.0
  9
$COORDS
 70
           0
  9
$SPLFRAME
 70
           0
  9
$SPLINETYPE
 70
           6
  9
$SPLINESEGS
 70
           8
  9
$ATTDIA
 70
           0
  9
$ATTREQ
 70
           1
  9
$HANDLING
 70
           1
  9
$HANDSEED
  5
63C
  9
$SURFTAB1
 70
           6
  9
$SURFTAB2
 70
           6
  9
$SURFTYPE
 70
           6
  9
$SURFU
 70
           6
  9
$SURFV
 70
           6
  9
$UCSNAME
  2

  9
$UCSORG
 10
0.0
 20
0.0
 30
0.0
  9
$UCSXDIR
 10
1.0
 20
0.0
 30
0.0
  9
$UCSYDIR
 10
0.0
 20
1.0
 30
0.0
  9
$PUCSNAME
  2

  9
$PUCSORG
 10
0.0
 20
0.0
 30
0.0
  9
$PUCSXDIR
 10
1.0
 20
0.0
 30
0.0
  9
$PUCSYDIR
 10
0.0
 20
1.0
 30
0.0
  9
$USERI1
 70
           0
  9
$USERI2
 70
           0
  9
$USERI3
 70
           0
  9
$USERI4
 70
           0
  9
$USERI5
 70
           0
  9
$USERR1
 40
0.0
  9
$USERR2
 40
0.0
  9
$USERR3
 40
0.0
  9
$USERR4
 40
0.0
  9
$USERR5
 40
0.0
  9
$WORLDVIEW
 70
           1
  9
$SHADEDGE
 70
           3
  9
$SHADEDIF
 70
          70
  9
$TILEMODE
 70
           1
  9
$MAXACTVP
 70
          16
  9
$PINSBASE
 10
0.0
 20
0.0
 30
0.0
  9
$PLIMCHECK
 70
           0
  9
$PEXTMIN
 10
1.000000000000E+20
 20
1.000000000000E+20
 30
1.000000000000E+20
  9
$PEXTMAX
 10
-1.000000000000E+20
 20
-1.000000000000E+20
 30
-1.000000000000E+20
  9
$PLIMMIN
 10
0.0
 20
0.0
  9
$PLIMMAX
 10
12.0
 20
9.0
  9
$UNITMODE
 70
           0
  9
$VISRETAIN
 70
           0
  9
$PLINEGEN
 70
           1
  9
$PSLTSCALE
 70
           0
  9
$TREEDEPTH
 70
        3020
  9
$PICKSTYLE
 70
           1
  9
$CMLSTYLE
  2
STANDARD
  9
$CMLJUST
 70
           0
  9
$CMLSCALE
 40
1.0
  9
$SAVEIMAGES
 70
           0
  0
ENDSEC
  0
SECTION
  2
CLASSES
  0
CLASS
  1
LWPOLYLINE
  2
AcDbPolyline
  3
"AutoCAD"
 90
    32768
280
           0
281
           1
  0
CLASS
  1
IMAGE
  2
AcDbRasterImage
  3
ISM
 90
    32895
280
           0
281
           1
  0
CLASS
  1
OLE2FRAME
  2
AcDbOle2Frame
  3
""
 90
    32768
280
           0
281
           1
  0
CLASS
  1
HATCH
  2
AcDbHatch
  3
"ACAD_SEDONA"
 90
    32768
280
           0
281
           1
  0
CLASS
  1
DICTIONARYVAR
  2
AcDbDictionaryVar
  3
"AutoCAD"
 90
    32768
280
           0
281
           0
  0
CLASS
  1
RASTERVARIABLES
  2
AcDbRasterVariables
  3
ISM
 90
    32768
280
           0
281
           0
  0
CLASS
  1
IMAGEDEF
  2
AcDbRasterImageDef
  3
ISM
 90
    32768
280
           0
281
           0
  0
CLASS
  1
IMAGEDEF_REACTOR
  2
AcDbRasterImageDefReactor
  3
ISM
 90
    32769
280
           0
281
           0
  0
CLASS
  1
IDBUFFER
  2
AcDbIdBuffer
  3
"Acad"
 90
    32768
280
           0
281
           0
  0
CLASS
  1
SPATIAL_FILTER
  2
AcDbSpatialFilter
  3
"Acad"
 90
    32768
280
           0
281
           0
  0
CLASS
  1
XRECORD
  2
AcDbXrecord
  3
"<Built In>"
 90
    32768
280
           0
281
           0
  0
CLASS
  1
SORTENTSTABLE
  2
AcDbSortentsTable
  3
"AutoCAD"
 90
    32768
280
           0
281
           0
  0
CLASS
  1
LAYER_INDEX
  2
AcDbLayerIndex
  3
"Acad"
 90
    32768
280
           0
281
           0
  0
CLASS
  1
SPATIAL_INDEX
  2
AcDbSpatialIndex
  3
"Acad"
 90
    32768
280
           0
281
           0
  0
CLASS
  1
OBJECT_PTR
  2
CAseDLPNTableRecord
  3
"ASE-LPNTableRecord"
 90
    32769
280
           0
281
           0
  0
CLASS
  1
LAYOUT
  2
AcDbLayout
  3
"AutoCAD 2000"
 90
    32768
280
           0
281
           0
  0
CLASS
  1
PLOTSETTINGS
  2
AcDbPlotSettings
  3
"AutoCAD 2000"
 90
    32768
280
           0
281
           0
  0
CLASS
  1
ACDBDICTIONARYWDFLT
  2
AcDbDictionaryWithDefault
  3
"AutoCAD 2000"
 90
    32768
280
           0
281
           0
  0
CLASS
  1
ACDBPLACEHOLDER
  2
AcDbPlaceHolder
  3
"AutoCAD 2000"
 90
    32768
280
           0
281
           0
  0
CLASS
  1
VBA_PROJECT
  2
AcDbVbaProject
  3
"acadvba"
 90
    32768
280
           0
281
           0
  0
CLASS
  1
WIPEOUT
  2
AcDbWipeout
  3
WipeOut|AutoCAD Express Tool|expresstools@autodesk.com
 90
    32895
280
           0
281
           1
  0
CLASS
  1
WIPEOUTVARIABLES
  2
AcDbWipeoutVariables
  3
WipeOut|AutoCAD Express Tool|expresstools@autodesk.com
 90
    32768
280
           0
281
           0
  0
CLASS
  1
RTEXT
  2
RText
  3
RText|AutoCAD Express Tool|expresstools@autodesk.com
 90
    32768
280
           0
281
           1
  0
CLASS
  1
ARCALIGNEDTEXT
  2
AcDbArcAlignedText
  3
ATEXT|AutoCAD Express Tool|expresstools@autodesk.com
 90
    32768
280
           0
281
           1
  0
ENDSEC
  0
SECTION
  2
TABLES
  0
TABLE
  2
VPORT
  5
7
100
AcDbSymbolTable
 70
           1
  0
VPORT
  5
15
100
AcDbSymbolTableRecord
100
AcDbViewportTableRecord
  2
*ACTIVE
 70
           0
 10
0.0
 20
0.0
 11
1.0
 21
1.0
 12
210.167163668476
 22
148.745499493487
 13
0.0
 23
0.0
 14
1.0
 24
1.0
 15
0.0
 25
0.0
 16
0.0
 26
0.0
 36
1.0
 17
0.0
 27
0.0
 37
0.0
 40
297.490998986974
 41
1.4129312442
 42
50.0
 43
0.0
 44
0.0
 50
0.0
 51
0.0
 71
           0
 72
         100
 73
           1
 74
           1
 75
           0
 76
           0
 77
           0
 78
           0
  0
ENDTAB
  0
TABLE
  2
LTYPE
  5
4
100
AcDbSymbolTable
 70
           8
  0
LTYPE
  5
11
100
AcDbSymbolTableRecord
100
AcDbLinetypeTableRecord
  2
BYBLOCK
 70
          64
  3

 72
          65
 73
           0
 40
0.0
  0
LTYPE
  5
12
100
AcDbSymbolTableRecord
100
AcDbLinetypeTableRecord
  2
BYLAYER
 70
          64
  3

 72
          65
 73
           0
 40
0.0
  0
LTYPE
  5
13
100
AcDbSymbolTableRecord
100
AcDbLinetypeTableRecord
  2
CONTINUOUS
 70
          64
  3
Solid line
 72
          65
 73
           0
 40
0.0
  0
LTYPE
  5
1D
100
AcDbSymbolTableRecord
100
AcDbLinetypeTableRecord
  2
DASHED
 70
          64
  3
__ __ __ __ __ __ __ __ __ __ __ __ __ __ __
 72
          65
 73
           2
 40
4.0
 49
3.0
 74
           0
 49
-1.0
 74
           0
  0
LTYPE
  5
1E
100
AcDbSymbolTableRecord
100
AcDbLinetypeTableRecord
  2
HIDDEN
 70
          64
  3
_ _ _ _ _ _ _ _ _ _ _ _ _ _ _ _ _ _ _ _ _ _ _
 72
          65
 73
           2
 40
2.25
 49
0.25
 74
           0
 49
-2.0
 74
           0
  0
LTYPE
  5
1F
100
AcDbSymbolTableRecord
100
AcDbLinetypeTableRecord
  2
DOT
 70
          64
  3
...............................................
 72
          65
 73
           2
 40
4.0
 49
1.0
 74
           0
 49
-3.0
 74
           0
  0
LTYPE
  5
20
100
AcDbSymbolTableRecord
100
AcDbLinetypeTableRecord
  2
DASHDOT
 70
          64
  3
__ . __ . __ . __ . __ . __ . __ . __ . __ . __
 72
          65
 73
           4
 40
7.5
 49
6.0
 74
           0
 49
-0.5
 74
           0
 49
0.5
 74
           0
 49
-0.5
 74
           0
  0
LTYPE
  5
21
100
AcDbSymbolTableRecord
100
AcDbLinetypeTableRecord
  2
DIVIDE
 70
          64
  3
__ . . __ . . __ . . __ . . __ . . __ . . __
 72
          65
 73
           6
 40
8.5
 49
6.0
 74
           0
 49
-0.5
 74
           0
 49
0.5
 74
           0
 49
-0.5
 74
           0
 49
0.5
 74
           0
 49
-0.5
 74
           0
  0
ENDTAB
  0
TABLE
  2
LAYER
  5
2
100
AcDbSymbolTable
 70
           4
  0
LAYER
  5
14
100
AcDbSymbolTableRecord
100
AcDbLayerTableRecord
  2
0
 70
           0
 62
           7
  6
CONTINUOUS
  0
LAYER
  5
22
100
AcDbSymbolTableRecord
100
AcDbLayerTableRecord
  2
256
 70
           0
 62
           7
  6
CONTINUOUS
  0
LAYER
  5
23
100
AcDbSymbolTableRecord
100
AcDbLayerTableRecord
  2
1
 70
           0
 62
           7
  6
CONTINUOUS
  0
LAYER
  5
24
100
AcDbSymbolTableRecord
100
AcDbLayerTableRecord
  2
5
 70
           0
 62
          -7
  6
CONTINUOUS
  0
ENDTAB
  0
TABLE
  2
STYLE
  5
3
100
AcDbSymbolTable
 70
           3
  0
STYLE
  5
17
100
AcDbSymbolTableRecord
100
AcDbTextStyleTableRecord
  2
STANDARD
 70
           0
 40
0.0
 41
1.0
 50
0.0
 71
           0
 42
0.0
  3
txt
  4

  0
STYLE
  5
25
100
AcDbSymbolTableRecord
100
AcDbTextStyleTableRecord
  2
BIGFONT
 70
           0
 40
1.0
 41
1.0
 50
0.0
 71
           0
 42
0.0
  3
monotxt.shx
  4
bigfont
  0
STYLE
  5
26
100
AcDbSymbolTableRecord
100
AcDbTextStyleTableRecord
  2
ＭＳ_ゴシック
 70
           0
 40
0.0
 41
1.0
 50
0.0
 71
           0
 42
0.0
  3
MS Gothic.ttf
  4

1001
ACAD
1000
MS Gothic
1071
    32817
  0
ENDTAB
  0
TABLE
  2
VIEW
  5
5
100
AcDbSymbolTable
 70
           0
  0
ENDTAB
  0
TABLE
  2
UCS
  5
6
100
AcDbSymbolTable
 70
           0
  0
ENDTAB
  0
TABLE
  2
APPID
  5
8
100
AcDbSymbolTable
 70
           1
  0
APPID
  5
16
100
AcDbSymbolTableRecord
100
AcDbRegAppTableRecord
  2
ACAD
 70
           0
  0
ENDTAB
  0
TABLE
  2
DIMSTYLE
  5
9
100
AcDbSymbolTable
 70
           2
  0
DIMSTYLE
105
18
100
AcDbSymbolTableRecord
100
AcDbDimStyleTableRecord
  2
STANDARD
 70
           0
  3

  4

  5

  6

  7

 40
1.0
 41
0.18
 42
0.0625
 43
0.38
 44
0.18
 45
0.0
 46
0.0
 47
0.0
 48
0.0
 71
           0
 72
           0
 73
           1
 74
           1
 75
           0
 76
           0
 77
           0
 78
           0
140
0.18
141
0.09
142
0.0
143
25.4
144
1.0
145
0.0
146
1.0
147
0.09
170
           0
171
           2
172
           0
173
           0
174
           0
175
           0
176
           0
177
           0
178
           0
270
           2
271
           4
272
           4
273
           2
274
           2
275
           0
280
           0
281
           0
282
           0
283
           1
284
           0
285
           0
286
           0
287
           3
288
           0
340
17
  0
DIMSTYLE
105
27
100
AcDbSymbolTableRecord
100
AcDbDimStyleTableRecord
  2
MARK2_DIMSTYLE
 70
           0
  3

  4

  5
_Open
  6

  7

 40
1.0
 41
2.0
 42
1.0
 43
10.0
 44
1.0
 45
0.0
 46
0.0
 47
0.0
 48
0.0
 71
           0
 72
           0
 73
           0
 74
           1
 75
           0
 76
           0
 77
           1
 78
           0
140
4.0
141
0.09
142
0.0
143
25.4
144
1.0
145
0.0
146
0.5
147
1.0
170
           0
171
           2
172
           0
173
           0
174
           0
175
           0
176
           0
177
           0
178
           0
270
           2
271
           2
272
           4
273
           2
274
           2
275
           0
280
           0
281
           0
282
           0
283
           1
284
           0
285
           0
286
           0
287
           3
288
           0
340
26
  0
ENDTAB
  0
TABLE
  2
BLOCK_RECORD
  5
1
100
AcDbSymbolTable
 70
          17
  0
BLOCK_RECORD
  5
A
100
AcDbSymbolTableRecord
100
AcDbBlockTableRecord
  2
*MODEL_SPACE
  0
BLOCK_RECORD
  5
B
100
AcDbSymbolTableRecord
100
AcDbBlockTableRecord
  2
*PAPER_SPACE
  0
BLOCK_RECORD
  5
28
100
AcDbSymbolTableRecord
100
AcDbBlockTableRecord
  2
_OPEN
  0
BLOCK_RECORD
  5
2E
100
AcDbSymbolTableRecord
100
AcDbBlockTableRecord
  2
_NONE
  0
BLOCK_RECORD
  5
31
100
AcDbSymbolTableRecord
100
AcDbBlockTableRecord
  2
AID287_$1$
  0
BLOCK_RECORD
  5
35
100
AcDbSymbolTableRecord
100
AcDbBlockTableRecord
  2
AID1083_$2$
  0
BLOCK_RECORD
  5
46
100
AcDbSymbolTableRecord
100
AcDbBlockTableRecord
  2
AID1091_$3$
  0
BLOCK_RECORD
  5
58
100
AcDbSymbolTableRecord
100
AcDbBlockTableRecord
  2
AID1100_$4$
  0
BLOCK_RECORD
  5
6A
100
AcDbSymbolTableRecord
100
AcDbBlockTableRecord
  2
AID1109_$5$
  0
BLOCK_RECORD
  5
7B
100
AcDbSymbolTableRecord
100
AcDbBlockTableRecord
  2
AID1117_$6$
  0
BLOCK_RECORD
  5
8C
100
AcDbSymbolTableRecord
100
AcDbBlockTableRecord
  2
AID1125_$7$
  0
BLOCK_RECORD
  5
9D
100
AcDbSymbolTableRecord
100
AcDbBlockTableRecord
  2
_POLYLINE_$8$
  0
BLOCK_RECORD
  5
A7
100
AcDbSymbolTableRecord
100
AcDbBlockTableRecord
  2
_POLYLINE_$9$
  0
BLOCK_RECORD
  5
B3
100
AcDbSymbolTableRecord
100
AcDbBlockTableRecord
  2
AID1969_$10$
  0
BLOCK_RECORD
  5
B7
100
AcDbSymbolTableRecord
100
AcDbBlockTableRecord
  2
AID1973_$11$
  0
BLOCK_RECORD
  5
BB
100
AcDbSymbolTableRecord
100
AcDbBlockTableRecord
  2
AID1977_$12$
  0
BLOCK_RECORD
  5
BF
100
AcDbSymbolTableRecord
100
AcDbBlockTableRecord
  2
AID1981_$13$
  0
BLOCK_RECORD
  5
D0
100
AcDbSymbolTableRecord
100
AcDbBlockTableRecord
  2
_POLYLINE_$14$
  0
BLOCK_RECORD
  5
D5
100
AcDbSymbolTableRecord
100
AcDbBlockTableRecord
  2
_POLYLINE_$15$
  0
ENDTAB
  0
ENDSEC
  0
SECTION
  2
BLOCKS
  0
BLOCK
  5
D
100
AcDbEntity
  8
0
100
AcDbBlockBegin
  2
*MODEL_SPACE
 70
           0
 10
0.0
 20
0.0
 30
0.0
  3
*MODEL_SPACE
  1

  0
ENDBLK
  5
E
100
AcDbEntity
  8
0
100
AcDbBlockEnd
  0
BLOCK
  5
F
100
AcDbEntity
 67
           1
  8
0
100
AcDbBlockBegin
  2
*PAPER_SPACE
 70
           0
 10
0.0
 20
0.0
 30
0.0
  3
*PAPER_SPACE
  1

  0
ENDBLK
  5
10
100
AcDbEntity
 67
           1
  8
0
100
AcDbBlockEnd
  0
BLOCK
  5
29
100
AcDbEntity
  8
0
 62
           0
100
AcDbBlockBegin
  2
_OPEN
 70
           0
 10
0.0
 20
0.0
 30
0.0
  3
_OPEN
  1

  0
LINE
  5
2A
100
AcDbEntity
  8
0
 62
           0
100
AcDbLine
 10
-1.0
 20
0.166666666667
 30
0.0
 11
0.0
 21
0.0
 31
0.0
  0
LINE
  5
2B
100
AcDbEntity
  8
0
 62
           0
100
AcDbLine
 10
-1.0
 20
-0.166666666667
 30
0.0
 11
0.0
 21
0.0
 31
0.0
  0
LINE
  5
2C
100
AcDbEntity
  8
0
 62
           0
100
AcDbLine
 10
0.0
 20
0.0
 30
0.0
 11
-1.0
 21
0.0
 31
0.0
  0
ENDBLK
  5
2D
100
AcDbEntity
  8
0
100
AcDbBlockEnd
  0
BLOCK
  5
2F
100
AcDbEntity
  8
0
 62
           0
100
AcDbBlockBegin
  2
_NONE
 70
           0
 10
0.0
 20
0.0
 30
0.0
  3
_NONE
  1

  0
ENDBLK
  5
30
100
AcDbEntity
  8
0
100
AcDbBlockEnd
  0
BLOCK
  5
32
100
AcDbEntity
  8
0
100
AcDbBlockBegin
  2
AID287_$1$
 70
           0
 10
0.0
 20
0.0
 30
0.0
  3
AID287_$1$
  1

  0
TEXT
  5
33
100
AcDbEntity
  8
256
 62
           7
100
AcDbText
 10
406.171318
 20
6.951938
 30
0.0
 40
3.0
  1
A3
 41
0.649350643158
  7
BIGFONT
100
AcDbText
  0
ENDBLK
  5
34
100
AcDbEntity
  8
0
100
AcDbBlockEnd
  0
BLOCK
  5
36
100
AcDbEntity
  8
0
100
AcDbBlockBegin
  2
AID1083_$2$
 70
           0
 10
0.0
 20
0.0
 30
0.0
  3
AID1083_$2$
  1

  0
TEXT
  5
37
100
AcDbEntity
  8
1
 62
           2
100
AcDbText
 10
197.081482
 20
157.260776
 30
0.0
 40
6.0
  1
3000
 41
0.649350643158
  7
BIGFONT
100
AcDbText
  0
LINE
  5
38
100
AcDbEntity
  8
1
  6
CONTINUOUS
 62
          11
100
AcDbLine
 10
308.59274
 20
156.088049
 30
0.0
 11
99.642952
 21
156.088049
 31
0.0
  0
LINE
  5
39
100
AcDbEntity
  8
1
  6
CONTINUOUS
 62
          11
100
AcDbLine
 10
308.59274
 20
192.997836
 30
0.0
 11
308.59274
 21
154.288049
 31
0.0
  0
LINE
  5
3A
100
AcDbEntity
  8
1
  6
CONTINUOUS
 62
          11
100
AcDbLine
 10
99.642952
 20
185.447468
 30
0.0
 11
99.642952
 21
154.288049
 31
0.0
  0
POLYLINE
  5
3B
100
AcDbEntity
  8
1
  6
CONTINUOUS
 62
          11
100
AcDb2dPolyline
 66
           1
 10
0.0
 20
0.0
 30
0.0
  0
VERTEX
  5
3C
100
AcDbEntity
  8
1
  6
CONTINUOUS
 62
          11
100
AcDbVertex
100
AcDb2dVertex
 10
304.09274
 20
156.988049
 30
0.0
  0
VERTEX
  5
3D
100
AcDbEntity
  8
1
  6
CONTINUOUS
 62
          11
100
AcDbVertex
100
AcDb2dVertex
 10
308.59274
 20
156.088049
 30
0.0
  0
VERTEX
  5
3E
100
AcDbEntity
  8
1
  6
CONTINUOUS
 62
          11
100
AcDbVertex
100
AcDb2dVertex
 10
304.09274
 20
155.188049
 30
0.0
  0
SEQEND
  5
3F
100
AcDbEntity
  8
1
  6
CONTINUOUS
 62
          11
  0
POLYLINE
  5
40
100
AcDbEntity
  8
1
  6
CONTINUOUS
 62
          11
100
AcDb2dPolyline
 66
           1
 10
0.0
 20
0.0
 30
0.0
  0
VERTEX
  5
41
100
AcDbEntity
  8
1
  6
CONTINUOUS
 62
          11
100
AcDbVertex
100
AcDb2dVertex
 10
104.142952
 20
155.188049
 30
0.0
  0
VERTEX
  5
42
100
AcDbEntity
  8
1
  6
CONTINUOUS
 62
          11
100
AcDbVertex
100
AcDb2dVertex
 10
99.642952
 20
156.088049
 30
0.0
  0
VERTEX
  5
43
100
AcDbEntity
  8
1
  6
CONTINUOUS
 62
          11
100
AcDbVertex
100
AcDb2dVertex
 10
104.142952
 20
156.988049
 30
0.0
  0
SEQEND
  5
44
100
AcDbEntity
  8
1
  6
CONTINUOUS
 62
          11
  0
ENDBLK
  5
45
100
AcDbEntity
  8
0
100
AcDbBlockEnd
  0
BLOCK
  5
47
100
AcDbEntity
  8
0
100
AcDbBlockBegin
  2
AID1091_$3$
 70
           0
 10
0.0
 20
0.0
 30
0.0
  3
AID1091_$3$
  1

  0
TEXT
  5
48
100
AcDbEntity
  8
1
 62
           2
100
AcDbText
 10
330.824405
 20
209.606927
 30
0.0
 40
6.0
  1
Φ
 50
90.0
 41
1.08225107193
  7
BIGFONT
100
AcDbText
  0
TEXT
  5
49
100
AcDbEntity
  8
1
 62
           2
100
AcDbText
 10
330.824405
 20
215.552381
 30
0.0
 40
6.0
  1
9.9
 50
90.0
 41
0.649350643158
  7
BIGFONT
100
AcDbText
  0
LINE
  5
4A
100
AcDbEntity
  8
1
  6
CONTINUOUS
 62
          11
100
AcDbLine
 10
331.997132
 20
185.497836
 30
0.0
 11
331.997132
 21
224.170563
 31
0.0
  0
LINE
  5
4B
100
AcDbEntity
  8
1
  6
CONTINUOUS
 62
          11
100
AcDbLine
 10
310.09274
 20
194.497836
 30
0.0
 11
333.797132
 21
194.497836
 31
0.0
  0
LINE
  5
4C
100
AcDbEntity
  8
1
  6
CONTINUOUS
 62
          11
100
AcDbLine
 10
310.09274
 20
204.397836
 30
0.0
 11
333.797132
 21
204.397836
 31
0.0
  0
POLYLINE
  5
4D
100
AcDbEntity
  8
1
  6
CONTINUOUS
 62
          11
100
AcDb2dPolyline
 66
           1
 10
0.0
 20
0.0
 30
0.0
  0
VERTEX
  5
4E
100
AcDbEntity
  8
1
  6
CONTINUOUS
 62
          11
100
AcDbVertex
100
AcDb2dVertex
 10
332.897132
 20
189.997836
 30
0.0
  0
VERTEX
  5
4F
100
AcDbEntity
  8
1
  6
CONTINUOUS
 62
          11
100
AcDbVertex
100
AcDb2dVertex
 10
331.997132
 20
194.497836
 30
0.0
  0
VERTEX
  5
50
100
AcDbEntity
  8
1
  6
CONTINUOUS
 62
          11
100
AcDbVertex
100
AcDb2dVertex
 10
331.097132
 20
189.997836
 30
0.0
  0
SEQEND
  5
51
100
AcDbEntity
  8
1
  6
CONTINUOUS
 62
          11
  0
POLYLINE
  5
52
100
AcDbEntity
  8
1
  6
CONTINUOUS
 62
          11
100
AcDb2dPolyline
 66
           1
 10
0.0
 20
0.0
 30
0.0
  0
VERTEX
  5
53
100
AcDbEntity
  8
1
  6
CONTINUOUS
 62
          11
100
AcDbVertex
100
AcDb2dVertex
 10
331.097132
 20
208.897836
 30
0.0
  0
VERTEX
  5
54
100
AcDbEntity
  8
1
  6
CONTINUOUS
 62
          11
100
AcDbVertex
100
AcDb2dVertex
 10
331.997132
 20
204.397836
 30
0.0
  0
VERTEX
  5
55
100
AcDbEntity
  8
1
  6
CONTINUOUS
 62
          11
100
AcDbVertex
100
AcDb2dVertex
 10
332.897132
 20
208.897836
 30
0.0
  0
SEQEND
  5
56
100
AcDbEntity
  8
1
  6
CONTINUOUS
 62
          11
  0
ENDBLK
  5
57
100
AcDbEntity
  8
0
100
AcDbBlockEnd
  0
BLOCK
  5
59
100
AcDbEntity
  8
0
100
AcDbBlockBegin
  2
AID1100_$4$
 70
           0
 10
0.0
 20
0.0
 30
0.0
  3
AID1100_$4$
  1

  0
TEXT
  5
5A
100
AcDbEntity
  8
1
 62
           2
100
AcDbText
 10
344.745564
 20
211.656927
 30
0.0
 40
6.0
  1
Φ
 50
90.0
 41
1.08225107193
  7
BIGFONT
100
AcDbText
  0
TEXT
  5
5B
100
AcDbEntity
  8
1
 62
           2
100
AcDbText
 10
344.745564
 20
217.602381
 30
0.0
 40
6.0
  1
14
 50
90.0
 41
0.649350643158
  7
BIGFONT
100
AcDbText
  0
LINE
  5
5C
100
AcDbEntity
  8
1
  6
CONTINUOUS
 62
          11
100
AcDbLine
 10
345.891018
 20
224.966017
 30
0.0
 11
345.891018
 21
183.447836
 31
0.0
  0
LINE
  5
5D
100
AcDbEntity
  8
1
  6
CONTINUOUS
 62
          11
100
AcDbLine
 10
295.09274
 20
206.447836
 30
0.0
 11
347.691018
 21
206.447836
 31
0.0
  0
LINE
  5
5E
100
AcDbEntity
  8
1
  6
CONTINUOUS
 62
          11
100
AcDbLine
 10
295.09274
 20
192.447836
 30
0.0
 11
347.691018
 21
192.447836
 31
0.0
  0
POLYLINE
  5
5F
100
AcDbEntity
  8
1
  6
CONTINUOUS
 62
          11
100
AcDb2dPolyline
 66
           1
 10
0.0
 20
0.0
 30
0.0
  0
VERTEX
  5
60
100
AcDbEntity
  8
1
  6
CONTINUOUS
 62
          11
100
AcDbVertex
100
AcDb2dVertex
 10
344.991018
 20
210.947836
 30
0.0
  0
VERTEX
  5
61
100
AcDbEntity
  8
1
  6
CONTINUOUS
 62
          11
100
AcDbVertex
100
AcDb2dVertex
 10
345.891018
 20
206.447836
 30
0.0
  0
VERTEX
  5
62
100
AcDbEntity
  8
1
  6
CONTINUOUS
 62
          11
100
AcDbVertex
100
AcDb2dVertex
 10
346.791018
 20
210.947836
 30
0.0
  0
SEQEND
  5
63
100
AcDbEntity
  8
1
  6
CONTINUOUS
 62
          11
  0
POLYLINE
  5
64
100
AcDbEntity
  8
1
  6
CONTINUOUS
 62
          11
100
AcDb2dPolyline
 66
           1
 10
0.0
 20
0.0
 30
0.0
  0
VERTEX
  5
65
100
AcDbEntity
  8
1
  6
CONTINUOUS
 62
          11
100
AcDbVertex
100
AcDb2dVertex
 10
346.791018
 20
187.947836
 30
0.0
  0
VERTEX
  5
66
100
AcDbEntity
  8
1
  6
CONTINUOUS
 62
          11
100
AcDbVertex
100
AcDb2dVertex
 10
345.891018
 20
192.447836
 30
0.0
  0
VERTEX
  5
67
100
AcDbEntity
  8
1
  6
CONTINUOUS
 62
          11
100
AcDbVertex
100
AcDb2dVertex
 10
344.991018
 20
187.947836
 30
0.0
  0
SEQEND
  5
68
100
AcDbEntity
  8
1
  6
CONTINUOUS
 62
          11
  0
ENDBLK
  5
69
100
AcDbEntity
  8
0
100
AcDbBlockEnd
  0
BLOCK
  5
6B
100
AcDbEntity
  8
0
100
AcDbBlockBegin
  2
AID1109_$5$
 70
           0
 10
0.0
 20
0.0
 30
0.0
  3
AID1109_$5$
  1

  0
TEXT
  5
6C
100
AcDbEntity
  8
1
 62
           2
100
AcDbText
 10
282.656377
 20
226.113985
 30
0.0
 40
6.0
  1
45
 41
0.649350643158
  7
BIGFONT
100
AcDbText
  0
LINE
  5
6D
100
AcDbEntity
  8
1
  6
CONTINUOUS
 62
          11
100
AcDbLine
 10
308.59274
 20
224.941258
 30
0.0
 11
263.59274
 21
224.941258
 31
0.0
  0
LINE
  5
6E
100
AcDbEntity
  8
1
  6
CONTINUOUS
 62
          11
100
AcDbLine
 10
308.59274
 20
205.897836
 30
0.0
 11
308.59274
 21
226.741258
 31
0.0
  0
LINE
  5
6F
100
AcDbEntity
  8
1
  6
CONTINUOUS
 62
          11
100
AcDbLine
 10
263.59274
 20
206.247836
 30
0.0
 11
263.59274
 21
226.741258
 31
0.0
  0
POLYLINE
  5
70
100
AcDbEntity
  8
1
  6
CONTINUOUS
 62
          11
100
AcDb2dPolyline
 66
           1
 10
0.0
 20
0.0
 30
0.0
  0
VERTEX
  5
71
100
AcDbEntity
  8
1
  6
CONTINUOUS
 62
          11
100
AcDbVertex
100
AcDb2dVertex
 10
304.09274
 20
225.841258
 30
0.0
  0
VERTEX
  5
72
100
AcDbEntity
  8
1
  6
CONTINUOUS
 62
          11
100
AcDbVertex
100
AcDb2dVertex
 10
308.59274
 20
224.941258
 30
0.0
  0
VERTEX
  5
73
100
AcDbEntity
  8
1
  6
CONTINUOUS
 62
          11
100
AcDbVertex
100
AcDb2dVertex
 10
304.09274
 20
224.041258
 30
0.0
  0
SEQEND
  5
74
100
AcDbEntity
  8
1
  6
CONTINUOUS
 62
          11
  0
POLYLINE
  5
75
100
AcDbEntity
  8
1
  6
CONTINUOUS
 62
          11
100
AcDb2dPolyline
 66
           1
 10
0.0
 20
0.0
 30
0.0
  0
VERTEX
  5
76
100
AcDbEntity
  8
1
  6
CONTINUOUS
 62
          11
100
AcDbVertex
100
AcDb2dVertex
 10
268.09274
 20
224.041258
 30
0.0
  0
VERTEX
  5
77
100
AcDbEntity
  8
1
  6
CONTINUOUS
 62
          11
100
AcDbVertex
100
AcDb2dVertex
 10
263.59274
 20
224.941258
 30
0.0
  0
VERTEX
  5
78
100
AcDbEntity
  8
1
  6
CONTINUOUS
 62
          11
100
AcDbVertex
100
AcDb2dVertex
 10
268.09274
 20
225.841258
 30
0.0
  0
SEQEND
  5
79
100
AcDbEntity
  8
1
  6
CONTINUOUS
 62
          11
  0
ENDBLK
  5
7A
100
AcDbEntity
  8
0
100
AcDbBlockEnd
  0
BLOCK
  5
7C
100
AcDbEntity
  8
0
100
AcDbBlockBegin
  2
AID1117_$6$
 70
           0
 10
0.0
 20
0.0
 30
0.0
  3
AID1117_$6$
  1

  0
TEXT
  5
7D
100
AcDbEntity
  8
1
 62
           2
100
AcDbText
 10
80.258403
 20
193.488572
 30
0.0
 40
6.0
  1
25.8
 50
90.0
 41
0.649350643158
  7
BIGFONT
100
AcDbText
  0
LINE
  5
7E
100
AcDbEntity
  8
1
  6
CONTINUOUS
 62
          11
100
AcDbLine
 10
81.43113
 20
212.347858
 30
0.0
 11
81.43113
 21
186.547468
 31
0.0
  0
LINE
  5
7F
100
AcDbEntity
  8
1
  6
CONTINUOUS
 62
          11
100
AcDbLine
 10
98.542952
 20
212.347858
 30
0.0
 11
79.63113
 21
212.347858
 31
0.0
  0
LINE
  5
80
100
AcDbEntity
  8
1
  6
CONTINUOUS
 62
          11
100
AcDbLine
 10
98.542952
 20
186.547468
 30
0.0
 11
79.63113
 21
186.547468
 31
0.0
  0
POLYLINE
  5
81
100
AcDbEntity
  8
1
  6
CONTINUOUS
 62
          11
100
AcDb2dPolyline
 66
           1
 10
0.0
 20
0.0
 30
0.0
  0
VERTEX
  5
82
100
AcDbEntity
  8
1
  6
CONTINUOUS
 62
          11
100
AcDbVertex
100
AcDb2dVertex
 10
80.53113
 20
207.847858
 30
0.0
  0
VERTEX
  5
83
100
AcDbEntity
  8
1
  6
CONTINUOUS
 62
          11
100
AcDbVertex
100
AcDb2dVertex
 10
81.43113
 20
212.347858
 30
0.0
  0
VERTEX
  5
84
100
AcDbEntity
  8
1
  6
CONTINUOUS
 62
          11
100
AcDbVertex
100
AcDb2dVertex
 10
82.33113
 20
207.847858
 30
0.0
  0
SEQEND
  5
85
100
AcDbEntity
  8
1
  6
CONTINUOUS
 62
          11
  0
POLYLINE
  5
86
100
AcDbEntity
  8
1
  6
CONTINUOUS
 62
          11
100
AcDb2dPolyline
 66
           1
 10
0.0
 20
0.0
 30
0.0
  0
VERTEX
  5
87
100
AcDbEntity
  8
1
  6
CONTINUOUS
 62
          11
100
AcDbVertex
100
AcDb2dVertex
 10
82.33113
 20
191.047468
 30
0.0
  0
VERTEX
  5
88
100
AcDbEntity
  8
1
  6
CONTINUOUS
 62
          11
100
AcDbVertex
100
AcDb2dVertex
 10
81.43113
 20
186.547468
 30
0.0
  0
VERTEX
  5
89
100
AcDbEntity
  8
1
  6
CONTINUOUS
 62
          11
100
AcDbVertex
100
AcDb2dVertex
 10
80.53113
 20
191.047468
 30
0.0
  0
SEQEND
  5
8A
100
AcDbEntity
  8
1
  6
CONTINUOUS
 62
          11
  0
ENDBLK
  5
8B
100
AcDbEntity
  8
0
100
AcDbBlockEnd
  0
BLOCK
  5
8D
100
AcDbEntity
  8
0
100
AcDbBlockBegin
  2
AID1125_$7$
 70
           0
 10
0.0
 20
0.0
 30
0.0
  3
AID1125_$7$
  1

  0
TEXT
  5
8E
100
AcDbEntity
  8
1
 62
           2
100
AcDbText
 10
108.652255
 20
226.5176
 30
0.0
 40
6.0
  1
25
 41
0.649350643158
  7
BIGFONT
100
AcDbText
  0
LINE
  5
8F
100
AcDbEntity
  8
1
  6
CONTINUOUS
 62
          11
100
AcDbLine
 10
99.642952
 20
225.344872
 30
0.0
 11
124.643377
 21
225.344872
 31
0.0
  0
LINE
  5
90
100
AcDbEntity
  8
1
  6
CONTINUOUS
 62
          11
100
AcDbLine
 10
99.642952
 20
213.447858
 30
0.0
 11
99.642952
 21
227.144872
 31
0.0
  0
LINE
  5
91
100
AcDbEntity
  8
1
  6
CONTINUOUS
 62
          11
100
AcDbLine
 10
124.643377
 20
211.14795
 30
0.0
 11
124.643377
 21
227.144872
 31
0.0
  0
POLYLINE
  5
92
100
AcDbEntity
  8
1
  6
CONTINUOUS
 62
          11
100
AcDb2dPolyline
 66
           1
 10
0.0
 20
0.0
 30
0.0
  0
VERTEX
  5
93
100
AcDbEntity
  8
1
  6
CONTINUOUS
 62
          11
100
AcDbVertex
100
AcDb2dVertex
 10
104.142952
 20
224.444872
 30
0.0
  0
VERTEX
  5
94
100
AcDbEntity
  8
1
  6
CONTINUOUS
 62
          11
100
AcDbVertex
100
AcDb2dVertex
 10
99.642952
 20
225.344872
 30
0.0
  0
VERTEX
  5
95
100
AcDbEntity
  8
1
  6
CONTINUOUS
 62
          11
100
AcDbVertex
100
AcDb2dVertex
 10
104.142952
 20
226.244872
 30
0.0
  0
SEQEND
  5
96
100
AcDbEntity
  8
1
  6
CONTINUOUS
 62
          11
  0
POLYLINE
  5
97
100
AcDbEntity
  8
1
  6
CONTINUOUS
 62
          11
100
AcDb2dPolyline
 66
           1
 10
0.0
 20
0.0
 30
0.0
  0
VERTEX
  5
98
100
AcDbEntity
  8
1
  6
CONTINUOUS
 62
          11
100
AcDbVertex
100
AcDb2dVertex
 10
120.143377
 20
226.244872
 30
0.0
  0
VERTEX
  5
99
100
AcDbEntity
  8
1
  6
CONTINUOUS
 62
          11
100
AcDbVertex
100
AcDb2dVertex
 10
124.643377
 20
225.344872
 30
0.0
  0
VERTEX
  5
9A
100
AcDbEntity
  8
1
  6
CONTINUOUS
 62
          11
100
AcDbVertex
100
AcDb2dVertex
 10
120.143377
 20
224.444872
 30
0.0
  0
SEQEND
  5
9B
100
AcDbEntity
  8
1
  6
CONTINUOUS
 62
          11
  0
ENDBLK
  5
9C
100
AcDbEntity
  8
0
100
AcDbBlockEnd
  0
BLOCK
  5
9E
100
AcDbEntity
  8
0
100
AcDbBlockBegin
  2
_POLYLINE_$8$
 70
           0
 10
0.0
 20
0.0
 30
0.0
  3
_POLYLINE_$8$
  1

  0
POLYLINE
  5
9F
100
AcDbEntity
  8
1
  6
CONTINUOUS
 62
           7
100
AcDb2dPolyline
 66
           1
 10
0.0
 20
0.0
 30
0.0
  0
VERTEX
  5
A0
100
AcDbEntity
  8
1
  6
CONTINUOUS
 62
           7
100
AcDbVertex
100
AcDb2dVertex
 10
125.643377
 20
103.895867
 30
0.0
  0
VERTEX
  5
A1
100
AcDbEntity
  8
1
  6
CONTINUOUS
 62
           7
100
AcDbVertex
100
AcDb2dVertex
 10
125.625003
 20
103.721812
 30
0.0
  0
VERTEX
  5
A2
100
AcDbEntity
  8
1
  6
CONTINUOUS
 62
           7
100
AcDbVertex
100
AcDb2dVertex
 10
125.576283
 20
103.566014
 30
0.0
  0
VERTEX
  5
A3
100
AcDbEntity
  8
1
  6
CONTINUOUS
 62
           7
100
AcDbVertex
100
AcDb2dVertex
 10
125.504035
 20
103.426626
 30
0.0
  0
SEQEND
  5
A4
100
AcDbEntity
  8
1
  6
CONTINUOUS
 62
           7
  0
ARC
  5
A5
100
AcDbEntity
  8
1
  6
CONTINUOUS
 62
           7
100
AcDbCircle
 10
124.555635530811
 20
104.037279260471
 30
0.0
 40
1.127988899627
100
AcDbArc
 50
296.612565841214
 51
327.223418459785
  0
ENDBLK
  5
A6
100
AcDbEntity
  8
0
100
AcDbBlockEnd
  0
BLOCK
  5
A8
100
AcDbEntity
  8
0
100
AcDbBlockBegin
  2
_POLYLINE_$9$
 70
           0
 10
0.0
 20
0.0
 30
0.0
  3
_POLYLINE_$9$
  1

  0
ARC
  5
A9
100
AcDbEntity
  8
1
  6
CONTINUOUS
 62
           7
100
AcDbCircle
 10
124.536735262742
 20
109.701289533169
 30
0.0
 40
1.158672035635
100
AcDbArc
 50
37.441035798934
 51
63.101924537536
  0
POLYLINE
  5
AA
100
AcDbEntity
  8
1
  6
CONTINUOUS
 62
           7
100
AcDb2dPolyline
 66
           1
 10
0.0
 20
0.0
 30
0.0
  0
VERTEX
  5
AB
100
AcDbEntity
  8
1
  6
CONTINUOUS
 62
           7
100
AcDbVertex
100
AcDb2dVertex
 10
125.456697
 20
110.405698
 30
0.0
  0
VERTEX
  5
AC
100
AcDbEntity
  8
1
  6
CONTINUOUS
 62
           7
100
AcDbVertex
100
AcDb2dVertex
 10
125.540559
 20
110.2733
 30
0.0
  0
VERTEX
  5
AD
100
AcDbEntity
  8
1
  6
CONTINUOUS
 62
           7
100
AcDbVertex
100
AcDb2dVertex
 10
125.601204
 20
110.13008
 30
0.0
  0
VERTEX
  5
AE
100
AcDbEntity
  8
1
  6
CONTINUOUS
 62
           7
100
AcDbVertex
100
AcDb2dVertex
 10
125.628182
 20
110.025657
 30
0.0
  0
VERTEX
  5
AF
100
AcDbEntity
  8
1
  6
CONTINUOUS
 62
           7
100
AcDbVertex
100
AcDb2dVertex
 10
125.641682
 20
109.920286
 30
0.0
  0
VERTEX
  5
B0
100
AcDbEntity
  8
1
  6
CONTINUOUS
 62
           7
100
AcDbVertex
100
AcDb2dVertex
 10
125.643377
 20
109.867535
 30
0.0
  0
SEQEND
  5
B1
100
AcDbEntity
  8
1
  6
CONTINUOUS
 62
           7
  0
ENDBLK
  5
B2
100
AcDbEntity
  8
0
100
AcDbBlockEnd
  0
BLOCK
  5
B4
100
AcDbEntity
  8
0
100
AcDbBlockBegin
  2
AID1969_$10$
 70
           0
 10
0.0
 20
0.0
 30
0.0
  3
AID1969_$10$
  1

  0
TEXT
  5
B5
100
AcDbEntity
  8
1
 62
           7
100
AcDbText
 10
322.939517
 20
31.727585
 30
0.0
 40
5.0
  1
1：1
 41
0.811688303947
  7
BIGFONT
100
AcDbText
  0
ENDBLK
  5
B6
100
AcDbEntity
  8
0
100
AcDbBlockEnd
  0
BLOCK
  5
B8
100
AcDbEntity
  8
0
100
AcDbBlockBegin
  2
AID1973_$11$
 70
           0
 10
0.0
 20
0.0
 30
0.0
  3
AID1973_$11$
  1

  0
TEXT
  5
B9
100
AcDbEntity
  8
1
 62
           7
100
AcDbText
 10
351.576695
 20
39.871654
 30
0.0
 40
3.5
  1
圧力センサ耐熱中継Boxケーブル
 41
1.012428389167
  7
BIGFONT
100
AcDbText
  0
ENDBLK
  5
BA
100
AcDbEntity
  8
0
100
AcDbBlockEnd
  0
BLOCK
  5
BC
100
AcDbEntity
  8
0
100
AcDbBlockBegin
  2
AID1977_$12$
 70
           0
 10
0.0
 20
0.0
 30
0.0
  3
AID1977_$12$
  1

  0
TEXT
  5
BD
100
AcDbEntity
  8
1
 62
           7
100
AcDbText
 10
368.592621
 20
29.067426
 30
0.0
 40
4.0
  1
WJP0430H
 41
0.649350643158
  7
BIGFONT
100
AcDbText
  0
ENDBLK
  5
BE
100
AcDbEntity
  8
0
100
AcDbBlockEnd
  0
BLOCK
  5
C0
100
AcDbEntity
  8
0
100
AcDbBlockBegin
  2
AID1981_$13$
 70
           0
 10
0.0
 20
0.0
 30
0.0
  3
AID1981_$13$
  1

  0
TEXT
  5
C1
100
AcDbEntity
  8
1
 62
           2
100
AcDbText
 10
81.251264
 20
116.854429
 30
0.0
 40
6.0
  1
8
 50
90.0
 41
0.649350643158
  7
BIGFONT
100
AcDbText
  0
LINE
  5
C2
100
AcDbEntity
  8
1
  6
CONTINUOUS
 62
          11
100
AcDbLine
 10
82.423991
 20
120.618065
 30
0.0
 11
82.423991
 21
93.881701
 31
0.0
  0
LINE
  5
C3
100
AcDbEntity
  8
1
  6
CONTINUOUS
 62
          11
100
AcDbLine
 10
98.542952
 20
110.881701
 30
0.0
 11
80.623991
 21
110.881701
 31
0.0
  0
LINE
  5
C4
100
AcDbEntity
  8
1
  6
CONTINUOUS
 62
          11
100
AcDbLine
 10
98.542952
 20
102.881701
 30
0.0
 11
80.623991
 21
102.881701
 31
0.0
  0
POLYLINE
  5
C5
100
AcDbEntity
  8
1
  6
CONTINUOUS
 62
          11
100
AcDb2dPolyline
 66
           1
 10
0.0
 20
0.0
 30
0.0
  0
VERTEX
  5
C6
100
AcDbEntity
  8
1
  6
CONTINUOUS
 62
          11
100
AcDbVertex
100
AcDb2dVertex
 10
81.523991
 20
115.381701
 30
0.0
  0
VERTEX
  5
C7
100
AcDbEntity
  8
1
  6
CONTINUOUS
 62
          11
100
AcDbVertex
100
AcDb2dVertex
 10
82.423991
 20
110.881701
 30
0.0
  0
VERTEX
  5
C8
100
AcDbEntity
  8
1
  6
CONTINUOUS
 62
          11
100
AcDbVertex
100
AcDb2dVertex
 10
83.323991
 20
115.381701
 30
0.0
  0
SEQEND
  5
C9
100
AcDbEntity
  8
1
  6
CONTINUOUS
 62
          11
  0
POLYLINE
  5
CA
100
AcDbEntity
  8
1
  6
CONTINUOUS
 62
          11
100
AcDb2dPolyline
 66
           1
 10
0.0
 20
0.0
 30
0.0
  0
VERTEX
  5
CB
100
AcDbEntity
  8
1
  6
CONTINUOUS
 62
          11
100
AcDbVertex
100
AcDb2dVertex
 10
83.323991
 20
98.381701
 30
0.0
  0
VERTEX
  5
CC
100
AcDbEntity
  8
1
  6
CONTINUOUS
 62
          11
100
AcDbVertex
100
AcDb2dVertex
 10
82.423991
 20
102.881701
 30
0.0
  0
VERTEX
  5
CD
100
AcDbEntity
  8
1
  6
CONTINUOUS
 62
          11
100
AcDbVertex
100
AcDb2dVertex
 10
81.523991
 20
98.381701
 30
0.0
  0
SEQEND
  5
CE
100
AcDbEntity
  8
1
  6
CONTINUOUS
 62
          11
  0
ENDBLK
  5
CF
100
AcDbEntity
  8
0
100
AcDbBlockEnd
  0
BLOCK
  5
D1
100
AcDbEntity
  8
0
100
AcDbBlockBegin
  2
_POLYLINE_$14$
 70
           0
 10
0.0
 20
0.0
 30
0.0
  3
_POLYLINE_$14$
  1

  0
ARC
  5
D2
100
AcDbEntity
  8
1
  6
DOT
 62
           9
100
AcDbCircle
 10
372.047359776274
 20
199.369932402644
 30
0.0
 40
5.468211987575
100
AcDbArc
 50
318.465106091659
 51
64.494911928137
  0
ARC
  5
D3
100
AcDbEntity
  8
1
  6
DOT
 62
           9
100
AcDbCircle
 10
373.244228754616
 20
198.222207432528
 30
0.0
 40
3.811827420118
100
AcDbArc
 50
287.66366210115
 51
319.449939728311
  0
ENDBLK
  5
D4
100
AcDbEntity
  8
0
100
AcDbBlockEnd
  0
BLOCK
  5
D6
100
AcDbEntity
  8
0
100
AcDbBlockBegin
  2
_POLYLINE_$15$
 70
           0
 10
0.0
 20
0.0
 30
0.0
  3
_POLYLINE_$15$
  1

  0
ARC
  5
D7
100
AcDbEntity
  8
1
  6
DOT
 62
           9
100
AcDbCircle
 10
374.837795176073
 20
199.515604938005
 30
0.0
 40
5.449941028472
100
AcDbArc
 50
144.136106992362
 51
244.638283328178
  0
ARC
  5
D8
100
AcDbEntity
  8
1
  6
DOT
 62
           9
100
AcDbCircle
 10
373.720347298452
 20
200.560794015016
 30
0.0
 40
3.936715250193
100
AcDbArc
 50
107.963496214829
 51
146.936910040489
  0
ENDBLK
  5
D9
100
AcDbEntity
  8
0
100
AcDbBlockEnd
  0
ENDSEC
  0
SECTION
  2
ENTITIES
  0
LINE
  5
DA
100
AcDbEntity
  8
256
  6
CONTINUOUS
 62
           8
100
AcDbLine
 10
222.0
 20
34.5
 30
0.0
 11
271.0
 21
34.5
 31
0.0
  0
LINE
  5
DB
100
AcDbEntity
  8
256
  6
CONTINUOUS
 62
           8
100
AcDbLine
 10
390.25
 20
277.0
 30
0.0
 11
390.25
 21
287.0
 31
0.0
  0
LINE
  5
DC
100
AcDbEntity
  8
256
  6
CONTINUOUS
 62
           8
100
AcDbLine
 10
229.511017
 20
262.368011
 30
0.0
 11
234.511017
 21
262.368011
 31
0.0
  0
LINE
  5
DD
100
AcDbEntity
  8
256
  6
CONTINUOUS
 62
           8
100
AcDbLine
 10
222.0
 20
38.0
 30
0.0
 11
271.0
 21
38.0
 31
0.0
  0
LINE
  5
DE
100
AcDbEntity
  8
256
  6
CONTINUOUS
 62
           8
100
AcDbLine
 10
237.0
 20
287.0
 30
0.0
 11
237.0
 21
257.0
 31
0.0
  0
LINE
  5
DF
100
AcDbEntity
  8
256
  6
CONTINUOUS
 62
           8
100
AcDbLine
 10
303.8
 20
48.0
 30
0.0
 11
303.8
 21
10.0
 31
0.0
  0
LINE
  5
E0
100
AcDbEntity
  8
256
  6
CONTINUOUS
 62
           8
100
AcDbLine
 10
385.25
 20
277.0
 30
0.0
 11
385.25
 21
287.0
 31
0.0
  0
LINE
  5
E1
100
AcDbEntity
  8
256
  6
CONTINUOUS
 62
           8
100
AcDbLine
 10
287.4
 20
31.0
 30
0.0
 11
287.4
 21
10.0
 31
0.0
  0
LINE
  5
E2
100
AcDbEntity
  8
256
  6
CONTINUOUS
 62
           8
100
AcDbLine
 10
253.750031
 20
44.0
 30
0.0
 11
253.750031
 21
10.0
 31
0.0
  0
LINE
  5
E3
100
AcDbEntity
  8
256
  6
CONTINUOUS
 62
           8
100
AcDbLine
 10
410.0
 20
10.0
 30
0.0
 11
410.0
 21
287.0
 31
0.0
  0
LINE
  5
E4
100
AcDbEntity
  8
256
  6
CONTINUOUS
 62
           8
100
AcDbLine
 10
335.25
 20
15.666667
 30
0.0
 11
335.25
 21
48.0
 31
0.0
  0
LINE
  5
E5
100
AcDbEntity
  8
256
  6
CONTINUOUS
 62
           8
100
AcDbLine
 10
410.0
 20
287.0
 30
0.0
 11
10.0
 21
287.0
 31
0.0
  0
LINE
  5
E6
100
AcDbEntity
  8
256
  6
CONTINUOUS
 62
           8
100
AcDbLine
 10
362.0
 20
287.0
 30
0.0
 11
362.0
 21
257.0
 31
0.0
  0
LINE
  5
E7
100
AcDbEntity
  8
256
  6
CONTINUOUS
 62
           8
100
AcDbLine
 10
410.0
 20
267.0
 30
0.0
 11
227.0
 21
267.0
 31
0.0
  0
LINE
  5
E8
100
AcDbEntity
  8
256
  6
CONTINUOUS
 62
           8
100
AcDbLine
 10
410.0
 20
277.0
 30
0.0
 11
227.0
 21
277.0
 31
0.0
  0
LINE
  5
E9
100
AcDbEntity
  8
256
  6
CONTINUOUS
 62
           8
100
AcDbLine
 10
271.0
 20
41.0
 30
0.0
 11
335.25
 21
41.0
 31
0.0
  0
LINE
  5
EA
100
AcDbEntity
  8
256
  6
CONTINUOUS
 62
           8
100
AcDbLine
 10
222.0
 20
44.0
 30
0.0
 11
271.0
 21
44.0
 31
0.0
  0
LINE
  5
EB
100
AcDbEntity
  8
256
  6
CONTINUOUS
 62
           8
100
AcDbLine
 10
232.011017
 20
261.664886
 30
0.0
 11
229.511017
 21
257.368011
 31
0.0
  0
LINE
  5
EC
100
AcDbEntity
  8
256
  6
CONTINUOUS
 62
           8
100
AcDbLine
 10
248.000031
 20
38.0
 30
0.0
 11
222.0
 21
44.0
 31
0.0
  0
LINE
  5
ED
100
AcDbEntity
  8
256
  6
CONTINUOUS
 62
           8
100
AcDbLine
 10
357.0
 20
262.0
 30
0.0
 11
227.0
 21
262.0
 31
0.0
  0
LINE
  5
EE
100
AcDbEntity
  8
256
  6
CONTINUOUS
 62
           8
100
AcDbLine
 10
222.0
 20
31.0
 30
0.0
 11
320.25
 21
31.0
 31
0.0
  0
LINE
  5
EF
100
AcDbEntity
  8
256
  6
CONTINUOUS
 62
           8
100
AcDbLine
 10
234.511017
 20
267.368011
 30
0.0
 11
232.011017
 21
271.664886
 31
0.0
  0
LINE
  5
F0
100
AcDbEntity
  8
256
  6
CONTINUOUS
 62
           8
100
AcDbLine
 10
385.25
 20
282.0
 30
0.0
 11
362.0
 21
282.0
 31
0.0
  0
LINE
  5
F1
100
AcDbEntity
  8
256
  6
CONTINUOUS
 62
           8
100
AcDbLine
 10
10.0
 20
10.0
 30
0.0
 11
410.0
 21
10.0
 31
0.0
  0
LINE
  5
F2
100
AcDbEntity
  8
256
  6
CONTINUOUS
 62
           8
100
AcDbLine
 10
222.0
 20
48.0
 30
0.0
 11
410.0
 21
48.0
 31
0.0
  0
LINE
  5
F3
100
AcDbEntity
  8
256
  6
CONTINUOUS
 62
           8
100
AcDbLine
 10
227.000031
 20
10.0
 30
0.0
 11
410.0
 21
10.0
 31
0.0
  0
LINE
  5
F4
100
AcDbEntity
  8
256
  6
CONTINUOUS
 62
           8
100
AcDbLine
 10
342.0
 20
287.0
 30
0.0
 11
342.0
 21
257.0
 31
0.0
  0
LINE
  5
F5
100
AcDbEntity
  8
256
  6
CONTINUOUS
 62
           8
100
AcDbLine
 10
222.0
 20
13.5
 30
0.0
 11
271.000031
 21
13.5
 31
0.0
  0
LINE
  5
F6
100
AcDbEntity
  8
256
  6
CONTINUOUS
 62
           8
100
AcDbLine
 10
222.0
 20
20.5
 30
0.0
 11
271.0
 21
20.5
 31
0.0
  0
LINE
  5
F7
100
AcDbEntity
  8
256
  6
CONTINUOUS
 62
           8
100
AcDbLine
 10
222.0
 20
27.5
 30
0.0
 11
271.0
 21
27.5
 31
0.0
  0
LINE
  5
F8
100
AcDbEntity
  8
256
  6
CONTINUOUS
 62
           8
100
AcDbLine
 10
248.000031
 20
44.0
 30
0.0
 11
248.000031
 21
10.0
 31
0.0
  0
LINE
  5
F9
100
AcDbEntity
  8
256
  6
CONTINUOUS
 62
           8
100
AcDbLine
 10
222.0
 20
48.0
 30
0.0
 11
222.0
 21
10.0
 31
0.0
  0
LINE
  5
FA
100
AcDbEntity
  8
256
  6
CONTINUOUS
 62
           8
100
AcDbLine
 10
232.011017
 20
276.664886
 30
0.0
 11
229.511017
 21
272.368011
 31
0.0
  0
LINE
  5
FB
100
AcDbEntity
  8
256
  6
CONTINUOUS
 62
           8
100
AcDbLine
 10
357.0
 20
282.0
 30
0.0
 11
227.0
 21
282.0
 31
0.0
  0
LINE
  5
FC
100
AcDbEntity
  8
256
  6
CONTINUOUS
 62
           8
100
AcDbLine
 10
229.511017
 20
267.368011
 30
0.0
 11
234.511017
 21
267.368011
 31
0.0
  0
LINE
  5
FD
100
AcDbEntity
  8
256
  6
CONTINUOUS
 62
           8
100
AcDbLine
 10
222.0
 20
24.0
 30
0.0
 11
271.0
 21
24.0
 31
0.0
  0
LINE
  5
FE
100
AcDbEntity
  8
256
  6
CONTINUOUS
 62
           8
100
AcDbLine
 10
232.011017
 20
281.664886
 30
0.0
 11
229.511017
 21
277.368011
 31
0.0
  0
LINE
  5
FF
100
AcDbEntity
  8
256
  6
CONTINUOUS
 62
           8
100
AcDbLine
 10
265.250031
 20
44.0
 30
0.0
 11
265.250031
 21
10.0
 31
0.0
  0
LINE
  5
100
100
AcDbEntity
  8
256
  6
CONTINUOUS
 62
           8
100
AcDbLine
 10
229.511017
 20
277.368011
 30
0.0
 11
234.511017
 21
277.368011
 31
0.0
  0
LINE
  5
101
100
AcDbEntity
  8
256
  6
CONTINUOUS
 62
           8
100
AcDbLine
 10
320.25
 20
10.0
 30
0.0
 11
320.25
 21
48.0
 31
0.0
  0
LINE
  5
102
100
AcDbEntity
  8
256
  6
CONTINUOUS
 62
           8
100
AcDbLine
 10
232.011017
 20
271.664886
 30
0.0
 11
229.511017
 21
267.368011
 31
0.0
  0
LINE
  5
103
100
AcDbEntity
  8
256
  6
CONTINUOUS
 62
           8
100
AcDbLine
 10
234.511017
 20
277.368011
 30
0.0
 11
232.011017
 21
281.664886
 31
0.0
  0
LINE
  5
104
100
AcDbEntity
  8
256
  6
CONTINUOUS
 62
           8
100
AcDbLine
 10
222.0
 20
17.0
 30
0.0
 11
271.0
 21
17.0
 31
0.0
  0
LINE
  5
105
100
AcDbEntity
  8
256
  6
CONTINUOUS
 62
           8
100
AcDbLine
 10
271.0
 20
48.0
 30
0.0
 11
271.0
 21
10.0
 31
0.0
  0
LINE
  5
106
100
AcDbEntity
  8
256
  6
CONTINUOUS
 62
           8
100
AcDbLine
 10
357.0
 20
287.0
 30
0.0
 11
357.0
 21
257.0
 31
0.0
  0
LINE
  5
107
100
AcDbEntity
  8
256
  6
CONTINUOUS
 62
           8
100
AcDbLine
 10
335.25
 20
35.0
 30
0.0
 11
410.0
 21
35.0
 31
0.0
  0
LINE
  5
108
100
AcDbEntity
  8
256
  6
CONTINUOUS
 62
           8
100
AcDbLine
 10
227.0
 20
287.0
 30
0.0
 11
227.0
 21
257.0
 31
0.0
  0
LINE
  5
109
100
AcDbEntity
  8
256
  6
CONTINUOUS
 62
           8
100
AcDbLine
 10
327.0
 20
287.0
 30
0.0
 11
327.0
 21
257.0
 31
0.0
  0
LINE
  5
10A
100
AcDbEntity
  8
256
  6
CONTINUOUS
 62
           8
100
AcDbLine
 10
229.511017
 20
272.368011
 30
0.0
 11
234.511017
 21
272.368011
 31
0.0
  0
LINE
  5
10B
100
AcDbEntity
  8
256
  6
CONTINUOUS
 62
           8
100
AcDbLine
 10
259.500031
 20
44.0
 30
0.0
 11
259.500031
 21
10.0
 31
0.0
  0
LINE
  5
10C
100
AcDbEntity
  8
256
  6
CONTINUOUS
 62
           8
100
AcDbLine
 10
320.25
 20
15.666667
 30
0.0
 11
410.0
 21
15.666667
 31
0.0
  0
LINE
  5
10D
100
AcDbEntity
  8
256
  6
CONTINUOUS
 62
           8
100
AcDbLine
 10
229.511017
 20
257.368011
 30
0.0
 11
234.511017
 21
257.368011
 31
0.0
  0
LINE
  5
10E
100
AcDbEntity
  8
256
  6
CONTINUOUS
 62
           8
100
AcDbLine
 10
232.011017
 20
266.664886
 30
0.0
 11
229.511017
 21
262.368011
 31
0.0
  0
LINE
  5
10F
100
AcDbEntity
  8
256
  6
CONTINUOUS
 62
           8
100
AcDbLine
 10
410.0
 20
257.0
 30
0.0
 11
227.0
 21
257.0
 31
0.0
  0
LINE
  5
110
100
AcDbEntity
  8
256
  6
CONTINUOUS
 62
           8
100
AcDbLine
 10
234.511017
 20
257.368011
 30
0.0
 11
232.011017
 21
261.664886
 31
0.0
  0
LINE
  5
111
100
AcDbEntity
  8
256
  6
CONTINUOUS
 62
           8
100
AcDbLine
 10
271.0
 20
26.5
 30
0.0
 11
410.0
 21
26.5
 31
0.0
  0
LINE
  5
112
100
AcDbEntity
  8
256
  6
CONTINUOUS
 62
           8
100
AcDbLine
 10
10.0
 20
10.0
 30
0.0
 11
10.0
 21
287.0
 31
0.0
  0
LINE
  5
113
100
AcDbEntity
  8
256
  6
CONTINUOUS
 62
           8
100
AcDbLine
 10
234.511017
 20
262.368011
 30
0.0
 11
232.011017
 21
266.664886
 31
0.0
  0
LINE
  5
114
100
AcDbEntity
  8
256
  6
CONTINUOUS
 62
           8
100
AcDbLine
 10
350.25
 20
15.666667
 30
0.0
 11
350.25
 21
48.0
 31
0.0
  0
LINE
  5
115
100
AcDbEntity
  8
256
  6
CONTINUOUS
 62
           8
100
AcDbLine
 10
307.164695
 20
32.573373
 30
0.0
 11
314.235801
 21
39.644442
 31
0.0
  0
LINE
  5
116
100
AcDbEntity
  8
256
  6
CONTINUOUS
 62
           8
100
AcDbLine
 10
357.0
 20
272.0
 30
0.0
 11
227.0
 21
272.0
 31
0.0
  0
LINE
  5
117
100
AcDbEntity
  8
256
  6
CONTINUOUS
 62
           8
100
AcDbLine
 10
234.511017
 20
272.368011
 30
0.0
 11
232.011017
 21
276.664886
 31
0.0
  0
TEXT
  5
118
100
AcDbEntity
  8
256
 62
           8
100
AcDbText
 10
259.534121936184
 20
28.244792
 30
0.0
 40
1.75
  1
0.5  
 41
0.649350643158
  7
BIGFONT
 72
           1
 11
262.375031
 21
28.244792
 31
0.0
100
AcDbText
  0
TEXT
  5
119
100
AcDbEntity
  8
256
 62
           8
100
AcDbText
 10
248.034121936184
 20
21.244792
 30
0.0
 40
1.75
  1
0.2  
 41
0.649350643158
  7
BIGFONT
 72
           1
 11
250.875031
 21
21.244792
 31
0.0
100
AcDbText
  0
TEXT
  5
11A
100
AcDbEntity
  8
256
 62
           8
100
AcDbText
 10
249.17048556171
 20
31.167292
 30
0.0
 40
1.75
  1
0.1
 41
0.649350643158
  7
BIGFONT
 72
           1
 11
250.875031
 21
31.167292
 31
0.0
100
AcDbText
  0
TEXT
  5
11B
100
AcDbEntity
  8
256
 62
           8
100
AcDbText
 10
250.306849187237
 20
28.244792
 30
0.0
 40
1.75
  1
 
 41
0.649350643158
  7
BIGFONT
 72
           1
 11
250.875031
 21
28.244792
 31
0.0
100
AcDbText
  0
TEXT
  5
11C
100
AcDbEntity
  8
256
 62
           8
100
AcDbText
 10
248.034121936184
 20
17.744792
 30
0.0
 40
1.75
  1
0.3  
 41
0.649350643158
  7
BIGFONT
 72
           1
 11
250.875031
 21
17.744792
 31
0.0
100
AcDbText
  0
TEXT
  5
11D
100
AcDbEntity
  8
256
 62
           8
100
AcDbText
 10
276.031517774048
 20
42.856306
 30
0.0
 40
3.386667013168
  1
材    質  
 41
0.773036494723
  7
BIGFONT
 72
           1
 11
287.02719
 21
42.856306
 31
0.0
100
AcDbText
  0
TEXT
  5
11E
100
AcDbEntity
  8
256
 62
           8
100
AcDbText
 10
254.92048556171
 20
38.167292
 30
0.0
 40
1.75
  1
0.1
 41
0.649350643158
  7
BIGFONT
 72
           1
 11
256.625031
 21
38.167292
 31
0.0
100
AcDbText
  0
TEXT
  5
11F
100
AcDbEntity
  8
256
 62
           8
100
AcDbText
 10
256.056849187237
 20
35.244792
 30
0.0
 40
1.75
  1
 
 41
0.649350643158
  7
BIGFONT
 72
           1
 11
256.625031
 21
35.244792
 31
0.0
100
AcDbText
  0
TEXT
  5
120
100
AcDbEntity
  8
256
 62
           8
100
AcDbText
 10
267.556833187237
 20
17.167292
 30
0.0
 40
1.75
  1
6
 41
0.649350643158
  7
BIGFONT
 72
           1
 11
268.125015
 21
17.167292
 31
0.0
100
AcDbText
  0
TEXT
  5
121
100
AcDbEntity
  8
256
 62
           8
100
AcDbText
 10
267.556833187237
 20
14.244792
 30
0.0
 40
1.75
  1
 
 41
0.649350643158
  7
BIGFONT
 72
           1
 11
268.125015
 21
14.244792
 31
0.0
100
AcDbText
  0
TEXT
  5
122
100
AcDbEntity
  8
256
 62
           8
100
AcDbText
 10
266.42046956171
 20
24.167292
 30
0.0
 40
1.75
  1
2.5
 41
0.649350643158
  7
BIGFONT
 72
           1
 11
268.125015
 21
24.167292
 31
0.0
100
AcDbText
  0
TEXT
  5
123
100
AcDbEntity
  8
256
 62
           8
100
AcDbText
 10
267.556833187237
 20
21.244792
 30
0.0
 40
1.75
  1
 
 41
0.649350643158
  7
BIGFONT
 72
           1
 11
268.125015
 21
21.244792
 31
0.0
100
AcDbText
  0
TEXT
  5
124
100
AcDbEntity
  8
256
 62
           8
100
AcDbText
 10
304.825109298782
 20
42.980576
 30
0.0
 40
3.386667013168
  1
個 数  
 41
0.841750865454
  7
BIGFONT
 72
           1
 11
312.52208
 21
42.980576
 31
0.0
100
AcDbText
  0
TEXT
  5
125
100
AcDbEntity
  8
256
 62
           8
100
AcDbText
 10
356.464972759148
 20
257.742347
 30
0.0
 40
2.8222219944
  1
理  
 41
0.811688283231
  7
BIGFONT
 72
           1
 11
360.130196
 21
257.742347
 31
0.0
100
AcDbText
  0
TEXT
  5
126
100
AcDbEntity
  8
256
 62
           8
100
AcDbText
 10
253.566345208252
 20
41.133356
 30
0.0
 40
1.795199990273
  1
中級  
 41
0.885478146445
  7
BIGFONT
 72
           1
 11
257.063488
 21
41.133356
 31
0.0
100
AcDbText
  0
TEXT
  5
127
100
AcDbEntity
  8
256
 62
           8
100
AcDbText
 10
265.51667078421
 20
39.076539
 30
0.0
 40
2.0
  1
v ±  
 41
0.624375618421
  7
BIGFONT
 72
           1
 11
268.763424
 21
39.076539
 31
0.0
100
AcDbText
  0
TEXT
  5
128
100
AcDbEntity
  8
256
 62
           8
100
AcDbText
 10
223.633835489471
 20
10.744792
 30
0.0
 40
1.75
  1
2000を超え4000以下  
 41
0.811688303947
  7
BIGFONT
 72
           2
 11
246.361108
 21
10.744792
 31
0.0
100
AcDbText
  0
TEXT
  5
129
100
AcDbEntity
  8
256
 62
           8
100
AcDbText
 10
309.731836887024
 20
32.880846
 30
0.0
 40
3.386667013168
  1
1台  
 41
0.773036494723
  7
BIGFONT
 72
           1
 11
315.229673
 21
32.880846
 31
0.0
100
AcDbText
  0
TEXT
  5
12A
100
AcDbEntity
  8
256
 62
           8
100
AcDbText
 10
223.656390489471
 20
21.244792
 30
0.0
 40
1.75
  1
 120を超え 400以下  
 41
0.811688303947
  7
BIGFONT
 72
           2
 11
246.383663
 21
21.244792
 31
0.0
100
AcDbText
  0
TEXT
  5
12B
100
AcDbEntity
  8
256
 62
           8
100
AcDbText
 10
383.981927181145
 20
278.047566
 30
0.0
 40
3.386667013168
  1
取  
 41
0.81168830626
  7
BIGFONT
 72
           1
 11
388.380196
 21
278.047566
 31
0.0
100
AcDbText
  0
TEXT
  5
12C
100
AcDbEntity
  8
256
 62
           8
100
AcDbText
 10
383.981927181145
 20
282.575181
 30
0.0
 40
3.386667013168
  1
面  
 41
0.81168830626
  7
BIGFONT
 72
           1
 11
388.380196
 21
282.575181
 31
0.0
100
AcDbText
  0
TEXT
  5
12D
100
AcDbEntity
  8
256
 62
           8
100
AcDbText
 10
222.431649984081
 20
38.623908
 30
0.0
 40
1.5
  1
寸法の区分(mm)  
 41
0.865800890658
  7
BIGFONT
 72
           1
 11
230.223858
 21
38.623908
 31
0.0
100
AcDbText
  0
TEXT
  5
12E
100
AcDbEntity
  8
256
 62
           8
100
AcDbText
 10
335.514533298782
 20
19.692223
 30
0.0
 40
3.386667013168
  1
図 番  
 41
0.841750865454
  7
BIGFONT
 72
           1
 11
343.211504
 21
19.692223
 31
0.0
100
AcDbText
  0
TEXT
  5
12F
100
AcDbEntity
  8
256
 62
           8
100
AcDbText
 10
259.534121936184
 20
31.744792
 30
0.0
 40
1.75
  1
0.3  
 41
0.649350643158
  7
BIGFONT
 72
           1
 11
262.375031
 21
31.744792
 31
0.0
100
AcDbText
  0
TEXT
  5
130
100
AcDbEntity
  8
256
 62
           8
100
AcDbText
 10
355.731927181145
 20
268.089407
 30
0.0
 40
3.386667013168
  1
理  
 41
0.81168830626
  7
BIGFONT
 72
           1
 11
360.130196
 21
268.089407
 31
0.0
100
AcDbText
  0
TEXT
  5
131
100
AcDbEntity
  8
256
 62
           8
100
AcDbText
 10
223.642279489471
 20
14.244792
 30
0.0
 40
1.75
  1
1000を超え2000以下  
 41
0.811688303947
  7
BIGFONT
 72
           2
 11
246.369552
 21
14.244792
 31
0.0
100
AcDbText
  0
TEXT
  5
132
100
AcDbEntity
  8
256
 62
           8
100
AcDbText
 10
266.42046956171
 20
27.667292
 30
0.0
 40
1.75
  1
1.5
 41
0.649350643158
  7
BIGFONT
 72
           1
 11
268.125015
 21
27.667292
 31
0.0
100
AcDbText
  0
TEXT
  5
133
100
AcDbEntity
  8
256
 62
           8
100
AcDbText
 10
267.556833187237
 20
24.744792
 30
0.0
 40
1.75
  1
 
 41
0.649350643158
  7
BIGFONT
 72
           1
 11
268.125015
 21
24.744792
 31
0.0
100
AcDbText
  0
TEXT
  5
134
100
AcDbEntity
  8
256
 62
           8
100
AcDbText
 10
259.534121936184
 20
35.244792
 30
0.0
 40
1.75
  1
0.2  
 41
0.649350643158
  7
BIGFONT
 72
           1
 11
262.375031
 21
35.244792
 31
0.0
100
AcDbText
  0
TEXT
  5
135
100
AcDbEntity
  8
256
 62
           8
100
AcDbText
 10
342.087152425796
 20
288.66922589
 30
0.0
 40
3.386667013168
  1
年月日   
 41
0.885478128284
  7
BIGFONT
 72
           1
 11
351.983257
 21
288.66922589
 31
0.0
100
AcDbText
  0
TEXT
  5
136
100
AcDbEntity
  8
256
 62
           8
100
AcDbText
 10
350.883689825088
 20
283.013492
 30
0.0
 40
3.386667013168
  1
 
 41
0.649350627408
  7
BIGFONT
 72
           1
 11
351.983257
 21
283.013492
 31
0.0
100
AcDbText
  0
TEXT
  5
137
100
AcDbEntity
  8
256
 62
           8
100
AcDbText
 10
247.465940123421
 20
31.744792
 30
0.0
 40
1.75
  1
0.05  
 41
0.649350643158
  7
BIGFONT
 72
           1
 11
250.875031
 21
31.744792
 31
0.0
100
AcDbText
  0
TEXT
  5
138
100
AcDbEntity
  8
256
 62
           8
100
AcDbText
 10
247.465940123421
 20
35.244792
 30
0.0
 40
1.75
  1
0.05  
 41
0.649350643158
  7
BIGFONT
 72
           1
 11
250.875031
 21
35.244792
 31
0.0
100
AcDbText
  0
TEXT
  5
139
100
AcDbEntity
  8
256
 62
           8
100
AcDbText
 10
261.806849187237
 20
13.667292
 30
0.0
 40
1.75
  1
4
 41
0.649350643158
  7
BIGFONT
 72
           1
 11
262.375031
 21
13.667292
 31
0.0
100
AcDbText
  0
TEXT
  5
13A
100
AcDbEntity
  8
256
 62
           8
100
AcDbText
 10
261.806849187237
 20
10.744792
 30
0.0
 40
1.75
  1
 
 41
0.649350643158
  7
BIGFONT
 72
           1
 11
262.375031
 21
10.744792
 31
0.0
100
AcDbText
  0
TEXT
  5
13B
100
AcDbEntity
  8
256
 62
           8
100
AcDbText
 10
335.562652298782
 20
40.051182
 30
0.0
 40
3.386667013168
  1
名 称  
 41
0.841750865454
  7
BIGFONT
 72
           1
 11
343.259623
 21
40.051182
 31
0.0
100
AcDbText
  0
TEXT
  5
13C
100
AcDbEntity
  8
256
 62
           8
100
AcDbText
 10
272.345718298782
 20
27.073014
 30
0.0
 40
3.386667013168
  1
設 計  
 41
0.841750865454
  7
BIGFONT
 72
           1
 11
280.042689
 21
27.073014
 31
0.0
100
AcDbText
  0
TEXT
  5
13D
100
AcDbEntity
  8
256
 62
           8
100
AcDbText
 10
267.556833187237
 20
20.667292
 30
0.0
 40
1.75
  1
4
 41
0.649350643158
  7
BIGFONT
 72
           1
 11
268.125015
 21
20.667292
 31
0.0
100
AcDbText
  0
TEXT
  5
13E
100
AcDbEntity
  8
256
 62
           8
100
AcDbText
 10
267.556833187237
 20
17.744792
 30
0.0
 40
1.75
  1
 
 41
0.649350643158
  7
BIGFONT
 72
           1
 11
268.125015
 21
17.744792
 31
0.0
100
AcDbText
  0
TEXT
  5
13F
100
AcDbEntity
  8
256
 62
           8
100
AcDbText
 10
253.784121936184
 20
28.244792
 30
0.0
 40
1.75
  1
0.2  
 41
0.649350643158
  7
BIGFONT
 72
           1
 11
256.625031
 21
28.244792
 31
0.0
100
AcDbText
  0
TEXT
  5
140
100
AcDbEntity
  8
256
 62
           8
100
AcDbText
 10
223.640901489471
 20
17.744792
 30
0.0
 40
1.75
  1
 400を超え1000以下  
 41
0.811688303947
  7
BIGFONT
 72
           2
 11
246.368174
 21
17.744792
 31
0.0
100
AcDbText
  0
TEXT
  5
141
100
AcDbEntity
  8
256
 62
           8
100
AcDbText
 10
248.034121936184
 20
14.244792
 30
0.0
 40
1.75
  1
0.5  
 41
0.649350643158
  7
BIGFONT
 72
           1
 11
250.875031
 21
14.244792
 31
0.0
100
AcDbText
  0
TEXT
  5
142
100
AcDbEntity
  8
256
 62
           8
100
AcDbText
 10
254.01668678421
 20
39.076539
 30
0.0
 40
2.0
  1
m ±  
 41
0.624375618421
  7
BIGFONT
 72
           1
 11
257.26344
 21
39.076539
 31
0.0
100
AcDbText
  0
TEXT
  5
143
100
AcDbEntity
  8
256
 62
           8
100
AcDbText
 10
223.717181489471
 20
35.244792
 30
0.0
 40
1.75
  1
 0.5を超え   3以下  
 41
0.811688303947
  7
BIGFONT
 72
           2
 11
246.444454
 21
35.244792
 31
0.0
100
AcDbText
  0
TEXT
  5
144
100
AcDbEntity
  8
256
 62
           8
100
AcDbText
 10
223.718623489471
 20
31.744792
 30
0.0
 40
1.75
  1
   3を超え   6以下  
 41
0.811688303947
  7
BIGFONT
 72
           2
 11
246.445896
 21
31.744792
 31
0.0
100
AcDbText
  0
TEXT
  5
145
100
AcDbEntity
  8
256
 62
           8
100
AcDbText
 10
334.981490545792
 20
29.512776
 30
0.0
 40
2.539999961853
  1
部品番号  
 41
0.954927463879
  7
BIGFONT
 72
           1
 11
343.228244
 21
29.512776
 31
0.0
100
AcDbText
  0
TEXT
  5
146
100
AcDbEntity
  8
256
 62
           8
100
AcDbText
 10
247.698127208252
 20
41.133356
 30
0.0
 40
1.795199990273
  1
精級  
 41
0.885478146445
  7
BIGFONT
 72
           1
 11
251.19527
 21
41.133356
 31
0.0
100
AcDbText
  0
TEXT
  5
147
100
AcDbEntity
  8
256
 62
           8
100
AcDbText
 10
223.671941489471
 20
24.744792
 30
0.0
 40
1.75
  1
  30を超え 120以下  
 41
0.811688303947
  7
BIGFONT
 72
           2
 11
246.399214
 21
24.744792
 31
0.0
100
AcDbText
  0
TEXT
  5
148
100
AcDbEntity
  8
256
 62
           8
100
AcDbText
 10
259.534121936184
 20
24.744792
 30
0.0
 40
1.75
  1
0.8  
 41
0.649350643158
  7
BIGFONT
 72
           1
 11
262.375031
 21
24.744792
 31
0.0
100
AcDbText
  0
TEXT
  5
149
100
AcDbEntity
  8
256
 62
           8
100
AcDbText
 10
237.545170176315
 20
40.925781
 30
0.0
 40
1.5
  1
公差等級  
 41
0.954927416409
  7
BIGFONT
 72
           1
 11
242.4153
 21
40.925781
 31
0.0
100
AcDbText
  0
TEXT
  5
14A
100
AcDbEntity
  8
256
 62
           8
100
AcDbText
 10
223.702880489471
 20
28.244792
 30
0.0
 40
1.75
  1
   6を超え  30以下  
 41
0.811688303947
  7
BIGFONT
 72
           2
 11
246.430153
 21
28.244792
 31
0.0
100
AcDbText
  0
TEXT
  5
14B
100
AcDbEntity
  8
256
 62
           8
100
AcDbText
 10
261.14003267511
 20
282.942152
 30
0.0
 40
3.386667013168
  1
訂    正    内    容  
 41
0.759878408754
  7
BIGFONT
 72
           1
 11
285.330511
 21
282.942152
 31
0.0
100
AcDbText
  0
TEXT
  5
14C
100
AcDbEntity
  8
256
 62
           8
100
AcDbText
 10
253.784121936184
 20
24.744792
 30
0.0
 40
1.75
  1
0.3  
 41
0.649350643158
  7
BIGFONT
 72
           1
 11
256.625031
 21
24.744792
 31
0.0
100
AcDbText
  0
TEXT
  5
14D
100
AcDbEntity
  8
256
 62
           8
100
AcDbText
 10
261.806849187237
 20
20.667292
 30
0.0
 40
1.75
  1
2
 41
0.649350643158
  7
BIGFONT
 72
           1
 11
262.375031
 21
20.667292
 31
0.0
100
AcDbText
  0
TEXT
  5
14E
100
AcDbEntity
  8
256
 62
           8
100
AcDbText
 10
261.806849187237
 20
17.744792
 30
0.0
 40
1.75
  1
 
 41
0.649350643158
  7
BIGFONT
 72
           1
 11
262.375031
 21
17.744792
 31
0.0
100
AcDbText
  0
TEXT
  5
14F
100
AcDbEntity
  8
256
 62
           8
100
AcDbText
 10
261.806849187237
 20
17.167292
 30
0.0
 40
1.75
  1
3
 41
0.649350643158
  7
BIGFONT
 72
           1
 11
262.375031
 21
17.167292
 31
0.0
100
AcDbText
  0
TEXT
  5
150
100
AcDbEntity
  8
256
 62
           8
100
AcDbText
 10
261.806849187237
 20
14.244792
 30
0.0
 40
1.75
  1
 
 41
0.649350643158
  7
BIGFONT
 72
           1
 11
262.375031
 21
14.244792
 31
0.0
100
AcDbText
  0
TEXT
  5
151
100
AcDbEntity
  8
256
 62
           8
100
AcDbText
 10
319.890783481499
 20
19.668163
 30
0.0
 40
3.386667013168
  1
三角法  
 41
0.927643766011
  7
BIGFONT
 72
           1
 11
328.687321
 21
19.668163
 31
0.0
100
AcDbText
  0
TEXT
  5
152
100
AcDbEntity
  8
256
 62
           8
100
AcDbText
 10
331.838807100906
 20
11.0735
 30
0.0
 40
3.386667013168
  1
双 葉 電 子 工 業 株 式 会 社  
 41
0.875211727445
  7
BIGFONT
 72
           1
 11
365.92539
 21
11.0735
 31
0.0
100
AcDbText
  0
TEXT
  5
153
100
AcDbEntity
  8
256
 62
           8
100
AcDbText
 10
253.784121936184
 20
17.744792
 30
0.0
 40
1.75
  1
0.8  
 41
0.649350643158
  7
BIGFONT
 72
           1
 11
256.625031
 21
17.744792
 31
0.0
100
AcDbText
  0
TEXT
  5
154
100
AcDbEntity
  8
256
 62
           8
100
AcDbText
 10
305.072912298782
 20
27.273035
 30
0.0
 40
3.386667013168
  1
承 認  
 41
0.841750865454
  7
BIGFONT
 72
           1
 11
312.769883
 21
27.273035
 31
0.0
100
AcDbText
  0
TEXT
  5
155
100
AcDbEntity
  8
256
 62
           8
100
AcDbText
 10
266.42046956171
 20
28.244792
 30
0.0
 40
1.75
  1
1  
 41
0.649350643158
  7
BIGFONT
 72
           1
 11
268.125015
 21
28.244792
 31
0.0
100
AcDbText
  0
TEXT
  5
156
100
AcDbEntity
  8
256
 62
           8
100
AcDbText
 10
223.893800680275
 20
45.235875
 30
0.0
 40
1.700000047684
  1
削り加工寸法の普通許容差 JIS B 0405-1991  
 41
0.841750859459
  7
BIGFONT
 72
           1
 11
247.07562
 21
45.235875
 31
0.0
100
AcDbText
  0
TEXT
  5
157
100
AcDbEntity
  8
256
 62
           8
100
AcDbText
 10
247.465940123421
 20
24.744792
 30
0.0
 40
1.75
  1
0.15  
 41
0.649350643158
  7
BIGFONT
 72
           1
 11
250.875031
 21
24.744792
 31
0.0
100
AcDbText
  0
TEXT
  5
158
100
AcDbEntity
  8
256
 62
           8
100
AcDbText
 10
250.050355678421
 20
14.081384
 30
0.0
 40
2.539999961853
  1
-
 41
0.649350656665
  7
BIGFONT
 72
           1
 11
250.875031
 21
14.081384
 31
0.0
100
AcDbText
  0
TEXT
  5
159
100
AcDbEntity
  8
256
 62
           8
100
AcDbText
 10
250.050355678421
 20
9.839584
 30
0.0
 40
2.539999961853
  1
 
 41
0.649350656665
  7
BIGFONT
 72
           1
 11
250.875031
 21
9.839584
 31
0.0
100
AcDbText
  0
TEXT
  5
15A
100
AcDbEntity
  8
256
 62
           8
100
AcDbText
 10
288.348264298782
 20
27.214792
 30
0.0
 40
3.386667013168
  1
検 図  
 41
0.841750865454
  7
BIGFONT
 72
           1
 11
296.045235
 21
27.214792
 31
0.0
100
AcDbText
  0
TEXT
  5
15B
100
AcDbEntity
  8
256
 62
           8
100
AcDbText
 10
267.300339678421
 20
38.581384
 30
0.0
 40
2.539999961853
  1
-
 41
0.649350656665
  7
BIGFONT
 72
           1
 11
268.125015
 21
38.581384
 31
0.0
100
AcDbText
  0
TEXT
  5
15C
100
AcDbEntity
  8
256
 62
           8
100
AcDbText
 10
267.300339678421
 20
34.339584
 30
0.0
 40
2.539999961853
  1
 
 41
0.649350656665
  7
BIGFONT
 72
           1
 11
268.125015
 21
34.339584
 31
0.0
100
AcDbText
  0
TEXT
  5
15D
100
AcDbEntity
  8
256
 62
           8
100
AcDbText
 10
254.92048556171
 20
34.667292
 30
0.0
 40
1.75
  1
0.1
 41
0.649350643158
  7
BIGFONT
 72
           1
 11
256.625031
 21
34.667292
 31
0.0
100
AcDbText
  0
TEXT
  5
15E
100
AcDbEntity
  8
256
 62
           8
100
AcDbText
 10
256.056849187237
 20
31.744792
 30
0.0
 40
1.75
  1
 
 41
0.649350643158
  7
BIGFONT
 72
           1
 11
256.625031
 21
31.744792
 31
0.0
100
AcDbText
  0
TEXT
  5
15F
100
AcDbEntity
  8
256
 62
           8
100
AcDbText
 10
259.76668678421
 20
39.076539
 30
0.0
 40
2.0
  1
c ±  
 41
0.624375618421
  7
BIGFONT
 72
           1
 11
263.01344
 21
39.076539
 31
0.0
100
AcDbText
  0
TEXT
  5
160
100
AcDbEntity
  8
256
 62
           8
100
AcDbText
 10
355.731927181145
 20
278.047566
 30
0.0
 40
3.386667013168
  1
上  
 41
0.81168830626
  7
BIGFONT
 72
           1
 11
360.130196
 21
278.047566
 31
0.0
100
AcDbText
  0
TEXT
  5
161
100
AcDbEntity
  8
256
 62
           8
100
AcDbText
 10
226.150618950531
 20
282.92144
 30
0.0
 40
3.386667013168
  1
記号  
 41
0.885478128284
  7
BIGFONT
 72
           1
 11
232.748022
 21
282.92144
 31
0.0
100
AcDbText
  0
TEXT
  5
162
100
AcDbEntity
  8
256
 62
           8
100
AcDbText
 10
253.784121936184
 20
21.244792
 30
0.0
 40
1.75
  1
0.5  
 41
0.649350643158
  7
BIGFONT
 72
           1
 11
256.625031
 21
21.244792
 31
0.0
100
AcDbText
  0
TEXT
  5
163
100
AcDbEntity
  8
256
 62
           8
100
AcDbText
 10
256.056849187237
 20
13.667292
 30
0.0
 40
1.75
  1
2
 41
0.649350643158
  7
BIGFONT
 72
           1
 11
256.625031
 21
13.667292
 31
0.0
100
AcDbText
  0
TEXT
  5
164
100
AcDbEntity
  8
256
 62
           8
100
AcDbText
 10
256.056849187237
 20
10.744792
 30
0.0
 40
1.75
  1
 
 41
0.649350643158
  7
BIGFONT
 72
           1
 11
256.625031
 21
10.744792
 31
0.0
100
AcDbText
  0
TEXT
  5
165
100
AcDbEntity
  8
256
 62
           8
100
AcDbText
 10
260.67048556171
 20
24.167292
 30
0.0
 40
1.75
  1
1.2
 41
0.649350643158
  7
BIGFONT
 72
           1
 11
262.375031
 21
24.167292
 31
0.0
100
AcDbText
  0
TEXT
  5
166
100
AcDbEntity
  8
256
 62
           8
100
AcDbText
 10
261.806849187237
 20
21.244792
 30
0.0
 40
1.75
  1
 
 41
0.649350643158
  7
BIGFONT
 72
           1
 11
262.375031
 21
21.244792
 31
0.0
100
AcDbText
  0
TEXT
  5
167
100
AcDbEntity
  8
256
 62
           8
100
AcDbText
 10
355.731927181145
 20
282.575181
 30
0.0
 40
3.386667013168
  1
仕  
 41
0.81168830626
  7
BIGFONT
 72
           1
 11
360.130196
 21
282.575181
 31
0.0
100
AcDbText
  0
TEXT
  5
168
100
AcDbEntity
  8
256
 62
           8
100
AcDbText
 10
267.556833187237
 20
13.667292
 30
0.0
 40
1.75
  1
8
 41
0.649350643158
  7
BIGFONT
 72
           1
 11
268.125015
 21
13.667292
 31
0.0
100
AcDbText
  0
TEXT
  5
169
100
AcDbEntity
  8
256
 62
           8
100
AcDbText
 10
267.556833187237
 20
10.744792
 30
0.0
 40
1.75
  1
 
 41
0.649350643158
  7
BIGFONT
 72
           1
 11
268.125015
 21
10.744792
 31
0.0
100
AcDbText
  0
TEXT
  5
16A
100
AcDbEntity
  8
256
 62
           8
100
AcDbText
 10
356.464972759148
 20
260.858133
 30
0.0
 40
2.8222219944
  1
処  
 41
0.811688283231
  7
BIGFONT
 72
           1
 11
360.130196
 21
260.858133
 31
0.0
100
AcDbText
  0
TEXT
  5
16B
100
AcDbEntity
  8
256
 62
           8
100
AcDbText
 10
324.775701360718
 20
283.013492
 30
0.0
 40
3.386667013168
  1
担当者     
 41
0.830564805103
  7
BIGFONT
 72
           1
 11
336.870941
 21
283.013492
 31
0.0
100
AcDbText
  0
TEXT
  5
16C
100
AcDbEntity
  8
256
 62
           8
100
AcDbText
 10
248.33098178421
 20
39.076539
 30
0.0
 40
2.0
  1
f ±  
 41
0.624375618421
  7
BIGFONT
 72
           1
 11
251.577735
 21
39.076539
 31
0.0
100
AcDbText
  0
TEXT
  5
16D
100
AcDbEntity
  8
256
 62
           8
100
AcDbText
 10
356.464972759148
 20
263.973919
 30
0.0
 40
2.8222219944
  1
熱  
 41
0.811688283231
  7
BIGFONT
 72
           1
 11
360.130196
 21
263.973919
 31
0.0
100
AcDbText
  0
TEXT
  5
16E
100
AcDbEntity
  8
256
 62
           8
100
AcDbText
 10
265.284105936184
 20
31.744792
 30
0.0
 40
1.75
  1
0.5  
 41
0.649350643158
  7
BIGFONT
 72
           1
 11
268.125015
 21
31.744792
 31
0.0
100
AcDbText
  0
TEXT
  5
16F
100
AcDbEntity
  8
256
 62
           8
100
AcDbText
 10
320.797248298782
 20
43.012096
 30
0.0
 40
3.386667013168
  1
尺 度  
 41
0.841750865454
  7
BIGFONT
 72
           1
 11
328.494219
 21
43.012096
 31
0.0
100
AcDbText
  0
TEXT
  5
170
100
AcDbEntity
  8
256
 62
           8
100
AcDbText
 10
259.163046208252
 20
41.133356
 30
0.0
 40
1.795199990273
  1
粗級  
 41
0.885478146445
  7
BIGFONT
 72
           1
 11
262.660189
 21
41.133356
 31
0.0
100
AcDbText
  0
TEXT
  5
171
100
AcDbEntity
  8
256
 62
           8
100
AcDbText
 10
222.164604105789
 20
40.357732
 30
0.0
 40
1.5
  1
基準  
 41
0.885478149761
  7
BIGFONT
 72
           1
 11
225.086682
 21
40.357732
 31
0.0
100
AcDbText
  0
TEXT
  5
172
100
AcDbEntity
  8
256
 62
           8
100
AcDbText
 10
264.269802292526
 20
41.201556
 30
0.0
 40
1.583999991417
  1
極粗級  
 41
0.927643788277
  7
BIGFONT
 72
           1
 11
268.384088
 21
41.201556
 31
0.0
100
AcDbText
  0
TEXT
  5
173
100
AcDbEntity
  8
256
 62
           8
100
AcDbText
 10
254.92048556171
 20
17.167292
 30
0.0
 40
1.75
  1
1.2
 41
0.649350643158
  7
BIGFONT
 72
           1
 11
256.625031
 21
17.167292
 31
0.0
100
AcDbText
  0
TEXT
  5
174
100
AcDbEntity
  8
256
 62
           8
100
AcDbText
 10
256.056849187237
 20
14.244792
 30
0.0
 40
1.75
  1
 
 41
0.649350643158
  7
BIGFONT
 72
           1
 11
256.625031
 21
14.244792
 31
0.0
100
AcDbText
  0
TEXT
  5
175
100
AcDbEntity
  8
256
 62
           8
100
AcDbText
 10
355.731927181145
 20
272.53334
 30
0.0
 40
3.386667013168
  1
処  
 41
0.81168830626
  7
BIGFONT
 72
           1
 11
360.130196
 21
272.53334
 31
0.0
100
AcDbText
  0
INSERT
  5
176
100
AcDbEntity
  8
0
  6
CONTINUOUS
 62
           7
100
AcDbBlockReference
  2
AID287_$1$
 10
0.0
 20
0.0
 30
0.0
  0
LINE
  5
177
100
AcDbEntity
  8
1
  6
CONTINUOUS
 62
           7
100
AcDbLine
 10
111.768394
 20
210.575675
 30
0.0
 11
115.587109
 21
210.575675
 31
0.0
  0
LINE
  5
178
100
AcDbEntity
  8
1
  6
CONTINUOUS
 62
           7
100
AcDbLine
 10
116.447018
 20
210.585324
 30
0.0
 11
116.847516
 21
210.985994
 31
0.0
  0
LINE
  5
179
100
AcDbEntity
  8
1
  6
CONTINUOUS
 62
           7
100
AcDbLine
 10
117.261624
 20
210.571886
 30
0.0
 11
117.667808
 21
210.97807
 31
0.0
  0
LINE
  5
17A
100
AcDbEntity
  8
1
  6
CONTINUOUS
 62
           7
100
AcDbLine
 10
117.667808
 20
210.97807
 30
0.0
 11
118.071233
 21
210.574641
 31
0.0
  0
LINE
  5
17B
100
AcDbEntity
  8
1
  6
CONTINUOUS
 62
           7
100
AcDbLine
 10
118.071233
 20
210.574641
 30
0.0
 11
118.487063
 21
210.990471
 31
0.0
  0
LINE
  5
17C
100
AcDbEntity
  8
1
  6
CONTINUOUS
 62
           7
100
AcDbLine
 10
118.487063
 20
210.990471
 30
0.0
 11
118.905651
 21
210.571886
 31
0.0
  0
LINE
  5
17D
100
AcDbEntity
  8
1
  6
CONTINUOUS
 62
           7
100
AcDbLine
 10
118.905651
 20
210.571886
 30
0.0
 11
119.604942
 21
211.271007
 31
0.0
  0
ARC
  5
17E
100
AcDbEntity
  8
1
  6
CONTINUOUS
 62
           7
100
AcDbCircle
 10
119.817048
 20
211.05885
 30
0.0
 40
0.3
100
AcDbArc
 50
29.981639
 51
134.993061
  0
LINE
  5
17F
100
AcDbEntity
  8
1
  6
CONTINUOUS
 62
           7
100
AcDbLine
 10
120.076904
 20
211.208766
 30
0.0
 11
120.167265
 21
211.052141
 31
0.0
  0
LINE
  5
180
100
AcDbEntity
  8
1
  6
CONTINUOUS
 62
           7
100
AcDbLine
 10
120.167265
 20
211.052141
 30
0.0
 11
120.167265
 21
209.271343
 31
0.0
  0
LINE
  5
181
100
AcDbEntity
  8
1
  6
CONTINUOUS
 62
           7
100
AcDbLine
 10
120.167265
 20
209.271343
 30
0.0
 11
113.122966
 21
209.271343
 31
0.0
  0
LINE
  5
182
100
AcDbEntity
  8
1
  6
CONTINUOUS
 62
           7
100
AcDbLine
 10
113.122966
 20
209.271343
 30
0.0
 11
111.768394
 21
210.575675
 31
0.0
  0
LINE
  5
183
100
AcDbEntity
  8
1
  6
CONTINUOUS
 62
           7
100
AcDbLine
 10
116.847516
 20
210.985994
 30
0.0
 11
117.261624
 21
210.571886
 31
0.0
  0
LINE
  5
184
100
AcDbEntity
  8
1
  6
CONTINUOUS
 62
           7
100
AcDbLine
 10
115.587109
 20
210.575675
 30
0.0
 11
116.021886
 21
211.010456
 31
0.0
  0
LINE
  5
185
100
AcDbEntity
  8
1
  6
CONTINUOUS
 62
           7
100
AcDbLine
 10
116.021886
 20
211.010456
 30
0.0
 11
116.447018
 21
210.585324
 31
0.0
  0
LINE
  5
186
100
AcDbEntity
  8
1
  6
CONTINUOUS
 62
           7
100
AcDbLine
 10
125.643377
 20
204.447836
 30
0.0
 11
125.643377
 21
202.774996
 31
0.0
  0
ARC
  5
187
100
AcDbEntity
  8
1
  6
CONTINUOUS
 62
           7
100
AcDbCircle
 10
134.982634
 20
201.924688
 30
0.0
 40
10.631793
100
AcDbArc
 50
193.471787
 51
201.058931
  0
ARC
  5
188
100
AcDbEntity
  8
1
  6
CONTINUOUS
 62
           7
100
AcDbCircle
 10
134.780953
 20
197.033667
 30
0.0
 40
10.421068
100
AcDbArc
 50
158.864243
 51
166.605039
  0
ARC
  5
189
100
AcDbEntity
  8
1
  6
CONTINUOUS
 62
           7
100
AcDbCircle
 10
120.181264
 20
203.301405
 30
0.0
 40
5.487421
100
AcDbArc
 50
332.778491
 51
354.495139
  0
LINE
  5
18A
100
AcDbEntity
  8
1
  6
CONTINUOUS
 62
           7
100
AcDbLine
 10
125.643377
 20
196.120676
 30
0.0
 11
125.643377
 21
194.447836
 31
0.0
  0
ARC
  5
18B
100
AcDbEntity
  8
1
  6
CONTINUOUS
 62
           7
100
AcDbCircle
 10
120.162855
 20
195.588861
 30
0.0
 40
5.506265
100
AcDbArc
 50
5.542471
 51
27.183898
  0
LINE
  5
18C
100
AcDbEntity
  8
1
  6
CONTINUOUS
 62
           7
100
AcDbLine
 10
134.643377
 20
204.247836
 30
0.0
 11
134.643377
 21
194.647836
 31
0.0
  0
ARC
  5
18D
100
AcDbEntity
  8
1
  6
CONTINUOUS
 62
           7
100
AcDbCircle
 10
135.580136
 20
200.911505
 30
0.0
 40
11.034265
100
AcDbArc
 50
179.493307
 51
187.622618
  0
LINE
  5
18E
100
AcDbEntity
  8
1
  6
CONTINUOUS
 62
           7
100
AcDbLine
 10
124.546302
 20
201.009085
 30
0.0
 11
125.060924
 21
200.791284
 31
0.0
  0
ARC
  5
18F
100
AcDbEntity
  8
1
  6
CONTINUOUS
 62
           7
100
AcDbCircle
 10
135.577606
 20
197.984323
 30
0.0
 40
11.031738
100
AcDbArc
 50
172.376449
 51
180.507626
  0
LINE
  5
190
100
AcDbEntity
  8
1
  6
CONTINUOUS
 62
           7
100
AcDbLine
 10
125.060924
 20
198.104387
 30
0.0
 11
124.546302
 21
197.886586
 31
0.0
  0
POLYLINE
  5
191
100
AcDbEntity
  8
1
  6
CONTINUOUS
 62
           7
100
AcDb2dPolyline
 66
           1
 10
0.0
 20
0.0
 30
0.0
  0
VERTEX
  5
192
100
AcDbEntity
  8
1
  6
CONTINUOUS
 62
           7
100
AcDbVertex
100
AcDb2dVertex
 10
124.643377
 20
195.540044
 30
0.0
  0
VERTEX
  5
193
100
AcDbEntity
  8
1
  6
CONTINUOUS
 62
           7
100
AcDbVertex
100
AcDb2dVertex
 10
124.629592
 20
196.255683
 30
0.0
  0
VERTEX
  5
194
100
AcDbEntity
  8
1
  6
CONTINUOUS
 62
           7
100
AcDbVertex
100
AcDb2dVertex
 10
124.59476
 20
197.045462
 30
0.0
  0
VERTEX
  5
195
100
AcDbEntity
  8
1
  6
CONTINUOUS
 62
           7
100
AcDbVertex
100
AcDb2dVertex
 10
124.546302
 20
197.886586
 30
0.0
  0
SEQEND
  5
196
100
AcDbEntity
  8
1
  6
CONTINUOUS
 62
           7
  0
LINE
  5
197
100
AcDbEntity
  8
1
  6
CONTINUOUS
 62
           7
100
AcDbLine
 10
124.643377
 20
195.540044
 30
0.0
 11
124.643377
 21
189.547722
 31
0.0
  0
LINE
  5
198
100
AcDbEntity
  8
1
  6
CONTINUOUS
 62
           7
100
AcDbLine
 10
124.643377
 20
209.34795
 30
0.0
 11
124.643377
 21
203.355628
 31
0.0
  0
POLYLINE
  5
199
100
AcDbEntity
  8
1
  6
CONTINUOUS
 62
           7
100
AcDb2dPolyline
 66
           1
 10
0.0
 20
0.0
 30
0.0
  0
VERTEX
  5
19A
100
AcDbEntity
  8
1
  6
CONTINUOUS
 62
           7
100
AcDbVertex
100
AcDb2dVertex
 10
124.546302
 20
201.009085
 30
0.0
  0
VERTEX
  5
19B
100
AcDbEntity
  8
1
  6
CONTINUOUS
 62
           7
100
AcDbVertex
100
AcDb2dVertex
 10
124.594939
 20
201.853651
 30
0.0
  0
VERTEX
  5
19C
100
AcDbEntity
  8
1
  6
CONTINUOUS
 62
           7
100
AcDbVertex
100
AcDb2dVertex
 10
124.629682
 20
202.64263
 30
0.0
  0
VERTEX
  5
19D
100
AcDbEntity
  8
1
  6
CONTINUOUS
 62
           7
100
AcDbVertex
100
AcDb2dVertex
 10
124.643377
 20
203.355628
 30
0.0
  0
SEQEND
  5
19E
100
AcDbEntity
  8
1
  6
CONTINUOUS
 62
           7
  0
LINE
  5
19F
100
AcDbEntity
  8
1
  6
CONTINUOUS
 62
           7
100
AcDbLine
 10
123.643377
 20
188.547722
 30
0.0
 11
121.785969
 21
188.547722
 31
0.0
  0
LINE
  5
1A0
100
AcDbEntity
  8
1
  6
CONTINUOUS
 62
           7
100
AcDbLine
 10
121.785969
 20
188.547722
 30
0.0
 11
121.868802
 21
188.747722
 31
0.0
  0
ARC
  5
1A1
100
AcDbEntity
  8
1
  6
CONTINUOUS
 62
           7
100
AcDbCircle
 10
123.643377
 20
189.547722
 30
0.0
 40
1.0
100
AcDbArc
 50
270.0
 51
0.0
  0
ARC
  5
1A2
100
AcDbEntity
  8
1
  6
CONTINUOUS
 62
           7
100
AcDbCircle
 10
109.84695
 20
186.747468
 30
0.0
 40
0.2
100
AcDbArc
 50
270.0
 51
313.917525
  0
LINE
  5
1A3
100
AcDbEntity
  8
1
  6
CONTINUOUS
 62
           7
100
AcDbLine
 10
109.84695
 20
186.547468
 30
0.0
 11
100.342952
 21
186.547468
 31
0.0
  0
ARC
  5
1A4
100
AcDbEntity
  8
1
  6
CONTINUOUS
 62
           7
100
AcDbCircle
 10
109.84695
 20
212.147858
 30
0.0
 40
0.2
100
AcDbArc
 50
46.082475
 51
90.0
  0
LINE
  5
1A5
100
AcDbEntity
  8
1
  6
CONTINUOUS
 62
           7
100
AcDbLine
 10
100.342952
 20
212.347858
 30
0.0
 11
109.84695
 21
212.347858
 31
0.0
  0
LINE
  5
1A6
100
AcDbEntity
  8
1
  6
CONTINUOUS
 62
           7
100
AcDbLine
 10
113.042328
 20
209.070994
 30
0.0
 11
113.122966
 21
209.270994
 31
0.0
  0
LINE
  5
1A7
100
AcDbEntity
  8
1
  6
CONTINUOUS
 62
           7
100
AcDbLine
 10
113.122966
 20
209.270994
 30
0.0
 11
120.709186
 21
209.270994
 31
0.0
  0
LINE
  5
1A8
100
AcDbEntity
  8
1
  6
CONTINUOUS
 62
           7
100
AcDbLine
 10
120.792038
 20
209.070994
 30
0.0
 11
120.709186
 21
209.270994
 31
0.0
  0
ARC
  5
1A9
100
AcDbEntity
  8
1
  6
CONTINUOUS
 62
           7
100
AcDbCircle
 10
100.342952
 20
187.247468
 30
0.0
 40
0.7
100
AcDbArc
 50
180.0
 51
270.0
  0
LINE
  5
1AA
100
AcDbEntity
  8
1
  6
CONTINUOUS
 62
           7
100
AcDbLine
 10
109.985674
 20
212.291926
 30
0.0
 11
113.122966
 21
209.270994
 31
0.0
  0
LINE
  5
1AB
100
AcDbEntity
  8
1
  6
CONTINUOUS
 62
           7
100
AcDbLine
 10
121.868821
 20
210.14795
 30
0.0
 11
121.785969
 21
210.34795
 31
0.0
  0
LINE
  5
1AC
100
AcDbEntity
  8
1
  6
CONTINUOUS
 62
           7
100
AcDbLine
 10
121.785969
 20
210.34795
 30
0.0
 11
123.643377
 21
210.34795
 31
0.0
  0
LINE
  5
1AD
100
AcDbEntity
  8
1
  6
CONTINUOUS
 62
           7
100
AcDbLine
 10
120.709186
 20
209.270994
 30
0.0
 11
121.785969
 21
210.34795
 31
0.0
  0
LINE
  5
1AE
100
AcDbEntity
  8
1
  6
CONTINUOUS
 62
           7
100
AcDbLine
 10
113.122966
 20
189.624332
 30
0.0
 11
109.985674
 21
186.6034
 31
0.0
  0
LINE
  5
1AF
100
AcDbEntity
  8
1
  6
CONTINUOUS
 62
           7
100
AcDbLine
 10
113.122966
 20
189.624332
 30
0.0
 11
113.042328
 21
189.824332
 31
0.0
  0
LINE
  5
1B0
100
AcDbEntity
  8
1
  6
CONTINUOUS
 62
           7
100
AcDbLine
 10
120.709186
 20
189.624332
 30
0.0
 11
113.122966
 21
189.624332
 31
0.0
  0
LINE
  5
1B1
100
AcDbEntity
  8
1
  6
CONTINUOUS
 62
           7
100
AcDbLine
 10
120.709186
 20
189.624332
 30
0.0
 11
120.792019
 21
189.824332
 31
0.0
  0
LINE
  5
1B2
100
AcDbEntity
  8
1
  6
CONTINUOUS
 62
           7
100
AcDbLine
 10
121.785969
 20
188.547722
 30
0.0
 11
120.709186
 21
189.624332
 31
0.0
  0
ARC
  5
1B3
100
AcDbEntity
  8
1
  6
CONTINUOUS
 62
           7
100
AcDbCircle
 10
100.342952
 20
211.647858
 30
0.0
 40
0.7
100
AcDbArc
 50
90.0
 51
180.0
  0
LINE
  5
1B4
100
AcDbEntity
  8
1
  6
CONTINUOUS
 62
           7
100
AcDbLine
 10
99.642952
 20
187.247468
 30
0.0
 11
99.642952
 21
211.647858
 31
0.0
  0
ARC
  5
1B5
100
AcDbEntity
  8
1
  6
CONTINUOUS
 62
           7
100
AcDbCircle
 10
123.643377
 20
209.34795
 30
0.0
 40
1.0
100
AcDbArc
 50
0.0
 51
90.0
  0
LINE
  5
1B6
100
AcDbEntity
  8
1
  6
CONTINUOUS
 62
           7
100
AcDbLine
 10
125.643377
 20
196.120676
 30
0.0
 11
124.643377
 21
195.540044
 31
0.0
  0
LINE
  5
1B7
100
AcDbEntity
  8
1
  6
CONTINUOUS
 62
           7
100
AcDbLine
 10
124.643377
 20
203.355628
 30
0.0
 11
125.643377
 21
202.774996
 31
0.0
  0
LINE
  5
1B8
100
AcDbEntity
  8
1
  6
CONTINUOUS
 62
           7
100
AcDbLine
 10
120.167265
 20
187.843534
 30
0.0
 11
120.167265
 21
189.624332
 31
0.0
  0
ARC
  5
1B9
100
AcDbEntity
  8
1
  6
CONTINUOUS
 62
           7
100
AcDbCircle
 10
119.817048
 20
187.836825
 30
0.0
 40
0.3
100
AcDbArc
 50
225.006939
 51
330.018361
  0
LINE
  5
1BA
100
AcDbEntity
  8
1
  6
CONTINUOUS
 62
           7
100
AcDbLine
 10
118.905651
 20
188.323789
 30
0.0
 11
119.604942
 21
187.624667
 31
0.0
  0
LINE
  5
1BB
100
AcDbEntity
  8
1
  6
CONTINUOUS
 62
           7
100
AcDbLine
 10
118.487063
 20
187.905204
 30
0.0
 11
118.905651
 21
188.323789
 31
0.0
  0
LINE
  5
1BC
100
AcDbEntity
  8
1
  6
CONTINUOUS
 62
           7
100
AcDbLine
 10
118.071233
 20
188.321033
 30
0.0
 11
118.487063
 21
187.905204
 31
0.0
  0
LINE
  5
1BD
100
AcDbEntity
  8
1
  6
CONTINUOUS
 62
           7
100
AcDbLine
 10
117.667808
 20
187.917604
 30
0.0
 11
118.071233
 21
188.321033
 31
0.0
  0
LINE
  5
1BE
100
AcDbEntity
  8
1
  6
CONTINUOUS
 62
           7
100
AcDbLine
 10
117.261624
 20
188.323789
 30
0.0
 11
117.667808
 21
187.917604
 31
0.0
  0
LINE
  5
1BF
100
AcDbEntity
  8
1
  6
CONTINUOUS
 62
           7
100
AcDbLine
 10
116.847516
 20
187.909681
 30
0.0
 11
117.261624
 21
188.323789
 31
0.0
  0
LINE
  5
1C0
100
AcDbEntity
  8
1
  6
CONTINUOUS
 62
           7
100
AcDbLine
 10
116.447018
 20
188.310351
 30
0.0
 11
116.847516
 21
187.909681
 31
0.0
  0
LINE
  5
1C1
100
AcDbEntity
  8
1
  6
CONTINUOUS
 62
           7
100
AcDbLine
 10
116.021886
 20
187.885219
 30
0.0
 11
116.447018
 21
188.310351
 31
0.0
  0
LINE
  5
1C2
100
AcDbEntity
  8
1
  6
CONTINUOUS
 62
           7
100
AcDbLine
 10
115.587109
 20
188.32
 30
0.0
 11
116.021886
 21
187.885219
 31
0.0
  0
LINE
  5
1C3
100
AcDbEntity
  8
1
  6
CONTINUOUS
 62
           7
100
AcDbLine
 10
111.768394
 20
188.32
 30
0.0
 11
115.587109
 21
188.32
 31
0.0
  0
LINE
  5
1C4
100
AcDbEntity
  8
1
  6
CONTINUOUS
 62
           7
100
AcDbLine
 10
120.076904
 20
187.686908
 30
0.0
 11
120.167265
 21
187.843534
 31
0.0
  0
LINE
  5
1C5
100
AcDbEntity
  8
1
  6
CONTINUOUS
 62
           7
100
AcDbLine
 10
96.742952
 20
205.811048
 30
0.0
 11
96.742952
 21
206.411048
 31
0.0
  0
LINE
  5
1C6
100
AcDbEntity
  8
1
  6
CONTINUOUS
 62
           7
100
AcDbLine
 10
96.742952
 20
193.083925
 30
0.0
 11
96.742952
 21
205.811048
 31
0.0
  0
LINE
  5
1C7
100
AcDbEntity
  8
1
  6
CONTINUOUS
 62
           7
100
AcDbLine
 10
96.742952
 20
192.483925
 30
0.0
 11
96.742952
 21
193.083925
 31
0.0
  0
LINE
  5
1C8
100
AcDbEntity
  8
1
  6
DOT
 62
           9
100
AcDbLine
 10
97.242952
 20
194.647837
 30
0.0
 11
97.242952
 21
204.247837
 31
0.0
  0
LINE
  5
1C9
100
AcDbEntity
  8
1
  6
DOT
 62
           9
100
AcDbLine
 10
97.342952
 20
204.447837
 30
0.0
 11
99.642952
 21
204.447837
 31
0.0
  0
LINE
  5
1CA
100
AcDbEntity
  8
1
  6
DOT
 62
           9
100
AcDbLine
 10
97.242952
 20
204.247837
 30
0.0
 11
97.242952
 21
204.347837
 31
0.0
  0
ARC
  5
1CB
100
AcDbEntity
  8
1
  6
DOT
 62
           9
100
AcDbCircle
 10
97.342952
 20
204.347837
 30
0.0
 40
0.1
100
AcDbArc
 50
90.0
 51
180.0
  0
LINE
  5
1CC
100
AcDbEntity
  8
1
  6
DOT
 62
           9
100
AcDbLine
 10
97.242952
 20
194.547837
 30
0.0
 11
97.242952
 21
194.647837
 31
0.0
  0
ARC
  5
1CD
100
AcDbEntity
  8
1
  6
DOT
 62
           9
100
AcDbCircle
 10
97.342952
 20
194.547837
 30
0.0
 40
0.1
100
AcDbArc
 50
180.0
 51
270.0
  0
LINE
  5
1CE
100
AcDbEntity
  8
1
  6
DOT
 62
           9
100
AcDbLine
 10
99.642952
 20
194.447837
 30
0.0
 11
97.342952
 21
194.447837
 31
0.0
  0
LINE
  5
1CF
100
AcDbEntity
  8
1
  6
CONTINUOUS
 62
           7
100
AcDbLine
 10
134.443377
 20
204.447836
 30
0.0
 11
125.643377
 21
204.447836
 31
0.0
  0
LINE
  5
1D0
100
AcDbEntity
  8
1
  6
CONTINUOUS
 62
           7
100
AcDbLine
 10
125.643377
 20
194.447836
 30
0.0
 11
134.443377
 21
194.447836
 31
0.0
  0
ARC
  5
1D1
100
AcDbEntity
  8
1
  6
CONTINUOUS
 62
           7
100
AcDbCircle
 10
134.443377
 20
194.647836
 30
0.0
 40
0.2
100
AcDbArc
 50
270.0
 51
0.0
  0
ARC
  5
1D2
100
AcDbEntity
  8
1
  6
CONTINUOUS
 62
           7
100
AcDbCircle
 10
134.443377
 20
204.247836
 30
0.0
 40
0.2
100
AcDbArc
 50
0.0
 51
90.0
  0
LINE
  5
1D3
100
AcDbEntity
  8
1
  6
CONTINUOUS
 62
           7
100
AcDbLine
 10
124.643377
 20
193.447836
 30
0.0
 11
125.643377
 21
194.447836
 31
0.0
  0
LINE
  5
1D4
100
AcDbEntity
  8
1
  6
CONTINUOUS
 62
           7
100
AcDbLine
 10
125.643377
 20
204.447836
 30
0.0
 11
124.643377
 21
205.447836
 31
0.0
  0
LINE
  5
1D5
100
AcDbEntity
  8
1
  6
CONTINUOUS
 62
           7
100
AcDbLine
 10
198.283131
 20
201.647836
 30
0.0
 11
134.643377
 21
201.647836
 31
0.0
  0
LINE
  5
1D6
100
AcDbEntity
  8
1
  6
CONTINUOUS
 62
           7
100
AcDbLine
 10
134.643377
 20
197.247836
 30
0.0
 11
196.00456
 21
197.247836
 31
0.0
  0
ARC
  5
1D7
100
AcDbEntity
  8
1
  6
CONTINUOUS
 62
           7
100
AcDbCircle
 10
97.042952
 20
206.411048
 30
0.0
 40
0.3
100
AcDbArc
 50
90.0
 51
180.0
  0
LINE
  5
1D8
100
AcDbEntity
  8
1
  6
CONTINUOUS
 62
           7
100
AcDbLine
 10
99.642952
 20
206.711048
 30
0.0
 11
97.042952
 21
206.711048
 31
0.0
  0
LINE
  5
1D9
100
AcDbEntity
  8
1
  6
CONTINUOUS
 62
           7
100
AcDbLine
 10
97.042952
 20
192.183925
 30
0.0
 11
99.642952
 21
192.183925
 31
0.0
  0
ARC
  5
1DA
100
AcDbEntity
  8
1
  6
CONTINUOUS
 62
           7
100
AcDbCircle
 10
97.042952
 20
192.483925
 30
0.0
 40
0.3
100
AcDbArc
 50
180.0
 51
270.0
  0
LINE
  5
1DB
100
AcDbEntity
  8
1
  6
DOT
 62
           9
100
AcDbLine
 10
99.642952
 20
206.411048
 30
0.0
 11
96.742952
 21
206.411048
 31
0.0
  0
LINE
  5
1DC
100
AcDbEntity
  8
1
  6
DOT
 62
           9
100
AcDbLine
 10
96.742952
 20
192.483925
 30
0.0
 11
99.642952
 21
192.483925
 31
0.0
  0
LINE
  5
1DD
100
AcDbEntity
  8
1
  6
CONTINUOUS
 62
           7
100
AcDbLine
 10
293.59274
 20
206.147836
 30
0.0
 11
293.59274
 21
192.747836
 31
0.0
  0
LINE
  5
1DE
100
AcDbEntity
  8
1
  6
CONTINUOUS
 62
           7
100
AcDbLine
 10
273.59274
 20
192.747836
 30
0.0
 11
273.59274
 21
199.447836
 31
0.0
  0
LINE
  5
1DF
100
AcDbEntity
  8
1
  6
CONTINUOUS
 62
           7
100
AcDbLine
 10
273.59274
 20
199.447836
 30
0.0
 11
273.59274
 21
206.147836
 31
0.0
  0
LINE
  5
1E0
100
AcDbEntity
  8
1
  6
CONTINUOUS
 62
           7
100
AcDbLine
 10
264.19274
 20
193.847836
 30
0.0
 11
264.19274
 21
194.128296
 31
0.0
  0
LINE
  5
1E1
100
AcDbEntity
  8
1
  6
CONTINUOUS
 62
           7
100
AcDbLine
 10
263.59274
 20
194.447836
 30
0.0
 11
263.59274
 21
199.447836
 31
0.0
  0
LINE
  5
1E2
100
AcDbEntity
  8
1
  6
DOT
 62
           9
100
AcDbLine
 10
264.59274
 20
203.987288
 30
0.0
 11
264.59274
 21
203.371274
 31
0.0
  0
LINE
  5
1E3
100
AcDbEntity
  8
1
  6
DOT
 62
           9
100
AcDbLine
 10
264.59274
 20
205.145247
 30
0.0
 11
264.59274
 21
204.687246
 31
0.0
  0
LINE
  5
1E4
100
AcDbEntity
  8
1
  6
CONTINUOUS
 62
           7
100
AcDbLine
 10
264.19274
 20
204.767375
 30
0.0
 11
264.19274
 21
205.047836
 31
0.0
  0
POLYLINE
  5
1E5
100
AcDbEntity
  8
1
  6
CONTINUOUS
 62
           7
100
AcDb2dPolyline
 66
           1
 10
0.0
 20
0.0
 30
0.0
  0
VERTEX
  5
1E6
100
AcDbEntity
  8
1
  6
CONTINUOUS
 62
           7
100
AcDbVertex
100
AcDb2dVertex
 10
264.462152
 20
205.05029
 30
0.0
  0
VERTEX
  5
1E7
100
AcDbEntity
  8
1
  6
CONTINUOUS
 62
           7
100
AcDbVertex
100
AcDb2dVertex
 10
264.256963
 20
204.834942
 30
0.0
  0
VERTEX
  5
1E8
100
AcDbEntity
  8
1
  6
CONTINUOUS
 62
           7
100
AcDbVertex
100
AcDb2dVertex
 10
264.19274
 20
204.767375
 30
0.0
  0
SEQEND
  5
1E9
100
AcDbEntity
  8
1
  6
CONTINUOUS
 62
           7
  0
LINE
  5
1EA
100
AcDbEntity
  8
1
  6
CONTINUOUS
 62
           7
100
AcDbLine
 10
264.59274
 20
205.145247
 30
0.0
 11
264.586341
 21
205.150195
 31
0.0
  0
LINE
  5
1EB
100
AcDbEntity
  8
1
  6
CONTINUOUS
 62
           7
100
AcDbLine
 10
264.59274
 20
205.145247
 30
0.0
 11
264.59274
 21
204.687246
 31
0.0
  0
POLYLINE
  5
1EC
100
AcDbEntity
  8
1
  6
CONTINUOUS
 62
           7
100
AcDb2dPolyline
 66
           1
 10
0.0
 20
0.0
 30
0.0
  0
VERTEX
  5
1ED
100
AcDbEntity
  8
1
  6
CONTINUOUS
 62
           7
100
AcDbVertex
100
AcDb2dVertex
 10
264.483411
 20
204.542565
 30
0.0
  0
VERTEX
  5
1EE
100
AcDbEntity
  8
1
  6
CONTINUOUS
 62
           7
100
AcDbVertex
100
AcDb2dVertex
 10
264.557365
 20
204.618535
 30
0.0
  0
VERTEX
  5
1EF
100
AcDbEntity
  8
1
  6
CONTINUOUS
 62
           7
100
AcDbVertex
100
AcDb2dVertex
 10
264.59274
 20
204.687246
 30
0.0
  0
SEQEND
  5
1F0
100
AcDbEntity
  8
1
  6
CONTINUOUS
 62
           7
  0
LINE
  5
1F1
100
AcDbEntity
  8
1
  6
CONTINUOUS
 62
           7
100
AcDbLine
 10
264.19274
 20
204.303554
 30
0.0
 11
264.483411
 21
204.542565
 31
0.0
  0
LINE
  5
1F2
100
AcDbEntity
  8
1
  6
CONTINUOUS
 62
           7
100
AcDbLine
 10
264.19274
 20
203.729978
 30
0.0
 11
264.19274
 21
204.303554
 31
0.0
  0
LINE
  5
1F3
100
AcDbEntity
  8
1
  6
CONTINUOUS
 62
           7
100
AcDbLine
 10
264.483411
 20
203.968988
 30
0.0
 11
264.19274
 21
203.729978
 31
0.0
  0
LINE
  5
1F4
100
AcDbEntity
  8
1
  6
CONTINUOUS
 62
           7
100
AcDbLine
 10
264.59274
 20
203.987288
 30
0.0
 11
264.568751
 21
204.011631
 31
0.0
  0
LINE
  5
1F5
100
AcDbEntity
  8
1
  6
CONTINUOUS
 62
           7
100
AcDbLine
 10
264.59274
 20
203.987288
 30
0.0
 11
264.59274
 21
203.371274
 31
0.0
  0
POLYLINE
  5
1F6
100
AcDbEntity
  8
1
  6
CONTINUOUS
 62
           7
100
AcDb2dPolyline
 66
           1
 10
0.0
 20
0.0
 30
0.0
  0
VERTEX
  5
1F7
100
AcDbEntity
  8
1
  6
CONTINUOUS
 62
           7
100
AcDbVertex
100
AcDb2dVertex
 10
264.483411
 20
203.223968
 30
0.0
  0
VERTEX
  5
1F8
100
AcDbEntity
  8
1
  6
CONTINUOUS
 62
           7
100
AcDbVertex
100
AcDb2dVertex
 10
264.561554
 20
203.295376
 30
0.0
  0
VERTEX
  5
1F9
100
AcDbEntity
  8
1
  6
CONTINUOUS
 62
           7
100
AcDbVertex
100
AcDb2dVertex
 10
264.59274
 20
203.371274
 30
0.0
  0
SEQEND
  5
1FA
100
AcDbEntity
  8
1
  6
CONTINUOUS
 62
           7
  0
LINE
  5
1FB
100
AcDbEntity
  8
1
  6
CONTINUOUS
 62
           7
100
AcDbLine
 10
264.19274
 20
203.056611
 30
0.0
 11
264.483411
 21
203.223968
 31
0.0
  0
LINE
  5
1FC
100
AcDbEntity
  8
1
  6
CONTINUOUS
 62
           7
100
AcDbLine
 10
264.19274
 20
202.237459
 30
0.0
 11
264.19274
 21
203.056611
 31
0.0
  0
LINE
  5
1FD
100
AcDbEntity
  8
1
  6
CONTINUOUS
 62
           7
100
AcDbLine
 10
264.483411
 20
202.404816
 30
0.0
 11
264.19274
 21
202.237459
 31
0.0
  0
LINE
  5
1FE
100
AcDbEntity
  8
1
  6
CONTINUOUS
 62
           7
100
AcDbLine
 10
264.59274
 20
202.371631
 30
0.0
 11
264.542109
 21
202.422901
 31
0.0
  0
LINE
  5
1FF
100
AcDbEntity
  8
1
  6
CONTINUOUS
 62
           7
100
AcDbLine
 10
264.59274
 20
202.371631
 30
0.0
 11
264.59274
 21
201.329192
 31
0.0
  0
POLYLINE
  5
200
100
AcDbEntity
  8
1
  6
CONTINUOUS
 62
           7
100
AcDb2dPolyline
 66
           1
 10
0.0
 20
0.0
 30
0.0
  0
VERTEX
  5
201
100
AcDbEntity
  8
1
  6
CONTINUOUS
 62
           7
100
AcDbVertex
100
AcDb2dVertex
 10
264.462152
 20
201.197836
 30
0.0
  0
VERTEX
  5
202
100
AcDbEntity
  8
1
  6
CONTINUOUS
 62
           7
100
AcDbVertex
100
AcDb2dVertex
 10
264.553353
 20
201.240763
 30
0.0
  0
VERTEX
  5
203
100
AcDbEntity
  8
1
  6
CONTINUOUS
 62
           7
100
AcDbVertex
100
AcDb2dVertex
 10
264.59274
 20
201.329192
 30
0.0
  0
SEQEND
  5
204
100
AcDbEntity
  8
1
  6
CONTINUOUS
 62
           7
  0
LINE
  5
205
100
AcDbEntity
  8
1
  6
CONTINUOUS
 62
           7
100
AcDbLine
 10
264.19274
 20
201.197836
 30
0.0
 11
264.462152
 21
201.197836
 31
0.0
  0
LINE
  5
206
100
AcDbEntity
  8
1
  6
CONTINUOUS
 62
           7
100
AcDbLine
 10
264.19274
 20
197.697836
 30
0.0
 11
264.19274
 21
201.197836
 31
0.0
  0
LINE
  5
207
100
AcDbEntity
  8
1
  6
CONTINUOUS
 62
           7
100
AcDbLine
 10
264.462152
 20
197.697836
 30
0.0
 11
264.19274
 21
197.697836
 31
0.0
  0
POLYLINE
  5
208
100
AcDbEntity
  8
1
  6
CONTINUOUS
 62
           7
100
AcDb2dPolyline
 66
           1
 10
0.0
 20
0.0
 30
0.0
  0
VERTEX
  5
209
100
AcDbEntity
  8
1
  6
CONTINUOUS
 62
           7
100
AcDbVertex
100
AcDb2dVertex
 10
264.59274
 20
197.56648
 30
0.0
  0
VERTEX
  5
20A
100
AcDbEntity
  8
1
  6
CONTINUOUS
 62
           7
100
AcDbVertex
100
AcDb2dVertex
 10
264.546658
 20
197.661451
 30
0.0
  0
VERTEX
  5
20B
100
AcDbEntity
  8
1
  6
CONTINUOUS
 62
           7
100
AcDbVertex
100
AcDb2dVertex
 10
264.462152
 20
197.697836
 30
0.0
  0
SEQEND
  5
20C
100
AcDbEntity
  8
1
  6
CONTINUOUS
 62
           7
  0
LINE
  5
20D
100
AcDbEntity
  8
1
  6
CONTINUOUS
 62
           7
100
AcDbLine
 10
264.59274
 20
197.56648
 30
0.0
 11
264.59274
 21
196.52404
 31
0.0
  0
LINE
  5
20E
100
AcDbEntity
  8
1
  6
CONTINUOUS
 62
           7
100
AcDbLine
 10
264.483411
 20
196.490855
 30
0.0
 11
264.542103
 21
196.47277
 31
0.0
  0
LINE
  5
20F
100
AcDbEntity
  8
1
  6
CONTINUOUS
 62
           7
100
AcDbLine
 10
264.19274
 20
196.658212
 30
0.0
 11
264.483411
 21
196.490855
 31
0.0
  0
LINE
  5
210
100
AcDbEntity
  8
1
  6
CONTINUOUS
 62
           7
100
AcDbLine
 10
264.19274
 20
195.83906
 30
0.0
 11
264.19274
 21
196.658212
 31
0.0
  0
LINE
  5
211
100
AcDbEntity
  8
1
  6
CONTINUOUS
 62
           7
100
AcDbLine
 10
264.483411
 20
195.671703
 30
0.0
 11
264.19274
 21
195.83906
 31
0.0
  0
POLYLINE
  5
212
100
AcDbEntity
  8
1
  6
CONTINUOUS
 62
           7
100
AcDb2dPolyline
 66
           1
 10
0.0
 20
0.0
 30
0.0
  0
VERTEX
  5
213
100
AcDbEntity
  8
1
  6
CONTINUOUS
 62
           7
100
AcDbVertex
100
AcDb2dVertex
 10
264.59274
 20
195.524397
 30
0.0
  0
VERTEX
  5
214
100
AcDbEntity
  8
1
  6
CONTINUOUS
 62
           7
100
AcDbVertex
100
AcDb2dVertex
 10
264.546658
 20
195.61893
 30
0.0
  0
VERTEX
  5
215
100
AcDbEntity
  8
1
  6
CONTINUOUS
 62
           7
100
AcDbVertex
100
AcDb2dVertex
 10
264.483411
 20
195.671703
 30
0.0
  0
SEQEND
  5
216
100
AcDbEntity
  8
1
  6
CONTINUOUS
 62
           7
  0
LINE
  5
217
100
AcDbEntity
  8
1
  6
CONTINUOUS
 62
           7
100
AcDbLine
 10
264.59274
 20
195.524397
 30
0.0
 11
264.59274
 21
194.908383
 31
0.0
  0
LINE
  5
218
100
AcDbEntity
  8
1
  6
CONTINUOUS
 62
           7
100
AcDbLine
 10
264.483411
 20
194.926683
 30
0.0
 11
264.56875
 21
194.88404
 31
0.0
  0
LINE
  5
219
100
AcDbEntity
  8
1
  6
CONTINUOUS
 62
           7
100
AcDbLine
 10
264.19274
 20
195.165694
 30
0.0
 11
264.483411
 21
194.926683
 31
0.0
  0
LINE
  5
21A
100
AcDbEntity
  8
1
  6
CONTINUOUS
 62
           7
100
AcDbLine
 10
264.19274
 20
194.592117
 30
0.0
 11
264.19274
 21
195.165694
 31
0.0
  0
LINE
  5
21B
100
AcDbEntity
  8
1
  6
CONTINUOUS
 62
           7
100
AcDbLine
 10
264.483411
 20
194.353106
 30
0.0
 11
264.19274
 21
194.592117
 31
0.0
  0
POLYLINE
  5
21C
100
AcDbEntity
  8
1
  6
CONTINUOUS
 62
           7
100
AcDb2dPolyline
 66
           1
 10
0.0
 20
0.0
 30
0.0
  0
VERTEX
  5
21D
100
AcDbEntity
  8
1
  6
CONTINUOUS
 62
           7
100
AcDbVertex
100
AcDb2dVertex
 10
264.59274
 20
194.208425
 30
0.0
  0
VERTEX
  5
21E
100
AcDbEntity
  8
1
  6
CONTINUOUS
 62
           7
100
AcDbVertex
100
AcDb2dVertex
 10
264.541852
 20
194.296047
 30
0.0
  0
VERTEX
  5
21F
100
AcDbEntity
  8
1
  6
CONTINUOUS
 62
           7
100
AcDbVertex
100
AcDb2dVertex
 10
264.483411
 20
194.353106
 30
0.0
  0
SEQEND
  5
220
100
AcDbEntity
  8
1
  6
CONTINUOUS
 62
           7
  0
LINE
  5
221
100
AcDbEntity
  8
1
  6
CONTINUOUS
 62
           7
100
AcDbLine
 10
264.59274
 20
194.208425
 30
0.0
 11
264.59274
 21
193.750424
 31
0.0
  0
POLYLINE
  5
222
100
AcDbEntity
  8
1
  6
CONTINUOUS
 62
           7
100
AcDb2dPolyline
 66
           1
 10
0.0
 20
0.0
 30
0.0
  0
VERTEX
  5
223
100
AcDbEntity
  8
1
  6
CONTINUOUS
 62
           7
100
AcDbVertex
100
AcDb2dVertex
 10
264.462152
 20
193.845381
 30
0.0
  0
VERTEX
  5
224
100
AcDbEntity
  8
1
  6
CONTINUOUS
 62
           7
100
AcDbVertex
100
AcDb2dVertex
 10
264.537285
 20
193.775548
 30
0.0
  0
VERTEX
  5
225
100
AcDbEntity
  8
1
  6
CONTINUOUS
 62
           7
100
AcDbVertex
100
AcDb2dVertex
 10
264.587778
 20
193.745381
 30
0.0
  0
SEQEND
  5
226
100
AcDbEntity
  8
1
  6
CONTINUOUS
 62
           7
  0
LINE
  5
227
100
AcDbEntity
  8
1
  6
CONTINUOUS
 62
           7
100
AcDbLine
 10
264.19274
 20
194.128296
 30
0.0
 11
264.462152
 21
193.845381
 31
0.0
  0
LINE
  5
228
100
AcDbEntity
  8
1
  6
DOT
 62
           9
100
AcDbLine
 10
264.59274
 20
194.208425
 30
0.0
 11
264.59274
 21
193.750424
 31
0.0
  0
LINE
  5
229
100
AcDbEntity
  8
1
  6
DOT
 62
           9
100
AcDbLine
 10
264.59274
 20
195.524397
 30
0.0
 11
264.59274
 21
194.908383
 31
0.0
  0
LINE
  5
22A
100
AcDbEntity
  8
1
  6
DOT
 62
           9
100
AcDbLine
 10
264.59274
 20
197.56648
 30
0.0
 11
264.59274
 21
196.52404
 31
0.0
  0
LINE
  5
22B
100
AcDbEntity
  8
1
  6
DOT
 62
           9
100
AcDbLine
 10
264.59274
 20
202.371631
 30
0.0
 11
264.59274
 21
201.329192
 31
0.0
  0
LINE
  5
22C
100
AcDbEntity
  8
1
  6
CONTINUOUS
 62
           7
100
AcDbLine
 10
263.59274
 20
199.447836
 30
0.0
 11
263.59274
 21
204.447836
 31
0.0
  0
LINE
  5
22D
100
AcDbEntity
  8
1
  6
CONTINUOUS
 62
           7
100
AcDbLine
 10
273.59274
 20
201.197836
 30
0.0
 11
264.462152
 21
201.197836
 31
0.0
  0
LINE
  5
22E
100
AcDbEntity
  8
1
  6
CONTINUOUS
 62
           7
100
AcDbLine
 10
264.462152
 20
197.697836
 30
0.0
 11
273.59274
 21
197.697836
 31
0.0
  0
LINE
  5
22F
100
AcDbEntity
  8
1
  6
CONTINUOUS
 62
           7
100
AcDbLine
 10
264.542103
 20
196.47277
 30
0.0
 11
264.59274
 21
196.52404
 31
0.0
  0
LINE
  5
230
100
AcDbEntity
  8
1
  6
CONTINUOUS
 62
           7
100
AcDbLine
 10
264.542109
 20
202.422901
 30
0.0
 11
264.483411
 21
202.404816
 31
0.0
  0
LINE
  5
231
100
AcDbEntity
  8
1
  6
CONTINUOUS
 62
           7
100
AcDbLine
 10
308.59274
 20
204.097836
 30
0.0
 11
308.59274
 21
194.797836
 31
0.0
  0
LINE
  5
232
100
AcDbEntity
  8
1
  6
CONTINUOUS
 62
           7
100
AcDbLine
 10
264.19274
 20
203.056611
 30
0.0
 11
273.59274
 21
203.056611
 31
0.0
  0
LINE
  5
233
100
AcDbEntity
  8
1
  6
DOT
 62
           9
100
AcDbLine
 10
264.19274
 20
202.237459
 30
0.0
 11
273.59274
 21
202.237459
 31
0.0
  0
LINE
  5
234
100
AcDbEntity
  8
1
  6
CONTINUOUS
 62
           7
100
AcDbLine
 10
264.19274
 20
195.83906
 30
0.0
 11
273.59274
 21
195.83906
 31
0.0
  0
LINE
  5
235
100
AcDbEntity
  8
1
  6
DOT
 62
           9
100
AcDbLine
 10
264.19274
 20
196.658212
 30
0.0
 11
273.59274
 21
196.658212
 31
0.0
  0
LINE
  5
236
100
AcDbEntity
  8
1
  6
CONTINUOUS
 62
           7
100
AcDbLine
 10
264.56875
 20
194.88404
 30
0.0
 11
264.59274
 21
194.908383
 31
0.0
  0
LINE
  5
237
100
AcDbEntity
  8
1
  6
CONTINUOUS
 62
           7
100
AcDbLine
 10
264.568751
 20
204.011631
 30
0.0
 11
264.483411
 21
203.968988
 31
0.0
  0
LINE
  5
238
100
AcDbEntity
  8
1
  6
CONTINUOUS
 62
           7
100
AcDbLine
 10
264.19274
 20
194.592117
 30
0.0
 11
273.59274
 21
194.592117
 31
0.0
  0
LINE
  5
239
100
AcDbEntity
  8
1
  6
DOT
 62
           9
100
AcDbLine
 10
264.19274
 20
195.165694
 30
0.0
 11
273.59274
 21
195.165694
 31
0.0
  0
LINE
  5
23A
100
AcDbEntity
  8
1
  6
CONTINUOUS
 62
           7
100
AcDbLine
 10
264.19274
 20
204.303554
 30
0.0
 11
273.59274
 21
204.303554
 31
0.0
  0
LINE
  5
23B
100
AcDbEntity
  8
1
  6
DOT
 62
           9
100
AcDbLine
 10
264.19274
 20
203.729978
 30
0.0
 11
273.59274
 21
203.729978
 31
0.0
  0
LINE
  5
23C
100
AcDbEntity
  8
1
  6
CONTINUOUS
 62
           7
100
AcDbLine
 10
264.587778
 20
193.745381
 30
0.0
 11
264.59274
 21
193.750424
 31
0.0
  0
POLYLINE
  5
23D
100
AcDbEntity
  8
1
  6
CONTINUOUS
 62
           7
100
AcDb2dPolyline
 66
           1
 10
0.0
 20
0.0
 30
0.0
  0
VERTEX
  5
23E
100
AcDbEntity
  8
1
  6
CONTINUOUS
 62
           7
100
AcDbVertex
100
AcDb2dVertex
 10
264.586341
 20
205.150195
 30
0.0
  0
VERTEX
  5
23F
100
AcDbEntity
  8
1
  6
CONTINUOUS
 62
           7
100
AcDbVertex
100
AcDb2dVertex
 10
264.500903
 20
205.088515
 30
0.0
  0
VERTEX
  5
240
100
AcDbEntity
  8
1
  6
CONTINUOUS
 62
           7
100
AcDbVertex
100
AcDb2dVertex
 10
264.462152
 20
205.05029
 30
0.0
  0
SEQEND
  5
241
100
AcDbEntity
  8
1
  6
CONTINUOUS
 62
           7
  0
LINE
  5
242
100
AcDbEntity
  8
1
  6
DOT
 62
           9
100
AcDbLine
 10
264.19274
 20
194.128296
 30
0.0
 11
273.59274
 21
194.128296
 31
0.0
  0
LINE
  5
243
100
AcDbEntity
  8
1
  6
DOT
 62
           9
100
AcDbLine
 10
264.19274
 20
204.767375
 30
0.0
 11
273.59274
 21
204.767375
 31
0.0
  0
LINE
  5
244
100
AcDbEntity
  8
1
  6
CONTINUOUS
 62
           7
100
AcDbLine
 10
293.29274
 20
206.447836
 30
0.0
 11
273.89274
 21
206.447836
 31
0.0
  0
LINE
  5
245
100
AcDbEntity
  8
1
  6
CONTINUOUS
 62
           7
100
AcDbLine
 10
273.89274
 20
192.447836
 30
0.0
 11
293.29274
 21
192.447836
 31
0.0
  0
ARC
  5
246
100
AcDbEntity
  8
1
  6
CONTINUOUS
 62
           7
100
AcDbCircle
 10
293.29274
 20
206.147836
 30
0.0
 40
0.3
100
AcDbArc
 50
0.0
 51
90.0
  0
ARC
  5
247
100
AcDbEntity
  8
1
  6
CONTINUOUS
 62
           7
100
AcDbCircle
 10
293.29274
 20
192.747836
 30
0.0
 40
0.3
100
AcDbArc
 50
270.0
 51
0.0
  0
ARC
  5
248
100
AcDbEntity
  8
1
  6
CONTINUOUS
 62
           7
100
AcDbCircle
 10
273.89274
 20
192.747836
 30
0.0
 40
0.3
100
AcDbArc
 50
180.0
 51
270.0
  0
ARC
  5
249
100
AcDbEntity
  8
1
  6
CONTINUOUS
 62
           7
100
AcDbCircle
 10
273.89274
 20
206.147836
 30
0.0
 40
0.3
100
AcDbArc
 50
90.0
 51
180.0
  0
LINE
  5
24A
100
AcDbEntity
  8
1
  6
CONTINUOUS
 62
           7
100
AcDbLine
 10
264.19274
 20
205.047836
 30
0.0
 11
263.59274
 21
204.447836
 31
0.0
  0
LINE
  5
24B
100
AcDbEntity
  8
1
  6
CONTINUOUS
 62
           7
100
AcDbLine
 10
263.59274
 20
194.447836
 30
0.0
 11
264.19274
 21
193.847836
 31
0.0
  0
LINE
  5
24C
100
AcDbEntity
  8
1
  6
CONTINUOUS
 62
           7
100
AcDbLine
 10
264.542093
 20
196.47277
 30
0.0
 11
273.59274
 21
196.47277
 31
0.0
  0
LINE
  5
24D
100
AcDbEntity
  8
1
  6
CONTINUOUS
 62
           7
100
AcDbLine
 10
273.59274
 20
202.422901
 30
0.0
 11
264.542106
 21
202.422901
 31
0.0
  0
ARC
  5
24E
100
AcDbEntity
  8
1
  6
CONTINUOUS
 62
           7
100
AcDbCircle
 10
308.29274
 20
204.097836
 30
0.0
 40
0.3
100
AcDbArc
 50
0.0
 51
90.0
  0
ARC
  5
24F
100
AcDbEntity
  8
1
  6
CONTINUOUS
 62
           7
100
AcDbCircle
 10
308.29274
 20
194.797836
 30
0.0
 40
0.3
100
AcDbArc
 50
270.0
 51
0.0
  0
LINE
  5
250
100
AcDbEntity
  8
1
  6
CONTINUOUS
 62
           7
100
AcDbLine
 10
308.29274
 20
204.397836
 30
0.0
 11
293.59274
 21
204.397836
 31
0.0
  0
LINE
  5
251
100
AcDbEntity
  8
1
  6
CONTINUOUS
 62
           7
100
AcDbLine
 10
293.59274
 20
194.497836
 30
0.0
 11
308.29274
 21
194.497836
 31
0.0
  0
LINE
  5
252
100
AcDbEntity
  8
1
  6
CONTINUOUS
 62
           7
100
AcDbLine
 10
264.568736
 20
194.88404
 30
0.0
 11
273.59274
 21
194.88404
 31
0.0
  0
LINE
  5
253
100
AcDbEntity
  8
1
  6
CONTINUOUS
 62
           7
100
AcDbLine
 10
273.59274
 20
204.011631
 30
0.0
 11
264.568739
 21
204.011631
 31
0.0
  0
ARC
  5
254
100
AcDbEntity
  8
1
  6
DOT
 62
           9
100
AcDbCircle
 10
308.29274
 20
202.747836
 30
0.0
 40
0.3
100
AcDbArc
 50
270.0
 51
0.0
  0
ARC
  5
255
100
AcDbEntity
  8
1
  6
DOT
 62
           9
100
AcDbCircle
 10
308.29274
 20
196.147836
 30
0.0
 40
0.3
100
AcDbArc
 50
0.0
 51
90.0
  0
LINE
  5
256
100
AcDbEntity
  8
1
  6
DOT
 62
           9
100
AcDbLine
 10
308.29274
 20
202.447836
 30
0.0
 11
293.59274
 21
202.447836
 31
0.0
  0
LINE
  5
257
100
AcDbEntity
  8
1
  6
DOT
 62
           9
100
AcDbLine
 10
293.59274
 20
196.447836
 30
0.0
 11
308.29274
 21
196.447836
 31
0.0
  0
LINE
  5
258
100
AcDbEntity
  8
1
  6
CONTINUOUS
 62
           7
100
AcDbLine
 10
263.59274
 20
201.647836
 30
0.0
 11
203.283131
 21
201.647836
 31
0.0
  0
LINE
  5
259
100
AcDbEntity
  8
1
  6
CONTINUOUS
 62
           7
100
AcDbLine
 10
201.00456
 20
197.247836
 30
0.0
 11
263.59274
 21
197.247836
 31
0.0
  0
LINE
  5
25A
100
AcDbEntity
  8
1
  6
CONTINUOUS
 62
           7
100
AcDbLine
 10
264.587766
 20
193.745381
 30
0.0
 11
273.59274
 21
193.745381
 31
0.0
  0
LINE
  5
25B
100
AcDbEntity
  8
1
  6
CONTINUOUS
 62
           7
100
AcDbLine
 10
273.59274
 20
205.15029
 30
0.0
 11
264.587886
 21
205.15029
 31
0.0
  0
LINE
  5
25C
100
AcDbEntity
  8
1
  6
CONTINUOUS
 62
           7
100
AcDbLine
 10
264.19274
 20
193.847836
 30
0.0
 11
264.459813
 21
193.847836
 31
0.0
  0
LINE
  5
25D
100
AcDbEntity
  8
1
  6
DOT
 62
           9
100
AcDbLine
 10
264.459813
 20
193.847836
 30
0.0
 11
264.461905
 21
193.847836
 31
0.0
  0
LINE
  5
25E
100
AcDbEntity
  8
1
  6
DOT
 62
           9
100
AcDbLine
 10
264.461905
 20
193.847836
 30
0.0
 11
273.59274
 21
193.847836
 31
0.0
  0
LINE
  5
25F
100
AcDbEntity
  8
1
  6
DOT
 62
           9
100
AcDbLine
 10
273.59274
 20
205.047836
 30
0.0
 11
264.461957
 21
205.047836
 31
0.0
  0
LINE
  5
260
100
AcDbEntity
  8
1
  6
DOT
 62
           9
100
AcDbLine
 10
264.461957
 20
205.047836
 30
0.0
 11
264.459813
 21
205.047836
 31
0.0
  0
LINE
  5
261
100
AcDbEntity
  8
1
  6
CONTINUOUS
 62
           7
100
AcDbLine
 10
264.459813
 20
205.047836
 30
0.0
 11
264.19274
 21
205.047836
 31
0.0
  0
LINE
  5
262
100
AcDbEntity
  8
1
  6
DOT
 62
           9
100
AcDbLine
 10
264.587886
 20
205.15029
 30
0.0
 11
264.585202
 21
205.15029
 31
0.0
  0
LINE
  5
263
100
AcDbEntity
  8
1
  6
CONTINUOUS
 62
           9
100
AcDbLine
 10
193.783922
 20
192.959707
 30
0.0
 11
200.388711
 21
205.713782
 31
0.0
  0
LINE
  5
264
100
AcDbEntity
  8
1
  6
CONTINUOUS
 62
           9
100
AcDbLine
 10
198.783922
 20
192.959707
 30
0.0
 11
205.388711
 21
205.713782
 31
0.0
  0
INSERT
  5
265
100
AcDbEntity
  8
0
  6
CONTINUOUS
 62
           7
100
AcDbBlockReference
  2
AID1083_$2$
 10
0.0
 20
0.0
 30
0.0
  0
INSERT
  5
266
100
AcDbEntity
  8
0
  6
CONTINUOUS
 62
           7
100
AcDbBlockReference
  2
AID1091_$3$
 10
0.0
 20
0.0
 30
0.0
  0
INSERT
  5
267
100
AcDbEntity
  8
0
  6
CONTINUOUS
 62
           7
100
AcDbBlockReference
  2
AID1100_$4$
 10
0.0
 20
0.0
 30
0.0
  0
INSERT
  5
268
100
AcDbEntity
  8
0
  6
CONTINUOUS
 62
           7
100
AcDbBlockReference
  2
AID1109_$5$
 10
0.0
 20
0.0
 30
0.0
  0
INSERT
  5
269
100
AcDbEntity
  8
0
  6
CONTINUOUS
 62
           7
100
AcDbBlockReference
  2
AID1117_$6$
 10
0.0
 20
0.0
 30
0.0
  0
INSERT
  5
26A
100
AcDbEntity
  8
0
  6
CONTINUOUS
 62
           7
100
AcDbBlockReference
  2
AID1125_$7$
 10
0.0
 20
0.0
 30
0.0
  0
LINE
  5
26B
100
AcDbEntity
  8
1
  6
CONTINUOUS
 62
           7
100
AcDbLine
 10
99.842952
 20
110.881701
 30
0.0
 11
100.342952
 21
110.881701
 31
0.0
  0
ARC
  5
26C
100
AcDbEntity
  8
1
  6
CONTINUOUS
 62
           7
100
AcDbCircle
 10
99.842952
 20
110.681701
 30
0.0
 40
0.2
100
AcDbArc
 50
90.0
 51
180.0
  0
LINE
  5
26D
100
AcDbEntity
  8
1
  6
CONTINUOUS
 62
           7
100
AcDbLine
 10
109.84695
 20
102.881701
 30
0.0
 11
100.342952
 21
102.881701
 31
0.0
  0
LINE
  5
26E
100
AcDbEntity
  8
1
  6
CONTINUOUS
 62
           7
100
AcDbLine
 10
99.642952
 20
103.081701
 30
0.0
 11
99.642952
 21
110.681701
 31
0.0
  0
LINE
  5
26F
100
AcDbEntity
  8
1
  6
CONTINUOUS
 62
           7
100
AcDbLine
 10
100.342952
 20
102.881701
 30
0.0
 11
99.842952
 21
102.881701
 31
0.0
  0
ARC
  5
270
100
AcDbEntity
  8
1
  6
CONTINUOUS
 62
           7
100
AcDbCircle
 10
99.842952
 20
103.081701
 30
0.0
 40
0.2
100
AcDbArc
 50
180.0
 51
270.0
  0
LINE
  5
271
100
AcDbEntity
  8
1
  6
CONTINUOUS
 62
           7
100
AcDbLine
 10
100.342952
 20
110.881701
 30
0.0
 11
109.84695
 21
110.881701
 31
0.0
  0
POLYLINE
  5
272
100
AcDbEntity
  8
1
  6
CONTINUOUS
 62
           7
100
AcDb2dPolyline
 66
           1
 10
0.0
 20
0.0
 30
0.0
  0
VERTEX
  5
273
100
AcDbEntity
  8
1
  6
CONTINUOUS
 62
           7
100
AcDbVertex
100
AcDb2dVertex
 10
113.122966
 20
103.081701
 30
0.0
  0
VERTEX
  5
274
100
AcDbEntity
  8
1
  6
CONTINUOUS
 62
           7
100
AcDbVertex
100
AcDb2dVertex
 10
113.111493
 20
102.978881
 30
0.0
  0
VERTEX
  5
275
100
AcDbEntity
  8
1
  6
CONTINUOUS
 62
           7
100
AcDbVertex
100
AcDb2dVertex
 10
113.061921
 20
102.887695
 30
0.0
  0
VERTEX
  5
276
100
AcDbEntity
  8
1
  6
CONTINUOUS
 62
           7
100
AcDbVertex
100
AcDb2dVertex
 10
113.042328
 20
102.881701
 30
0.0
  0
SEQEND
  5
277
100
AcDbEntity
  8
1
  6
CONTINUOUS
 62
           7
  0
LINE
  5
278
100
AcDbEntity
  8
1
  6
CONTINUOUS
 62
           7
100
AcDbLine
 10
113.042328
 20
102.881701
 30
0.0
 11
109.84695
 21
102.881701
 31
0.0
  0
LINE
  5
279
100
AcDbEntity
  8
1
  6
CONTINUOUS
 62
           7
100
AcDbLine
 10
111.768394
 20
103.881701
 30
0.0
 11
111.768394
 21
109.881701
 31
0.0
  0
LINE
  5
27A
100
AcDbEntity
  8
1
  6
CONTINUOUS
 62
           7
100
AcDbLine
 10
113.122966
 20
103.081701
 30
0.0
 11
113.122966
 21
103.881701
 31
0.0
  0
LINE
  5
27B
100
AcDbEntity
  8
1
  6
CONTINUOUS
 62
           7
100
AcDbLine
 10
113.122966
 20
109.881701
 30
0.0
 11
113.122966
 21
110.681701
 31
0.0
  0
LINE
  5
27C
100
AcDbEntity
  8
1
  6
CONTINUOUS
 62
           7
100
AcDbLine
 10
109.84695
 20
110.881701
 30
0.0
 11
113.042328
 21
110.881701
 31
0.0
  0
POLYLINE
  5
27D
100
AcDbEntity
  8
1
  6
CONTINUOUS
 62
           7
100
AcDb2dPolyline
 66
           1
 10
0.0
 20
0.0
 30
0.0
  0
VERTEX
  5
27E
100
AcDbEntity
  8
1
  6
CONTINUOUS
 62
           7
100
AcDbVertex
100
AcDb2dVertex
 10
113.122966
 20
110.681701
 30
0.0
  0
VERTEX
  5
27F
100
AcDbEntity
  8
1
  6
CONTINUOUS
 62
           7
100
AcDbVertex
100
AcDb2dVertex
 10
113.111493
 20
110.784522
 30
0.0
  0
VERTEX
  5
280
100
AcDbEntity
  8
1
  6
CONTINUOUS
 62
           7
100
AcDbVertex
100
AcDb2dVertex
 10
113.061921
 20
110.875708
 30
0.0
  0
VERTEX
  5
281
100
AcDbEntity
  8
1
  6
CONTINUOUS
 62
           7
100
AcDbVertex
100
AcDb2dVertex
 10
113.042328
 20
110.881701
 30
0.0
  0
SEQEND
  5
282
100
AcDbEntity
  8
1
  6
CONTINUOUS
 62
           7
  0
LINE
  5
283
100
AcDbEntity
  8
1
  6
CONTINUOUS
 62
           7
100
AcDbLine
 10
119.604942
 20
109.881701
 30
0.0
 11
120.076904
 21
109.881701
 31
0.0
  0
LINE
  5
284
100
AcDbEntity
  8
1
  6
CONTINUOUS
 62
           7
100
AcDbLine
 10
119.604942
 20
103.881701
 30
0.0
 11
120.076904
 21
103.881701
 31
0.0
  0
LINE
  5
285
100
AcDbEntity
  8
1
  6
CONTINUOUS
 62
           7
100
AcDbLine
 10
118.905651
 20
103.881701
 30
0.0
 11
118.905651
 21
109.881701
 31
0.0
  0
LINE
  5
286
100
AcDbEntity
  8
1
  6
CONTINUOUS
 62
           7
100
AcDbLine
 10
118.905651
 20
109.881701
 30
0.0
 11
119.604942
 21
109.881701
 31
0.0
  0
LINE
  5
287
100
AcDbEntity
  8
1
  6
CONTINUOUS
 62
           7
100
AcDbLine
 10
118.905651
 20
103.881701
 30
0.0
 11
119.604942
 21
103.881701
 31
0.0
  0
LINE
  5
288
100
AcDbEntity
  8
1
  6
CONTINUOUS
 62
           7
100
AcDbLine
 10
120.167265
 20
103.881701
 30
0.0
 11
120.167265
 21
109.881701
 31
0.0
  0
LINE
  5
289
100
AcDbEntity
  8
1
  6
CONTINUOUS
 62
           7
100
AcDbLine
 10
120.076904
 20
109.881701
 30
0.0
 11
120.167265
 21
109.881701
 31
0.0
  0
LINE
  5
28A
100
AcDbEntity
  8
1
  6
CONTINUOUS
 62
           7
100
AcDbLine
 10
120.076904
 20
103.881701
 30
0.0
 11
120.167265
 21
103.881701
 31
0.0
  0
LINE
  5
28B
100
AcDbEntity
  8
1
  6
CONTINUOUS
 62
           7
100
AcDbLine
 10
116.021886
 20
103.881701
 30
0.0
 11
116.021886
 21
109.881701
 31
0.0
  0
LINE
  5
28C
100
AcDbEntity
  8
1
  6
CONTINUOUS
 62
           7
100
AcDbLine
 10
115.587109
 20
103.881701
 30
0.0
 11
115.587109
 21
109.881701
 31
0.0
  0
LINE
  5
28D
100
AcDbEntity
  8
1
  6
CONTINUOUS
 62
           7
100
AcDbLine
 10
115.587109
 20
109.881701
 30
0.0
 11
116.021886
 21
109.881701
 31
0.0
  0
LINE
  5
28E
100
AcDbEntity
  8
1
  6
CONTINUOUS
 62
           7
100
AcDbLine
 10
115.587109
 20
103.881701
 30
0.0
 11
116.021886
 21
103.881701
 31
0.0
  0
LINE
  5
28F
100
AcDbEntity
  8
1
  6
CONTINUOUS
 62
           7
100
AcDbLine
 10
116.447018
 20
103.881701
 30
0.0
 11
116.447018
 21
109.881701
 31
0.0
  0
LINE
  5
290
100
AcDbEntity
  8
1
  6
CONTINUOUS
 62
           7
100
AcDbLine
 10
116.021886
 20
109.881701
 30
0.0
 11
116.447018
 21
109.881701
 31
0.0
  0
LINE
  5
291
100
AcDbEntity
  8
1
  6
CONTINUOUS
 62
           7
100
AcDbLine
 10
116.021886
 20
103.881701
 30
0.0
 11
116.447018
 21
103.881701
 31
0.0
  0
LINE
  5
292
100
AcDbEntity
  8
1
  6
CONTINUOUS
 62
           7
100
AcDbLine
 10
118.487063
 20
103.881701
 30
0.0
 11
118.487063
 21
109.881701
 31
0.0
  0
LINE
  5
293
100
AcDbEntity
  8
1
  6
CONTINUOUS
 62
           7
100
AcDbLine
 10
118.487063
 20
109.881701
 30
0.0
 11
118.905651
 21
109.881701
 31
0.0
  0
LINE
  5
294
100
AcDbEntity
  8
1
  6
CONTINUOUS
 62
           7
100
AcDbLine
 10
118.487063
 20
103.881701
 30
0.0
 11
118.905651
 21
103.881701
 31
0.0
  0
LINE
  5
295
100
AcDbEntity
  8
1
  6
CONTINUOUS
 62
           7
100
AcDbLine
 10
118.071233
 20
103.881701
 30
0.0
 11
118.071233
 21
109.881701
 31
0.0
  0
LINE
  5
296
100
AcDbEntity
  8
1
  6
CONTINUOUS
 62
           7
100
AcDbLine
 10
118.071233
 20
109.881701
 30
0.0
 11
118.487063
 21
109.881701
 31
0.0
  0
LINE
  5
297
100
AcDbEntity
  8
1
  6
CONTINUOUS
 62
           7
100
AcDbLine
 10
118.071233
 20
103.881701
 30
0.0
 11
118.487063
 21
103.881701
 31
0.0
  0
LINE
  5
298
100
AcDbEntity
  8
1
  6
CONTINUOUS
 62
           7
100
AcDbLine
 10
117.261624
 20
103.881701
 30
0.0
 11
117.261624
 21
109.881701
 31
0.0
  0
LINE
  5
299
100
AcDbEntity
  8
1
  6
CONTINUOUS
 62
           7
100
AcDbLine
 10
116.847516
 20
103.881701
 30
0.0
 11
116.847516
 21
109.881701
 31
0.0
  0
LINE
  5
29A
100
AcDbEntity
  8
1
  6
CONTINUOUS
 62
           7
100
AcDbLine
 10
116.847516
 20
109.881701
 30
0.0
 11
117.261624
 21
109.881701
 31
0.0
  0
LINE
  5
29B
100
AcDbEntity
  8
1
  6
CONTINUOUS
 62
           7
100
AcDbLine
 10
116.847516
 20
103.881701
 30
0.0
 11
117.261624
 21
103.881701
 31
0.0
  0
LINE
  5
29C
100
AcDbEntity
  8
1
  6
CONTINUOUS
 62
           7
100
AcDbLine
 10
116.447018
 20
109.881701
 30
0.0
 11
116.847516
 21
109.881701
 31
0.0
  0
LINE
  5
29D
100
AcDbEntity
  8
1
  6
CONTINUOUS
 62
           7
100
AcDbLine
 10
116.447018
 20
103.881701
 30
0.0
 11
116.847516
 21
103.881701
 31
0.0
  0
LINE
  5
29E
100
AcDbEntity
  8
1
  6
CONTINUOUS
 62
           7
100
AcDbLine
 10
117.667808
 20
103.881701
 30
0.0
 11
117.667808
 21
109.881701
 31
0.0
  0
LINE
  5
29F
100
AcDbEntity
  8
1
  6
CONTINUOUS
 62
           7
100
AcDbLine
 10
117.261624
 20
109.881701
 30
0.0
 11
117.667808
 21
109.881701
 31
0.0
  0
LINE
  5
2A0
100
AcDbEntity
  8
1
  6
CONTINUOUS
 62
           7
100
AcDbLine
 10
117.261624
 20
103.881701
 30
0.0
 11
117.667808
 21
103.881701
 31
0.0
  0
LINE
  5
2A1
100
AcDbEntity
  8
1
  6
CONTINUOUS
 62
           7
100
AcDbLine
 10
117.667808
 20
109.881701
 30
0.0
 11
118.071233
 21
109.881701
 31
0.0
  0
LINE
  5
2A2
100
AcDbEntity
  8
1
  6
CONTINUOUS
 62
           7
100
AcDbLine
 10
117.667808
 20
103.881701
 30
0.0
 11
118.071233
 21
103.881701
 31
0.0
  0
LINE
  5
2A3
100
AcDbEntity
  8
1
  6
CONTINUOUS
 62
           7
100
AcDbLine
 10
111.768394
 20
109.881701
 30
0.0
 11
115.587109
 21
109.881701
 31
0.0
  0
LINE
  5
2A4
100
AcDbEntity
  8
1
  6
CONTINUOUS
 62
           7
100
AcDbLine
 10
111.768394
 20
103.881701
 30
0.0
 11
115.587109
 21
103.881701
 31
0.0
  0
POLYLINE
  5
2A5
100
AcDbEntity
  8
1
  6
CONTINUOUS
 62
           7
100
AcDb2dPolyline
 66
           1
 10
0.0
 20
0.0
 30
0.0
  0
VERTEX
  5
2A6
100
AcDbEntity
  8
1
  6
CONTINUOUS
 62
           7
100
AcDbVertex
100
AcDb2dVertex
 10
120.709186
 20
110.681701
 30
0.0
  0
VERTEX
  5
2A7
100
AcDbEntity
  8
1
  6
CONTINUOUS
 62
           7
100
AcDbVertex
100
AcDb2dVertex
 10
120.720971
 20
110.784522
 30
0.0
  0
VERTEX
  5
2A8
100
AcDbEntity
  8
1
  6
CONTINUOUS
 62
           7
100
AcDbVertex
100
AcDb2dVertex
 10
120.771892
 20
110.875708
 30
0.0
  0
VERTEX
  5
2A9
100
AcDbEntity
  8
1
  6
CONTINUOUS
 62
           7
100
AcDbVertex
100
AcDb2dVertex
 10
120.792019
 20
110.881701
 30
0.0
  0
SEQEND
  5
2AA
100
AcDbEntity
  8
1
  6
CONTINUOUS
 62
           7
  0
POLYLINE
  5
2AB
100
AcDbEntity
  8
1
  6
CONTINUOUS
 62
           7
100
AcDb2dPolyline
 66
           1
 10
0.0
 20
0.0
 30
0.0
  0
VERTEX
  5
2AC
100
AcDbEntity
  8
1
  6
CONTINUOUS
 62
           7
100
AcDbVertex
100
AcDb2dVertex
 10
121.785969
 20
110.681701
 30
0.0
  0
VERTEX
  5
2AD
100
AcDbEntity
  8
1
  6
CONTINUOUS
 62
           7
100
AcDbVertex
100
AcDb2dVertex
 10
121.797754
 20
110.784522
 30
0.0
  0
VERTEX
  5
2AE
100
AcDbEntity
  8
1
  6
CONTINUOUS
 62
           7
100
AcDbVertex
100
AcDb2dVertex
 10
121.848675
 20
110.875708
 30
0.0
  0
VERTEX
  5
2AF
100
AcDbEntity
  8
1
  6
CONTINUOUS
 62
           7
100
AcDbVertex
100
AcDb2dVertex
 10
121.868802
 20
110.881701
 30
0.0
  0
SEQEND
  5
2B0
100
AcDbEntity
  8
1
  6
CONTINUOUS
 62
           7
  0
LINE
  5
2B1
100
AcDbEntity
  8
1
  6
CONTINUOUS
 62
           7
100
AcDbLine
 10
120.792019
 20
110.881701
 30
0.0
 11
121.868802
 21
110.881701
 31
0.0
  0
LINE
  5
2B2
100
AcDbEntity
  8
1
  6
CONTINUOUS
 62
           7
100
AcDbLine
 10
121.868802
 20
110.881701
 30
0.0
 11
123.643377
 21
110.881701
 31
0.0
  0
LINE
  5
2B3
100
AcDbEntity
  8
1
  6
CONTINUOUS
 62
           7
100
AcDbLine
 10
121.785969
 20
103.081701
 30
0.0
 11
121.785969
 21
110.681701
 31
0.0
  0
ARC
  5
2B4
100
AcDbEntity
  8
1
  6
CONTINUOUS
 62
           7
100
AcDbCircle
 10
124.443377
 20
110.681701
 30
0.0
 40
0.2
100
AcDbArc
 50
0.0
 51
90.0
  0
LINE
  5
2B5
100
AcDbEntity
  8
1
  6
CONTINUOUS
 62
           7
100
AcDbLine
 10
123.643377
 20
110.881701
 30
0.0
 11
124.443377
 21
110.881701
 31
0.0
  0
LINE
  5
2B6
100
AcDbEntity
  8
1
  6
CONTINUOUS
 62
           7
100
AcDbLine
 10
120.709186
 20
103.081701
 30
0.0
 11
120.709186
 21
110.681701
 31
0.0
  0
POLYLINE
  5
2B7
100
AcDbEntity
  8
1
  6
CONTINUOUS
 62
           7
100
AcDb2dPolyline
 66
           1
 10
0.0
 20
0.0
 30
0.0
  0
VERTEX
  5
2B8
100
AcDbEntity
  8
1
  6
CONTINUOUS
 62
           7
100
AcDbVertex
100
AcDb2dVertex
 10
120.792019
 20
102.881701
 30
0.0
  0
VERTEX
  5
2B9
100
AcDbEntity
  8
1
  6
CONTINUOUS
 62
           7
100
AcDbVertex
100
AcDb2dVertex
 10
120.725487
 20
102.962561
 30
0.0
  0
VERTEX
  5
2BA
100
AcDbEntity
  8
1
  6
CONTINUOUS
 62
           7
100
AcDbVertex
100
AcDb2dVertex
 10
120.709585
 20
103.062098
 30
0.0
  0
VERTEX
  5
2BB
100
AcDbEntity
  8
1
  6
CONTINUOUS
 62
           7
100
AcDbVertex
100
AcDb2dVertex
 10
120.709186
 20
103.081701
 30
0.0
  0
SEQEND
  5
2BC
100
AcDbEntity
  8
1
  6
CONTINUOUS
 62
           7
  0
POLYLINE
  5
2BD
100
AcDbEntity
  8
1
  6
CONTINUOUS
 62
           7
100
AcDb2dPolyline
 66
           1
 10
0.0
 20
0.0
 30
0.0
  0
VERTEX
  5
2BE
100
AcDbEntity
  8
1
  6
CONTINUOUS
 62
           7
100
AcDbVertex
100
AcDb2dVertex
 10
121.868802
 20
102.881701
 30
0.0
  0
VERTEX
  5
2BF
100
AcDbEntity
  8
1
  6
CONTINUOUS
 62
           7
100
AcDbVertex
100
AcDb2dVertex
 10
121.80227
 20
102.962561
 30
0.0
  0
VERTEX
  5
2C0
100
AcDbEntity
  8
1
  6
CONTINUOUS
 62
           7
100
AcDbVertex
100
AcDb2dVertex
 10
121.786368
 20
103.062098
 30
0.0
  0
VERTEX
  5
2C1
100
AcDbEntity
  8
1
  6
CONTINUOUS
 62
           7
100
AcDbVertex
100
AcDb2dVertex
 10
121.785969
 20
103.081701
 30
0.0
  0
SEQEND
  5
2C2
100
AcDbEntity
  8
1
  6
CONTINUOUS
 62
           7
  0
LINE
  5
2C3
100
AcDbEntity
  8
1
  6
CONTINUOUS
 62
           7
100
AcDbLine
 10
121.868802
 20
102.881701
 30
0.0
 11
120.792019
 21
102.881701
 31
0.0
  0
ARC
  5
2C4
100
AcDbEntity
  8
1
  6
CONTINUOUS
 62
           7
100
AcDbCircle
 10
124.443377
 20
103.081701
 30
0.0
 40
0.2
100
AcDbArc
 50
270.0
 51
0.0
  0
LINE
  5
2C5
100
AcDbEntity
  8
1
  6
CONTINUOUS
 62
           7
100
AcDbLine
 10
124.443377
 20
102.881701
 30
0.0
 11
123.643377
 21
102.881701
 31
0.0
  0
LINE
  5
2C6
100
AcDbEntity
  8
1
  6
CONTINUOUS
 62
           7
100
AcDbLine
 10
124.643377
 20
103.081701
 30
0.0
 11
124.643377
 21
110.681701
 31
0.0
  0
LINE
  5
2C7
100
AcDbEntity
  8
1
  6
CONTINUOUS
 62
           7
100
AcDbLine
 10
123.643377
 20
102.881701
 30
0.0
 11
121.868802
 21
102.881701
 31
0.0
  0
LINE
  5
2C8
100
AcDbEntity
  8
1
  6
CONTINUOUS
 62
           7
100
AcDbLine
 10
120.792019
 20
102.881701
 30
0.0
 11
113.042328
 21
102.881701
 31
0.0
  0
LINE
  5
2C9
100
AcDbEntity
  8
1
  6
CONTINUOUS
 62
           7
100
AcDbLine
 10
113.042328
 20
110.881701
 30
0.0
 11
120.792019
 21
110.881701
 31
0.0
  0
LINE
  5
2CA
100
AcDbEntity
  8
1
  6
CONTINUOUS
 62
           7
100
AcDbLine
 10
96.742952
 20
107.926557
 30
0.0
 11
96.742952
 21
108.708573
 31
0.0
  0
ARC
  5
2CB
100
AcDbEntity
  8
1
  6
CONTINUOUS
 62
           7
100
AcDbCircle
 10
97.042952
 20
108.708573
 30
0.0
 40
0.3
100
AcDbArc
 50
90.0
 51
180.0
  0
LINE
  5
2CC
100
AcDbEntity
  8
1
  6
CONTINUOUS
 62
           7
100
AcDbLine
 10
97.042952
 20
109.008573
 30
0.0
 11
99.642952
 21
109.008573
 31
0.0
  0
LINE
  5
2CD
100
AcDbEntity
  8
1
  6
CONTINUOUS
 62
           7
100
AcDbLine
 10
96.742952
 20
105.681478
 30
0.0
 11
96.742952
 21
107.926557
 31
0.0
  0
LINE
  5
2CE
100
AcDbEntity
  8
1
  6
DOT
 62
           9
100
AcDbLine
 10
96.742952
 20
108.708573
 30
0.0
 11
99.642952
 21
108.708573
 31
0.0
  0
LINE
  5
2CF
100
AcDbEntity
  8
1
  6
CONTINUOUS
 62
           7
100
AcDbLine
 10
97.042952
 20
104.754502
 30
0.0
 11
99.642952
 21
104.754502
 31
0.0
  0
LINE
  5
2D0
100
AcDbEntity
  8
1
  6
CONTINUOUS
 62
           7
100
AcDbLine
 10
96.742952
 20
105.054502
 30
0.0
 11
96.742952
 21
105.681478
 31
0.0
  0
ARC
  5
2D1
100
AcDbEntity
  8
1
  6
CONTINUOUS
 62
           7
100
AcDbCircle
 10
97.042952
 20
105.054502
 30
0.0
 40
0.3
100
AcDbArc
 50
180.0
 51
270.0
  0
LINE
  5
2D2
100
AcDbEntity
  8
1
  6
DOT
 62
           9
100
AcDbLine
 10
96.742952
 20
105.054502
 30
0.0
 11
99.642952
 21
105.054502
 31
0.0
  0
LINE
  5
2D3
100
AcDbEntity
  8
1
  6
CONTINUOUS
 62
           7
100
AcDbLine
 10
125.643377
 20
109.867535
 30
0.0
 11
125.643377
 21
103.895867
 31
0.0
  0
LINE
  5
2D4
100
AcDbEntity
  8
1
  6
CONTINUOUS
 62
           7
100
AcDbLine
 10
125.643377
 20
103.895867
 30
0.0
 11
124.643377
 21
103.081701
 31
0.0
  0
LINE
  5
2D5
100
AcDbEntity
  8
1
  6
CONTINUOUS
 62
           7
100
AcDbLine
 10
125.643377
 20
109.867535
 30
0.0
 11
124.643377
 21
110.681701
 31
0.0
  0
LINE
  5
2D6
100
AcDbEntity
  8
1
  6
CONTINUOUS
 62
           7
100
AcDbLine
 10
134.643377
 20
110.681701
 30
0.0
 11
134.643377
 21
103.081701
 31
0.0
  0
LINE
  5
2D7
100
AcDbEntity
  8
1
  6
CONTINUOUS
 62
           7
100
AcDbLine
 10
134.643377
 20
110.68141
 30
0.0
 11
134.643377
 21
110.681701
 31
0.0
  0
POLYLINE
  5
2D8
100
AcDbEntity
  8
1
  6
CONTINUOUS
 62
           7
100
AcDb2dPolyline
 66
           1
 10
0.0
 20
0.0
 30
0.0
  0
VERTEX
  5
2D9
100
AcDbEntity
  8
1
  6
CONTINUOUS
 62
           7
100
AcDbVertex
100
AcDb2dVertex
 10
124.643377
 20
110.881701
 30
0.0
  0
VERTEX
  5
2DA
100
AcDbEntity
  8
1
  6
CONTINUOUS
 62
           7
100
AcDbVertex
100
AcDb2dVertex
 10
124.718386
 20
110.875529
 30
0.0
  0
VERTEX
  5
2DB
100
AcDbEntity
  8
1
  6
CONTINUOUS
 62
           7
100
AcDbVertex
100
AcDb2dVertex
 10
124.786112
 20
110.859865
 30
0.0
  0
VERTEX
  5
2DC
100
AcDbEntity
  8
1
  6
CONTINUOUS
 62
           7
100
AcDbVertex
100
AcDb2dVertex
 10
124.858715
 20
110.833999
 30
0.0
  0
VERTEX
  5
2DD
100
AcDbEntity
  8
1
  6
CONTINUOUS
 62
           7
100
AcDbVertex
100
AcDb2dVertex
 10
124.905185
 20
110.813597
 30
0.0
  0
VERTEX
  5
2DE
100
AcDbEntity
  8
1
  6
CONTINUOUS
 62
           7
100
AcDbVertex
100
AcDb2dVertex
 10
124.952844
 20
110.790485
 30
0.0
  0
VERTEX
  5
2DF
100
AcDbEntity
  8
1
  6
CONTINUOUS
 62
           7
100
AcDbVertex
100
AcDb2dVertex
 10
125.007953
 20
110.762169
 30
0.0
  0
VERTEX
  5
2E0
100
AcDbEntity
  8
1
  6
CONTINUOUS
 62
           7
100
AcDbVertex
100
AcDb2dVertex
 10
125.060924
 20
110.734608
 30
0.0
  0
SEQEND
  5
2E1
100
AcDbEntity
  8
1
  6
CONTINUOUS
 62
           7
  0
POLYLINE
  5
2E2
100
AcDbEntity
  8
1
  6
CONTINUOUS
 62
           7
100
AcDb2dPolyline
 66
           1
 10
0.0
 20
0.0
 30
0.0
  0
VERTEX
  5
2E3
100
AcDbEntity
  8
1
  6
CONTINUOUS
 62
           7
100
AcDbVertex
100
AcDb2dVertex
 10
125.060924
 20
103.028794
 30
0.0
  0
VERTEX
  5
2E4
100
AcDbEntity
  8
1
  6
CONTINUOUS
 62
           7
100
AcDbVertex
100
AcDb2dVertex
 10
124.993135
 20
102.993524
 30
0.0
  0
VERTEX
  5
2E5
100
AcDbEntity
  8
1
  6
CONTINUOUS
 62
           7
100
AcDbVertex
100
AcDb2dVertex
 10
124.925478
 20
102.959427
 30
0.0
  0
VERTEX
  5
2E6
100
AcDbEntity
  8
1
  6
CONTINUOUS
 62
           7
100
AcDbVertex
100
AcDb2dVertex
 10
124.867279
 20
102.932968
 30
0.0
  0
VERTEX
  5
2E7
100
AcDbEntity
  8
1
  6
CONTINUOUS
 62
           7
100
AcDbVertex
100
AcDb2dVertex
 10
124.811023
 20
102.91146
 30
0.0
  0
VERTEX
  5
2E8
100
AcDbEntity
  8
1
  6
CONTINUOUS
 62
           7
100
AcDbVertex
100
AcDb2dVertex
 10
124.754126
 20
102.89502
 30
0.0
  0
VERTEX
  5
2E9
100
AcDbEntity
  8
1
  6
CONTINUOUS
 62
           7
100
AcDbVertex
100
AcDb2dVertex
 10
124.705222
 20
102.885907
 30
0.0
  0
VERTEX
  5
2EA
100
AcDbEntity
  8
1
  6
CONTINUOUS
 62
           7
100
AcDbVertex
100
AcDb2dVertex
 10
124.643377
 20
102.881701
 30
0.0
  0
SEQEND
  5
2EB
100
AcDbEntity
  8
1
  6
CONTINUOUS
 62
           7
  0
INSERT
  5
2EC
100
AcDbEntity
  8
0
  6
CONTINUOUS
 62
           7
100
AcDbBlockReference
  2
_POLYLINE_$8$
 10
0.0
 20
0.0
 30
0.0
  0
INSERT
  5
2ED
100
AcDbEntity
  8
0
  6
CONTINUOUS
 62
           7
100
AcDbBlockReference
  2
_POLYLINE_$9$
 10
0.0
 20
0.0
 30
0.0
  0
LINE
  5
2EE
100
AcDbEntity
  8
1
  6
DOT
 62
           9
100
AcDbLine
 10
97.242952
 20
106.231536
 30
0.0
 11
97.242952
 21
106.331536
 31
0.0
  0
ARC
  5
2EF
100
AcDbEntity
  8
1
  6
DOT
 62
           9
100
AcDbCircle
 10
97.342952
 20
106.231536
 30
0.0
 40
0.1
100
AcDbArc
 50
180.0
 51
270.0
  0
LINE
  5
2F0
100
AcDbEntity
  8
1
  6
DOT
 62
           9
100
AcDbLine
 10
97.242952
 20
106.331536
 30
0.0
 11
97.242952
 21
107.431536
 31
0.0
  0
LINE
  5
2F1
100
AcDbEntity
  8
1
  6
DOT
 62
           9
100
AcDbLine
 10
97.242952
 20
107.431536
 30
0.0
 11
97.242952
 21
107.531536
 31
0.0
  0
ARC
  5
2F2
100
AcDbEntity
  8
1
  6
DOT
 62
           9
100
AcDbCircle
 10
97.342952
 20
107.531536
 30
0.0
 40
0.1
100
AcDbArc
 50
90.0
 51
180.0
  0
LINE
  5
2F3
100
AcDbEntity
  8
1
  6
DOT
 62
           9
100
AcDbLine
 10
99.642952
 20
106.131536
 30
0.0
 11
97.342952
 21
106.131536
 31
0.0
  0
LINE
  5
2F4
100
AcDbEntity
  8
1
  6
DOT
 62
           9
100
AcDbLine
 10
97.342952
 20
107.631536
 30
0.0
 11
99.642952
 21
107.631536
 31
0.0
  0
LINE
  5
2F5
100
AcDbEntity
  8
1
  6
CONTINUOUS
 62
           7
100
AcDbLine
 10
124.546302
 20
102.910218
 30
0.0
 11
125.060924
 21
103.028794
 31
0.0
  0
LINE
  5
2F6
100
AcDbEntity
  8
1
  6
CONTINUOUS
 62
           7
100
AcDbLine
 10
125.060924
 20
110.734608
 30
0.0
 11
124.546302
 21
110.853185
 31
0.0
  0
LINE
  5
2F7
100
AcDbEntity
  8
1
  6
CONTINUOUS
 62
           7
100
AcDbLine
 10
124.546302
 20
110.853185
 30
0.0
 11
124.643377
 21
110.881701
 31
0.0
  0
LINE
  5
2F8
100
AcDbEntity
  8
1
  6
CONTINUOUS
 62
           7
100
AcDbLine
 10
124.643377
 20
102.881701
 30
0.0
 11
124.546302
 21
102.910218
 31
0.0
  0
LINE
  5
2F9
100
AcDbEntity
  8
1
  6
CONTINUOUS
 62
           7
100
AcDbLine
 10
124.643377
 20
102.881701
 30
0.0
 11
124.567208
 21
102.881701
 31
0.0
  0
LINE
  5
2FA
100
AcDbEntity
  8
1
  6
CONTINUOUS
 62
           7
100
AcDbLine
 10
124.567208
 20
102.881701
 30
0.0
 11
124.443377
 21
102.881701
 31
0.0
  0
LINE
  5
2FB
100
AcDbEntity
  8
1
  6
CONTINUOUS
 62
           7
100
AcDbLine
 10
124.443377
 20
110.881701
 30
0.0
 11
124.556774
 21
110.881701
 31
0.0
  0
LINE
  5
2FC
100
AcDbEntity
  8
1
  6
CONTINUOUS
 62
           7
100
AcDbLine
 10
124.556774
 20
110.881701
 30
0.0
 11
124.643377
 21
110.881701
 31
0.0
  0
POLYLINE
  5
2FD
100
AcDbEntity
  8
1
  6
DOT
 62
           9
100
AcDb2dPolyline
 66
           1
 10
0.0
 20
0.0
 30
0.0
  0
VERTEX
  5
2FE
100
AcDbEntity
  8
1
  6
DOT
 62
           9
100
AcDbVertex
100
AcDb2dVertex
 10
120.792038
 20
110.881701
 30
0.0
  0
VERTEX
  5
2FF
100
AcDbEntity
  8
1
  6
DOT
 62
           9
100
AcDbVertex
100
AcDb2dVertex
 10
120.72549
 20
110.800841
 30
0.0
  0
VERTEX
  5
300
100
AcDbEntity
  8
1
  6
DOT
 62
           9
100
AcDbVertex
100
AcDb2dVertex
 10
120.709585
 20
110.701305
 30
0.0
  0
VERTEX
  5
301
100
AcDbEntity
  8
1
  6
DOT
 62
           9
100
AcDbVertex
100
AcDb2dVertex
 10
120.709186
 20
110.681701
 30
0.0
  0
SEQEND
  5
302
100
AcDbEntity
  8
1
  6
DOT
 62
           9
  0
POLYLINE
  5
303
100
AcDbEntity
  8
1
  6
DOT
 62
           9
100
AcDb2dPolyline
 66
           1
 10
0.0
 20
0.0
 30
0.0
  0
VERTEX
  5
304
100
AcDbEntity
  8
1
  6
DOT
 62
           9
100
AcDbVertex
100
AcDb2dVertex
 10
121.868821
 20
110.881701
 30
0.0
  0
VERTEX
  5
305
100
AcDbEntity
  8
1
  6
DOT
 62
           9
100
AcDbVertex
100
AcDb2dVertex
 10
121.802274
 20
110.800841
 30
0.0
  0
VERTEX
  5
306
100
AcDbEntity
  8
1
  6
DOT
 62
           9
100
AcDbVertex
100
AcDb2dVertex
 10
121.786368
 20
110.701305
 30
0.0
  0
VERTEX
  5
307
100
AcDbEntity
  8
1
  6
DOT
 62
           9
100
AcDbVertex
100
AcDb2dVertex
 10
121.785969
 20
110.681701
 30
0.0
  0
SEQEND
  5
308
100
AcDbEntity
  8
1
  6
DOT
 62
           9
  0
POLYLINE
  5
309
100
AcDbEntity
  8
1
  6
DOT
 62
           9
100
AcDb2dPolyline
 66
           1
 10
0.0
 20
0.0
 30
0.0
  0
VERTEX
  5
30A
100
AcDbEntity
  8
1
  6
DOT
 62
           9
100
AcDbVertex
100
AcDb2dVertex
 10
120.709186
 20
103.081701
 30
0.0
  0
VERTEX
  5
30B
100
AcDbEntity
  8
1
  6
DOT
 62
           9
100
AcDbVertex
100
AcDb2dVertex
 10
120.720973
 20
102.978881
 30
0.0
  0
VERTEX
  5
30C
100
AcDbEntity
  8
1
  6
DOT
 62
           9
100
AcDbVertex
100
AcDb2dVertex
 10
120.771906
 20
102.887695
 30
0.0
  0
VERTEX
  5
30D
100
AcDbEntity
  8
1
  6
DOT
 62
           9
100
AcDbVertex
100
AcDb2dVertex
 10
120.792038
 20
102.881701
 30
0.0
  0
SEQEND
  5
30E
100
AcDbEntity
  8
1
  6
DOT
 62
           9
  0
POLYLINE
  5
30F
100
AcDbEntity
  8
1
  6
DOT
 62
           9
100
AcDb2dPolyline
 66
           1
 10
0.0
 20
0.0
 30
0.0
  0
VERTEX
  5
310
100
AcDbEntity
  8
1
  6
DOT
 62
           9
100
AcDbVertex
100
AcDb2dVertex
 10
121.785969
 20
103.081701
 30
0.0
  0
VERTEX
  5
311
100
AcDbEntity
  8
1
  6
DOT
 62
           9
100
AcDbVertex
100
AcDb2dVertex
 10
121.797756
 20
102.978881
 30
0.0
  0
VERTEX
  5
312
100
AcDbEntity
  8
1
  6
DOT
 62
           9
100
AcDbVertex
100
AcDb2dVertex
 10
121.84869
 20
102.887695
 30
0.0
  0
VERTEX
  5
313
100
AcDbEntity
  8
1
  6
DOT
 62
           9
100
AcDbVertex
100
AcDb2dVertex
 10
121.868821
 20
102.881701
 30
0.0
  0
SEQEND
  5
314
100
AcDbEntity
  8
1
  6
DOT
 62
           9
  0
LINE
  5
315
100
AcDbEntity
  8
1
  6
DOT
 62
           9
100
AcDbLine
 10
113.122966
 20
103.881701
 30
0.0
 11
113.122966
 21
109.881701
 31
0.0
  0
ARC
  5
316
100
AcDbEntity
  8
1
  6
CONTINUOUS
 62
           7
100
AcDbCircle
 10
134.443377
 20
103.081701
 30
0.0
 40
0.2
100
AcDbArc
 50
270.0
 51
0.0
  0
ARC
  5
317
100
AcDbEntity
  8
1
  6
CONTINUOUS
 62
           7
100
AcDbCircle
 10
134.443377
 20
110.681701
 30
0.0
 40
0.2
100
AcDbArc
 50
0.0
 51
90.0
  0
LINE
  5
318
100
AcDbEntity
  8
1
  6
CONTINUOUS
 62
           7
100
AcDbLine
 10
124.643377
 20
102.881701
 30
0.0
 11
134.443377
 21
102.881701
 31
0.0
  0
LINE
  5
319
100
AcDbEntity
  8
1
  6
CONTINUOUS
 62
           7
100
AcDbLine
 10
134.443377
 20
110.881701
 30
0.0
 11
124.643377
 21
110.881701
 31
0.0
  0
LINE
  5
31A
100
AcDbEntity
  8
1
  6
CONTINUOUS
 62
           7
100
AcDbLine
 10
199.243328
 20
109.081701
 30
0.0
 11
134.643377
 21
109.081701
 31
0.0
  0
LINE
  5
31B
100
AcDbEntity
  8
1
  6
CONTINUOUS
 62
           7
100
AcDbLine
 10
134.643377
 20
104.681701
 30
0.0
 11
195.044183
 21
104.681701
 31
0.0
  0
LINE
  5
31C
100
AcDbEntity
  8
1
  6
CONTINUOUS
 62
           7
100
AcDbLine
 10
273.59274
 20
100.181701
 30
0.0
 11
273.59274
 21
113.581701
 31
0.0
  0
LINE
  5
31D
100
AcDbEntity
  8
1
  6
CONTINUOUS
 62
           7
100
AcDbLine
 10
293.59274
 20
113.581701
 30
0.0
 11
293.59274
 21
100.181701
 31
0.0
  0
LINE
  5
31E
100
AcDbEntity
  8
1
  6
CONTINUOUS
 62
           7
100
AcDbLine
 10
273.59274
 20
108.631701
 30
0.0
 11
264.462152
 21
108.631701
 31
0.0
  0
POLYLINE
  5
31F
100
AcDbEntity
  8
1
  6
CONTINUOUS
 62
           7
100
AcDb2dPolyline
 66
           1
 10
0.0
 20
0.0
 30
0.0
  0
VERTEX
  5
320
100
AcDbEntity
  8
1
  6
CONTINUOUS
 62
           7
100
AcDbVertex
100
AcDb2dVertex
 10
264.462152
 20
108.631701
 30
0.0
  0
VERTEX
  5
321
100
AcDbEntity
  8
1
  6
CONTINUOUS
 62
           7
100
AcDbVertex
100
AcDb2dVertex
 10
264.553353
 20
108.674628
 30
0.0
  0
VERTEX
  5
322
100
AcDbEntity
  8
1
  6
CONTINUOUS
 62
           7
100
AcDbVertex
100
AcDb2dVertex
 10
264.59274
 20
108.763057
 30
0.0
  0
SEQEND
  5
323
100
AcDbEntity
  8
1
  6
CONTINUOUS
 62
           7
  0
LINE
  5
324
100
AcDbEntity
  8
1
  6
CONTINUOUS
 62
           7
100
AcDbLine
 10
264.19274
 20
101.281701
 30
0.0
 11
264.19274
 21
101.562162
 31
0.0
  0
LINE
  5
325
100
AcDbEntity
  8
1
  6
CONTINUOUS
 62
           7
100
AcDbLine
 10
263.59274
 20
101.881701
 30
0.0
 11
263.59274
 21
111.881701
 31
0.0
  0
LINE
  5
326
100
AcDbEntity
  8
1
  6
DOT
 62
           9
100
AcDbLine
 10
264.59274
 20
102.958263
 30
0.0
 11
264.59274
 21
102.342249
 31
0.0
  0
LINE
  5
327
100
AcDbEntity
  8
1
  6
DOT
 62
           9
100
AcDbLine
 10
264.59274
 20
105.000345
 30
0.0
 11
264.59274
 21
103.957906
 31
0.0
  0
LINE
  5
328
100
AcDbEntity
  8
1
  6
DOT
 62
           9
100
AcDbLine
 10
264.59274
 20
109.805497
 30
0.0
 11
264.59274
 21
108.763057
 31
0.0
  0
LINE
  5
329
100
AcDbEntity
  8
1
  6
DOT
 62
           9
100
AcDbLine
 10
264.539727
 20
109.856729
 30
0.0
 11
264.542103
 21
109.856767
 31
0.0
  0
LINE
  5
32A
100
AcDbEntity
  8
1
  6
DOT
 62
           9
100
AcDbLine
 10
264.59274
 20
111.421154
 30
0.0
 11
264.59274
 21
110.80514
 31
0.0
  0
LINE
  5
32B
100
AcDbEntity
  8
1
  6
DOT
 62
           9
100
AcDbLine
 10
264.59274
 20
112.579113
 30
0.0
 11
264.59274
 21
112.121112
 31
0.0
  0
LINE
  5
32C
100
AcDbEntity
  8
1
  6
CONTINUOUS
 62
           7
100
AcDbLine
 10
264.19274
 20
112.201241
 30
0.0
 11
264.19274
 21
112.481701
 31
0.0
  0
POLYLINE
  5
32D
100
AcDbEntity
  8
1
  6
CONTINUOUS
 62
           7
100
AcDb2dPolyline
 66
           1
 10
0.0
 20
0.0
 30
0.0
  0
VERTEX
  5
32E
100
AcDbEntity
  8
1
  6
CONTINUOUS
 62
           7
100
AcDbVertex
100
AcDb2dVertex
 10
264.462152
 20
112.484156
 30
0.0
  0
VERTEX
  5
32F
100
AcDbEntity
  8
1
  6
CONTINUOUS
 62
           7
100
AcDbVertex
100
AcDb2dVertex
 10
264.256963
 20
112.268808
 30
0.0
  0
VERTEX
  5
330
100
AcDbEntity
  8
1
  6
CONTINUOUS
 62
           7
100
AcDbVertex
100
AcDb2dVertex
 10
264.19274
 20
112.201241
 30
0.0
  0
SEQEND
  5
331
100
AcDbEntity
  8
1
  6
CONTINUOUS
 62
           7
  0
LINE
  5
332
100
AcDbEntity
  8
1
  6
CONTINUOUS
 62
           7
100
AcDbLine
 10
264.59274
 20
112.579113
 30
0.0
 11
264.587778
 21
112.584156
 31
0.0
  0
LINE
  5
333
100
AcDbEntity
  8
1
  6
CONTINUOUS
 62
           7
100
AcDbLine
 10
264.59274
 20
112.579113
 30
0.0
 11
264.59274
 21
112.121112
 31
0.0
  0
POLYLINE
  5
334
100
AcDbEntity
  8
1
  6
CONTINUOUS
 62
           7
100
AcDb2dPolyline
 66
           1
 10
0.0
 20
0.0
 30
0.0
  0
VERTEX
  5
335
100
AcDbEntity
  8
1
  6
CONTINUOUS
 62
           7
100
AcDbVertex
100
AcDb2dVertex
 10
264.483411
 20
111.976431
 30
0.0
  0
VERTEX
  5
336
100
AcDbEntity
  8
1
  6
CONTINUOUS
 62
           7
100
AcDbVertex
100
AcDb2dVertex
 10
264.554024
 20
112.048136
 30
0.0
  0
VERTEX
  5
337
100
AcDbEntity
  8
1
  6
CONTINUOUS
 62
           7
100
AcDbVertex
100
AcDb2dVertex
 10
264.59274
 20
112.121112
 30
0.0
  0
SEQEND
  5
338
100
AcDbEntity
  8
1
  6
CONTINUOUS
 62
           7
  0
LINE
  5
339
100
AcDbEntity
  8
1
  6
CONTINUOUS
 62
           7
100
AcDbLine
 10
264.19274
 20
111.73742
 30
0.0
 11
264.483411
 21
111.976431
 31
0.0
  0
LINE
  5
33A
100
AcDbEntity
  8
1
  6
CONTINUOUS
 62
           7
100
AcDbLine
 10
264.19274
 20
111.163843
 30
0.0
 11
264.19274
 21
111.73742
 31
0.0
  0
LINE
  5
33B
100
AcDbEntity
  8
1
  6
CONTINUOUS
 62
           7
100
AcDbLine
 10
264.483411
 20
111.402854
 30
0.0
 11
264.19274
 21
111.163843
 31
0.0
  0
LINE
  5
33C
100
AcDbEntity
  8
1
  6
CONTINUOUS
 62
           7
100
AcDbLine
 10
264.59274
 20
111.421154
 30
0.0
 11
264.568748
 21
111.445496
 31
0.0
  0
LINE
  5
33D
100
AcDbEntity
  8
1
  6
CONTINUOUS
 62
           7
100
AcDbLine
 10
264.59274
 20
111.421154
 30
0.0
 11
264.59274
 21
110.80514
 31
0.0
  0
POLYLINE
  5
33E
100
AcDbEntity
  8
1
  6
CONTINUOUS
 62
           7
100
AcDb2dPolyline
 66
           1
 10
0.0
 20
0.0
 30
0.0
  0
VERTEX
  5
33F
100
AcDbEntity
  8
1
  6
CONTINUOUS
 62
           7
100
AcDbVertex
100
AcDb2dVertex
 10
264.483411
 20
110.657834
 30
0.0
  0
VERTEX
  5
340
100
AcDbEntity
  8
1
  6
CONTINUOUS
 62
           7
100
AcDbVertex
100
AcDb2dVertex
 10
264.561554
 20
110.729241
 30
0.0
  0
VERTEX
  5
341
100
AcDbEntity
  8
1
  6
CONTINUOUS
 62
           7
100
AcDbVertex
100
AcDb2dVertex
 10
264.59274
 20
110.80514
 30
0.0
  0
SEQEND
  5
342
100
AcDbEntity
  8
1
  6
CONTINUOUS
 62
           7
  0
LINE
  5
343
100
AcDbEntity
  8
1
  6
CONTINUOUS
 62
           7
100
AcDbLine
 10
264.19274
 20
110.490477
 30
0.0
 11
264.483411
 21
110.657834
 31
0.0
  0
LINE
  5
344
100
AcDbEntity
  8
1
  6
CONTINUOUS
 62
           7
100
AcDbLine
 10
264.19274
 20
109.671325
 30
0.0
 11
264.19274
 21
110.490477
 31
0.0
  0
LINE
  5
345
100
AcDbEntity
  8
1
  6
CONTINUOUS
 62
           7
100
AcDbLine
 10
264.483411
 20
109.838682
 30
0.0
 11
264.19274
 21
109.671325
 31
0.0
  0
LINE
  5
346
100
AcDbEntity
  8
1
  6
CONTINUOUS
 62
           7
100
AcDbLine
 10
264.59274
 20
109.805497
 30
0.0
 11
264.5421
 21
109.856767
 31
0.0
  0
LINE
  5
347
100
AcDbEntity
  8
1
  6
CONTINUOUS
 62
           7
100
AcDbLine
 10
264.59274
 20
109.805497
 30
0.0
 11
264.59274
 21
108.763057
 31
0.0
  0
LINE
  5
348
100
AcDbEntity
  8
1
  6
CONTINUOUS
 62
           7
100
AcDbLine
 10
264.19274
 20
108.631701
 30
0.0
 11
264.462152
 21
108.631701
 31
0.0
  0
LINE
  5
349
100
AcDbEntity
  8
1
  6
CONTINUOUS
 62
           7
100
AcDbLine
 10
264.19274
 20
105.131701
 30
0.0
 11
264.19274
 21
108.631701
 31
0.0
  0
LINE
  5
34A
100
AcDbEntity
  8
1
  6
CONTINUOUS
 62
           7
100
AcDbLine
 10
264.462152
 20
105.131701
 30
0.0
 11
264.19274
 21
105.131701
 31
0.0
  0
POLYLINE
  5
34B
100
AcDbEntity
  8
1
  6
CONTINUOUS
 62
           7
100
AcDb2dPolyline
 66
           1
 10
0.0
 20
0.0
 30
0.0
  0
VERTEX
  5
34C
100
AcDbEntity
  8
1
  6
CONTINUOUS
 62
           7
100
AcDbVertex
100
AcDb2dVertex
 10
264.59274
 20
105.000345
 30
0.0
  0
VERTEX
  5
34D
100
AcDbEntity
  8
1
  6
CONTINUOUS
 62
           7
100
AcDbVertex
100
AcDb2dVertex
 10
264.548586
 20
105.093512
 30
0.0
  0
VERTEX
  5
34E
100
AcDbEntity
  8
1
  6
CONTINUOUS
 62
           7
100
AcDbVertex
100
AcDb2dVertex
 10
264.462152
 20
105.131701
 30
0.0
  0
SEQEND
  5
34F
100
AcDbEntity
  8
1
  6
CONTINUOUS
 62
           7
  0
LINE
  5
350
100
AcDbEntity
  8
1
  6
CONTINUOUS
 62
           7
100
AcDbLine
 10
264.59274
 20
105.000345
 30
0.0
 11
264.59274
 21
103.957906
 31
0.0
  0
LINE
  5
351
100
AcDbEntity
  8
1
  6
CONTINUOUS
 62
           7
100
AcDbLine
 10
264.483411
 20
103.924721
 30
0.0
 11
264.542103
 21
103.906636
 31
0.0
  0
LINE
  5
352
100
AcDbEntity
  8
1
  6
CONTINUOUS
 62
           7
100
AcDbLine
 10
264.19274
 20
104.092078
 30
0.0
 11
264.483411
 21
103.924721
 31
0.0
  0
LINE
  5
353
100
AcDbEntity
  8
1
  6
CONTINUOUS
 62
           7
100
AcDbLine
 10
264.19274
 20
103.272926
 30
0.0
 11
264.19274
 21
104.092078
 31
0.0
  0
LINE
  5
354
100
AcDbEntity
  8
1
  6
CONTINUOUS
 62
           7
100
AcDbLine
 10
264.483411
 20
103.105569
 30
0.0
 11
264.19274
 21
103.272926
 31
0.0
  0
POLYLINE
  5
355
100
AcDbEntity
  8
1
  6
CONTINUOUS
 62
           7
100
AcDb2dPolyline
 66
           1
 10
0.0
 20
0.0
 30
0.0
  0
VERTEX
  5
356
100
AcDbEntity
  8
1
  6
CONTINUOUS
 62
           7
100
AcDbVertex
100
AcDb2dVertex
 10
264.59274
 20
102.958263
 30
0.0
  0
VERTEX
  5
357
100
AcDbEntity
  8
1
  6
CONTINUOUS
 62
           7
100
AcDbVertex
100
AcDb2dVertex
 10
264.548586
 20
103.050571
 30
0.0
  0
VERTEX
  5
358
100
AcDbEntity
  8
1
  6
CONTINUOUS
 62
           7
100
AcDbVertex
100
AcDb2dVertex
 10
264.483411
 20
103.105569
 30
0.0
  0
SEQEND
  5
359
100
AcDbEntity
  8
1
  6
CONTINUOUS
 62
           7
  0
LINE
  5
35A
100
AcDbEntity
  8
1
  6
CONTINUOUS
 62
           7
100
AcDbLine
 10
264.59274
 20
102.958263
 30
0.0
 11
264.59274
 21
102.342249
 31
0.0
  0
LINE
  5
35B
100
AcDbEntity
  8
1
  6
CONTINUOUS
 62
           7
100
AcDbLine
 10
264.483411
 20
102.360548
 30
0.0
 11
264.568752
 21
102.317906
 31
0.0
  0
LINE
  5
35C
100
AcDbEntity
  8
1
  6
CONTINUOUS
 62
           7
100
AcDbLine
 10
264.19274
 20
102.599559
 30
0.0
 11
264.483411
 21
102.360548
 31
0.0
  0
LINE
  5
35D
100
AcDbEntity
  8
1
  6
CONTINUOUS
 62
           7
100
AcDbLine
 10
264.19274
 20
102.025983
 30
0.0
 11
264.19274
 21
102.599559
 31
0.0
  0
LINE
  5
35E
100
AcDbEntity
  8
1
  6
CONTINUOUS
 62
           7
100
AcDbLine
 10
264.483411
 20
101.786972
 30
0.0
 11
264.19274
 21
102.025983
 31
0.0
  0
POLYLINE
  5
35F
100
AcDbEntity
  8
1
  6
CONTINUOUS
 62
           7
100
AcDb2dPolyline
 66
           1
 10
0.0
 20
0.0
 30
0.0
  0
VERTEX
  5
360
100
AcDbEntity
  8
1
  6
CONTINUOUS
 62
           7
100
AcDbVertex
100
AcDb2dVertex
 10
264.59274
 20
101.642291
 30
0.0
  0
VERTEX
  5
361
100
AcDbEntity
  8
1
  6
CONTINUOUS
 62
           7
100
AcDbVertex
100
AcDb2dVertex
 10
264.538762
 20
101.73344
 30
0.0
  0
VERTEX
  5
362
100
AcDbEntity
  8
1
  6
CONTINUOUS
 62
           7
100
AcDbVertex
100
AcDb2dVertex
 10
264.483411
 20
101.786972
 30
0.0
  0
SEQEND
  5
363
100
AcDbEntity
  8
1
  6
CONTINUOUS
 62
           7
  0
LINE
  5
364
100
AcDbEntity
  8
1
  6
CONTINUOUS
 62
           7
100
AcDbLine
 10
264.59274
 20
101.642291
 30
0.0
 11
264.59274
 21
101.18429
 31
0.0
  0
POLYLINE
  5
365
100
AcDbEntity
  8
1
  6
CONTINUOUS
 62
           7
100
AcDb2dPolyline
 66
           1
 10
0.0
 20
0.0
 30
0.0
  0
VERTEX
  5
366
100
AcDbEntity
  8
1
  6
CONTINUOUS
 62
           7
100
AcDbVertex
100
AcDb2dVertex
 10
264.462152
 20
101.279246
 30
0.0
  0
VERTEX
  5
367
100
AcDbEntity
  8
1
  6
CONTINUOUS
 62
           7
100
AcDbVertex
100
AcDb2dVertex
 10
264.536961
 20
101.209675
 30
0.0
  0
VERTEX
  5
368
100
AcDbEntity
  8
1
  6
CONTINUOUS
 62
           7
100
AcDbVertex
100
AcDb2dVertex
 10
264.587778
 20
101.179246
 30
0.0
  0
SEQEND
  5
369
100
AcDbEntity
  8
1
  6
CONTINUOUS
 62
           7
  0
LINE
  5
36A
100
AcDbEntity
  8
1
  6
CONTINUOUS
 62
           7
100
AcDbLine
 10
264.19274
 20
101.562162
 30
0.0
 11
264.462152
 21
101.279246
 31
0.0
  0
LINE
  5
36B
100
AcDbEntity
  8
1
  6
DOT
 62
           9
100
AcDbLine
 10
264.59274
 20
101.642291
 30
0.0
 11
264.59274
 21
101.18429
 31
0.0
  0
LINE
  5
36C
100
AcDbEntity
  8
1
  6
CONTINUOUS
 62
           7
100
AcDbLine
 10
264.462152
 20
105.131701
 30
0.0
 11
273.59274
 21
105.131701
 31
0.0
  0
LINE
  5
36D
100
AcDbEntity
  8
1
  6
CONTINUOUS
 62
           7
100
AcDbLine
 10
264.542103
 20
103.906636
 30
0.0
 11
264.59274
 21
103.957906
 31
0.0
  0
LINE
  5
36E
100
AcDbEntity
  8
1
  6
CONTINUOUS
 62
           7
100
AcDbLine
 10
264.5421
 20
109.856767
 30
0.0
 11
264.483411
 21
109.838682
 31
0.0
  0
LINE
  5
36F
100
AcDbEntity
  8
1
  6
CONTINUOUS
 62
           7
100
AcDbLine
 10
308.59274
 20
111.531701
 30
0.0
 11
308.59274
 21
102.231701
 31
0.0
  0
LINE
  5
370
100
AcDbEntity
  8
1
  6
CONTINUOUS
 62
           7
100
AcDbLine
 10
264.19274
 20
110.490477
 30
0.0
 11
273.59274
 21
110.490477
 31
0.0
  0
LINE
  5
371
100
AcDbEntity
  8
1
  6
DOT
 62
           9
100
AcDbLine
 10
264.19274
 20
109.671325
 30
0.0
 11
273.59274
 21
109.671325
 31
0.0
  0
LINE
  5
372
100
AcDbEntity
  8
1
  6
CONTINUOUS
 62
           7
100
AcDbLine
 10
264.19274
 20
103.272926
 30
0.0
 11
273.59274
 21
103.272926
 31
0.0
  0
LINE
  5
373
100
AcDbEntity
  8
1
  6
DOT
 62
           9
100
AcDbLine
 10
264.19274
 20
104.092078
 30
0.0
 11
273.59274
 21
104.092078
 31
0.0
  0
LINE
  5
374
100
AcDbEntity
  8
1
  6
CONTINUOUS
 62
           7
100
AcDbLine
 10
264.568752
 20
102.317906
 30
0.0
 11
264.59274
 21
102.342249
 31
0.0
  0
LINE
  5
375
100
AcDbEntity
  8
1
  6
CONTINUOUS
 62
           7
100
AcDbLine
 10
264.568748
 20
111.445496
 30
0.0
 11
264.483411
 21
111.402854
 31
0.0
  0
LINE
  5
376
100
AcDbEntity
  8
1
  6
CONTINUOUS
 62
           7
100
AcDbLine
 10
264.19274
 20
102.025983
 30
0.0
 11
273.59274
 21
102.025983
 31
0.0
  0
LINE
  5
377
100
AcDbEntity
  8
1
  6
DOT
 62
           9
100
AcDbLine
 10
264.19274
 20
102.599559
 30
0.0
 11
273.59274
 21
102.599559
 31
0.0
  0
LINE
  5
378
100
AcDbEntity
  8
1
  6
CONTINUOUS
 62
           7
100
AcDbLine
 10
264.19274
 20
111.73742
 30
0.0
 11
273.59274
 21
111.73742
 31
0.0
  0
LINE
  5
379
100
AcDbEntity
  8
1
  6
DOT
 62
           9
100
AcDbLine
 10
264.19274
 20
111.163843
 30
0.0
 11
273.59274
 21
111.163843
 31
0.0
  0
LINE
  5
37A
100
AcDbEntity
  8
1
  6
CONTINUOUS
 62
           7
100
AcDbLine
 10
264.587778
 20
101.179246
 30
0.0
 11
264.59274
 21
101.18429
 31
0.0
  0
POLYLINE
  5
37B
100
AcDbEntity
  8
1
  6
CONTINUOUS
 62
           7
100
AcDb2dPolyline
 66
           1
 10
0.0
 20
0.0
 30
0.0
  0
VERTEX
  5
37C
100
AcDbEntity
  8
1
  6
CONTINUOUS
 62
           7
100
AcDbVertex
100
AcDb2dVertex
 10
264.587778
 20
112.584156
 30
0.0
  0
VERTEX
  5
37D
100
AcDbEntity
  8
1
  6
CONTINUOUS
 62
           7
100
AcDbVertex
100
AcDb2dVertex
 10
264.504533
 20
112.525728
 30
0.0
  0
VERTEX
  5
37E
100
AcDbEntity
  8
1
  6
CONTINUOUS
 62
           7
100
AcDbVertex
100
AcDb2dVertex
 10
264.462152
 20
112.484156
 30
0.0
  0
SEQEND
  5
37F
100
AcDbEntity
  8
1
  6
CONTINUOUS
 62
           7
  0
LINE
  5
380
100
AcDbEntity
  8
1
  6
DOT
 62
           9
100
AcDbLine
 10
264.19274
 20
112.201241
 30
0.0
 11
273.59274
 21
112.201241
 31
0.0
  0
LINE
  5
381
100
AcDbEntity
  8
1
  6
DOT
 62
           9
100
AcDbLine
 10
264.19274
 20
101.562162
 30
0.0
 11
273.59274
 21
101.562162
 31
0.0
  0
LINE
  5
382
100
AcDbEntity
  8
1
  6
CONTINUOUS
 62
           7
100
AcDbLine
 10
293.29274
 20
113.881701
 30
0.0
 11
273.89274
 21
113.881701
 31
0.0
  0
LINE
  5
383
100
AcDbEntity
  8
1
  6
CONTINUOUS
 62
           7
100
AcDbLine
 10
273.89274
 20
99.881701
 30
0.0
 11
293.29274
 21
99.881701
 31
0.0
  0
ARC
  5
384
100
AcDbEntity
  8
1
  6
CONTINUOUS
 62
           7
100
AcDbCircle
 10
273.89274
 20
100.181701
 30
0.0
 40
0.3
100
AcDbArc
 50
180.0
 51
270.0
  0
ARC
  5
385
100
AcDbEntity
  8
1
  6
CONTINUOUS
 62
           7
100
AcDbCircle
 10
273.89274
 20
113.581701
 30
0.0
 40
0.3
100
AcDbArc
 50
90.0
 51
180.0
  0
ARC
  5
386
100
AcDbEntity
  8
1
  6
CONTINUOUS
 62
           7
100
AcDbCircle
 10
293.29274
 20
113.581701
 30
0.0
 40
0.3
100
AcDbArc
 50
0.0
 51
90.0
  0
ARC
  5
387
100
AcDbEntity
  8
1
  6
CONTINUOUS
 62
           7
100
AcDbCircle
 10
293.29274
 20
100.181701
 30
0.0
 40
0.3
100
AcDbArc
 50
270.0
 51
0.0
  0
LINE
  5
388
100
AcDbEntity
  8
1
  6
CONTINUOUS
 62
           7
100
AcDbLine
 10
264.19274
 20
112.481701
 30
0.0
 11
263.59274
 21
111.881701
 31
0.0
  0
LINE
  5
389
100
AcDbEntity
  8
1
  6
CONTINUOUS
 62
           7
100
AcDbLine
 10
263.59274
 20
101.881701
 30
0.0
 11
264.19274
 21
101.281701
 31
0.0
  0
LINE
  5
38A
100
AcDbEntity
  8
1
  6
CONTINUOUS
 62
           7
100
AcDbLine
 10
264.542093
 20
103.906636
 30
0.0
 11
273.59274
 21
103.906636
 31
0.0
  0
LINE
  5
38B
100
AcDbEntity
  8
1
  6
CONTINUOUS
 62
           7
100
AcDbLine
 10
273.59274
 20
109.856767
 30
0.0
 11
264.542085
 21
109.856767
 31
0.0
  0
ARC
  5
38C
100
AcDbEntity
  8
1
  6
CONTINUOUS
 62
           7
100
AcDbCircle
 10
308.29274
 20
111.531701
 30
0.0
 40
0.3
100
AcDbArc
 50
0.0
 51
90.0
  0
ARC
  5
38D
100
AcDbEntity
  8
1
  6
CONTINUOUS
 62
           7
100
AcDbCircle
 10
308.29274
 20
102.231701
 30
0.0
 40
0.3
100
AcDbArc
 50
270.0
 51
0.0
  0
LINE
  5
38E
100
AcDbEntity
  8
1
  6
CONTINUOUS
 62
           7
100
AcDbLine
 10
308.29274
 20
111.831701
 30
0.0
 11
293.59274
 21
111.831701
 31
0.0
  0
LINE
  5
38F
100
AcDbEntity
  8
1
  6
CONTINUOUS
 62
           7
100
AcDbLine
 10
293.59274
 20
101.931701
 30
0.0
 11
308.29274
 21
101.931701
 31
0.0
  0
LINE
  5
390
100
AcDbEntity
  8
1
  6
CONTINUOUS
 62
           7
100
AcDbLine
 10
264.568743
 20
102.317906
 30
0.0
 11
273.59274
 21
102.317906
 31
0.0
  0
LINE
  5
391
100
AcDbEntity
  8
1
  6
CONTINUOUS
 62
           7
100
AcDbLine
 10
273.59274
 20
111.445496
 30
0.0
 11
264.568731
 21
111.445496
 31
0.0
  0
ARC
  5
392
100
AcDbEntity
  8
1
  6
DOT
 62
           9
100
AcDbCircle
 10
308.29274
 20
110.181701
 30
0.0
 40
0.3
100
AcDbArc
 50
270.0
 51
0.0
  0
ARC
  5
393
100
AcDbEntity
  8
1
  6
DOT
 62
           9
100
AcDbCircle
 10
308.29274
 20
103.581701
 30
0.0
 40
0.3
100
AcDbArc
 50
0.0
 51
90.0
  0
LINE
  5
394
100
AcDbEntity
  8
1
  6
DOT
 62
           9
100
AcDbLine
 10
308.29274
 20
109.881701
 30
0.0
 11
293.59274
 21
109.881701
 31
0.0
  0
LINE
  5
395
100
AcDbEntity
  8
1
  6
DOT
 62
           9
100
AcDbLine
 10
293.59274
 20
103.881701
 30
0.0
 11
308.29274
 21
103.881701
 31
0.0
  0
LINE
  5
396
100
AcDbEntity
  8
1
  6
CONTINUOUS
 62
           7
100
AcDbLine
 10
263.59274
 20
109.081701
 30
0.0
 11
204.243328
 21
109.081701
 31
0.0
  0
LINE
  5
397
100
AcDbEntity
  8
1
  6
CONTINUOUS
 62
           7
100
AcDbLine
 10
200.044183
 20
104.681701
 30
0.0
 11
263.59274
 21
104.681701
 31
0.0
  0
LINE
  5
398
100
AcDbEntity
  8
1
  6
CONTINUOUS
 62
           7
100
AcDbLine
 10
264.587769
 20
101.179246
 30
0.0
 11
273.59274
 21
101.179246
 31
0.0
  0
LINE
  5
399
100
AcDbEntity
  8
1
  6
CONTINUOUS
 62
           7
100
AcDbLine
 10
273.59274
 20
112.584156
 30
0.0
 11
264.587762
 21
112.584156
 31
0.0
  0
LINE
  5
39A
100
AcDbEntity
  8
1
  6
DOT
 62
           9
100
AcDbLine
 10
273.59274
 20
112.481701
 30
0.0
 11
264.462133
 21
112.481701
 31
0.0
  0
LINE
  5
39B
100
AcDbEntity
  8
1
  6
DOT
 62
           9
100
AcDbLine
 10
264.462133
 20
112.481701
 30
0.0
 11
264.459813
 21
112.481701
 31
0.0
  0
LINE
  5
39C
100
AcDbEntity
  8
1
  6
CONTINUOUS
 62
           7
100
AcDbLine
 10
264.459813
 20
112.481701
 30
0.0
 11
264.19274
 21
112.481701
 31
0.0
  0
LINE
  5
39D
100
AcDbEntity
  8
1
  6
CONTINUOUS
 62
           7
100
AcDbLine
 10
264.19274
 20
101.281701
 30
0.0
 11
264.459813
 21
101.281701
 31
0.0
  0
LINE
  5
39E
100
AcDbEntity
  8
1
  6
DOT
 62
           9
100
AcDbLine
 10
264.459813
 20
101.281701
 30
0.0
 11
264.462082
 21
101.281701
 31
0.0
  0
LINE
  5
39F
100
AcDbEntity
  8
1
  6
DOT
 62
           9
100
AcDbLine
 10
264.462082
 20
101.281701
 30
0.0
 11
273.59274
 21
101.281701
 31
0.0
  0
LINE
  5
3A0
100
AcDbEntity
  8
1
  6
CONTINUOUS
 62
           9
100
AcDbLine
 10
193.783922
 20
103.361158
 30
0.0
 11
200.388711
 21
110.28187
 31
0.0
  0
LINE
  5
3A1
100
AcDbEntity
  8
1
  6
CONTINUOUS
 62
           9
100
AcDbLine
 10
198.783922
 20
103.361158
 30
0.0
 11
205.388711
 21
110.28187
 31
0.0
  0
LINE
  5
3A2
100
AcDbEntity
  8
1
  6
DASHDOT
 62
           1
100
AcDbLine
 10
310.681307
 20
199.447836
 30
0.0
 11
94.653997
 21
199.447836
 31
0.0
  0
LINE
  5
3A3
100
AcDbEntity
  8
1
  6
DASHDOT
 62
           1
100
AcDbLine
 10
310.681307
 20
106.881701
 30
0.0
 11
94.653997
 21
106.881701
 31
0.0
  0
POINT
  5
3A4
100
AcDbEntity
  8
5
  6
CONTINUOUS
 62
           9
100
AcDbPoint
 10
310.681307
 20
202.273408
 30
0.0
  0
POINT
  5
3A5
100
AcDbEntity
  8
5
  6
CONTINUOUS
 62
           9
100
AcDbPoint
 10
94.653997
 20
201.856096
 30
0.0
  0
INSERT
  5
3A6
100
AcDbEntity
  8
0
  6
CONTINUOUS
 62
           7
100
AcDbBlockReference
  2
AID1969_$10$
 10
0.0
 20
0.0
 30
0.0
  0
INSERT
  5
3A7
100
AcDbEntity
  8
0
  6
CONTINUOUS
 62
           7
100
AcDbBlockReference
  2
AID1973_$11$
 10
0.0
 20
0.0
 30
0.0
  0
INSERT
  5
3A8
100
AcDbEntity
  8
0
  6
CONTINUOUS
 62
           7
100
AcDbBlockReference
  2
AID1977_$12$
 10
0.0
 20
0.0
 30
0.0
  0
INSERT
  5
3A9
100
AcDbEntity
  8
0
  6
CONTINUOUS
 62
           7
100
AcDbBlockReference
  2
AID1981_$13$
 10
0.0
 20
0.0
 30
0.0
  0
LINE
  5
3AA
100
AcDbEntity
  8
1
  6
DOT
 62
           9
100
AcDbLine
 10
45.90515
 20
209.271343
 30
0.0
 11
51.90515
 21
209.271343
 31
0.0
  0
LINE
  5
3AB
100
AcDbEntity
  8
1
  6
DOT
 62
           9
100
AcDbLine
 10
45.90515
 20
209.271343
 30
0.0
 11
45.90515
 21
210.575675
 31
0.0
  0
LINE
  5
3AC
100
AcDbEntity
  8
1
  6
DOT
 62
           9
100
AcDbLine
 10
45.90515
 20
210.575675
 30
0.0
 11
51.90515
 21
210.575675
 31
0.0
  0
LINE
  5
3AD
100
AcDbEntity
  8
1
  6
DOT
 62
           9
100
AcDbLine
 10
51.90515
 20
209.271343
 30
0.0
 11
51.90515
 21
210.575675
 31
0.0
  0
LINE
  5
3AE
100
AcDbEntity
  8
1
  6
DOT
 62
           9
100
AcDbLine
 10
45.90515
 20
211.010456
 30
0.0
 11
51.90515
 21
211.010456
 31
0.0
  0
LINE
  5
3AF
100
AcDbEntity
  8
1
  6
DOT
 62
           9
100
AcDbLine
 10
45.90515
 20
210.575675
 30
0.0
 11
45.90515
 21
211.010456
 31
0.0
  0
LINE
  5
3B0
100
AcDbEntity
  8
1
  6
DOT
 62
           9
100
AcDbLine
 10
51.90515
 20
210.575675
 30
0.0
 11
51.90515
 21
211.010456
 31
0.0
  0
LINE
  5
3B1
100
AcDbEntity
  8
1
  6
DOT
 62
           9
100
AcDbLine
 10
45.90515
 20
210.985994
 30
0.0
 11
51.90515
 21
210.985994
 31
0.0
  0
LINE
  5
3B2
100
AcDbEntity
  8
1
  6
DOT
 62
           9
100
AcDbLine
 10
45.90515
 20
210.585324
 30
0.0
 11
51.90515
 21
210.585324
 31
0.0
  0
LINE
  5
3B3
100
AcDbEntity
  8
1
  6
DOT
 62
           9
100
AcDbLine
 10
45.90515
 20
210.97807
 30
0.0
 11
51.90515
 21
210.97807
 31
0.0
  0
LINE
  5
3B4
100
AcDbEntity
  8
1
  6
DOT
 62
           9
100
AcDbLine
 10
45.90515
 20
210.571886
 30
0.0
 11
51.90515
 21
210.571886
 31
0.0
  0
LINE
  5
3B5
100
AcDbEntity
  8
1
  6
DOT
 62
           9
100
AcDbLine
 10
45.90515
 20
210.990471
 30
0.0
 11
51.90515
 21
210.990471
 31
0.0
  0
LINE
  5
3B6
100
AcDbEntity
  8
1
  6
DOT
 62
           9
100
AcDbLine
 10
45.90515
 20
210.574641
 30
0.0
 11
51.90515
 21
210.574641
 31
0.0
  0
LINE
  5
3B7
100
AcDbEntity
  8
1
  6
DOT
 62
           9
100
AcDbLine
 10
45.90515
 20
211.010456
 30
0.0
 11
45.90515
 21
211.271007
 31
0.0
  0
LINE
  5
3B8
100
AcDbEntity
  8
1
  6
DOT
 62
           9
100
AcDbLine
 10
51.90515
 20
211.010456
 30
0.0
 11
51.90515
 21
211.271007
 31
0.0
  0
LINE
  5
3B9
100
AcDbEntity
  8
1
  6
DOT
 62
           9
100
AcDbLine
 10
45.90515
 20
211.271007
 30
0.0
 11
45.90515
 21
211.35885
 31
0.0
  0
LINE
  5
3BA
100
AcDbEntity
  8
1
  6
DOT
 62
           9
100
AcDbLine
 10
51.90515
 20
211.271007
 30
0.0
 11
51.90515
 21
211.35885
 31
0.0
  0
LINE
  5
3BB
100
AcDbEntity
  8
1
  6
DOT
 62
           9
100
AcDbLine
 10
45.90515
 20
211.052141
 30
0.0
 11
51.90515
 21
211.052141
 31
0.0
  0
ARC
  5
3BC
100
AcDbEntity
  8
1
  6
CONTINUOUS
 62
           7
100
AcDbCircle
 10
50.132022
 20
205.811048
 30
0.0
 40
0.9
100
AcDbArc
 50
0.0
 51
107.657018
  0
ARC
  5
3BD
100
AcDbEntity
  8
1
  6
CONTINUOUS
 62
           7
100
AcDbCircle
 10
50.132022
 20
205.811048
 30
0.0
 40
0.6
100
AcDbArc
 50
0.0
 51
107.657018
  0
LINE
  5
3BE
100
AcDbEntity
  8
1
  6
CONTINUOUS
 62
           7
100
AcDbLine
 10
51.032022
 20
205.811048
 30
0.0
 11
51.032022
 21
193.083925
 31
0.0
  0
LINE
  5
3BF
100
AcDbEntity
  8
1
  6
CONTINUOUS
 62
           7
100
AcDbLine
 10
50.732022
 20
193.083925
 30
0.0
 11
50.732022
 21
205.811048
 31
0.0
  0
LINE
  5
3C0
100
AcDbEntity
  8
1
  6
CONTINUOUS
 62
           7
100
AcDbLine
 10
47.613969
 20
205.954011
 30
0.0
 11
49.859036
 21
206.668648
 31
0.0
  0
LINE
  5
3C1
100
AcDbEntity
  8
1
  6
CONTINUOUS
 62
           7
100
AcDbLine
 10
49.950031
 20
206.382781
 30
0.0
 11
47.704965
 21
205.668144
 31
0.0
  0
LINE
  5
3C2
100
AcDbEntity
  8
1
  6
CONTINUOUS
 62
           7
100
AcDbLine
 10
49.858999
 20
192.226337
 30
0.0
 11
47.61392
 21
192.941085
 31
0.0
  0
LINE
  5
3C3
100
AcDbEntity
  8
1
  6
CONTINUOUS
 62
           7
100
AcDbLine
 10
47.704928
 20
193.226947
 30
0.0
 11
49.950006
 21
192.5122
 31
0.0
  0
ARC
  5
3C4
100
AcDbEntity
  8
1
  6
CONTINUOUS
 62
           7
100
AcDbCircle
 10
50.132022
 20
193.083925
 30
0.0
 40
0.6
100
AcDbArc
 50
252.340505
 51
0.0
  0
ARC
  5
3C5
100
AcDbEntity
  8
1
  6
CONTINUOUS
 62
           7
100
AcDbCircle
 10
50.132022
 20
193.083925
 30
0.0
 40
0.9
100
AcDbArc
 50
252.340505
 51
0.0
  0
ARC
  5
3C6
100
AcDbEntity
  8
1
  6
CONTINUOUS
 62
           7
100
AcDbCircle
 10
47.977951
 20
204.810544
 30
0.0
 40
1.2
100
AcDbArc
 50
107.657018
 51
180.0
  0
ARC
  5
3C7
100
AcDbEntity
  8
1
  6
CONTINUOUS
 62
           7
100
AcDbCircle
 10
47.977951
 20
204.810544
 30
0.0
 40
0.9
100
AcDbArc
 50
107.657018
 51
180.0
  0
ARC
  5
3C8
100
AcDbEntity
  8
1
  6
CONTINUOUS
 62
           7
100
AcDbCircle
 10
47.977951
 20
194.084536
 30
0.0
 40
0.9
100
AcDbArc
 50
180.0
 51
252.340505
  0
ARC
  5
3C9
100
AcDbEntity
  8
1
  6
CONTINUOUS
 62
           7
100
AcDbCircle
 10
47.977951
 20
194.084536
 30
0.0
 40
1.2
100
AcDbArc
 50
180.0
 51
252.340505
  0
LINE
  5
3CA
100
AcDbEntity
  8
1
  6
CONTINUOUS
 62
           7
100
AcDbLine
 10
46.777951
 20
194.084536
 30
0.0
 11
46.777951
 21
204.810544
 31
0.0
  0
LINE
  5
3CB
100
AcDbEntity
  8
1
  6
CONTINUOUS
 62
           7
100
AcDbLine
 10
47.077951
 20
204.810544
 30
0.0
 11
47.077951
 21
194.084536
 31
0.0
  0
LINE
  5
3CC
100
AcDbEntity
  8
1
  6
CONTINUOUS
 62
           7
100
AcDbLine
 10
48.354985
 20
204.447837
 30
0.0
 11
49.454985
 21
204.447837
 31
0.0
  0
LINE
  5
3CD
100
AcDbEntity
  8
1
  6
CONTINUOUS
 62
           7
100
AcDbLine
 10
49.654985
 20
204.247837
 30
0.0
 11
49.654985
 21
194.647837
 31
0.0
  0
LINE
  5
3CE
100
AcDbEntity
  8
1
  6
CONTINUOUS
 62
           7
100
AcDbLine
 10
49.454985
 20
194.447837
 30
0.0
 11
48.354985
 21
194.447837
 31
0.0
  0
ARC
  5
3CF
100
AcDbEntity
  8
1
  6
CONTINUOUS
 62
           7
100
AcDbCircle
 10
49.454985
 20
194.647837
 30
0.0
 40
0.2
100
AcDbArc
 50
270.0
 51
0.0
  0
ARC
  5
3D0
100
AcDbEntity
  8
1
  6
CONTINUOUS
 62
           7
100
AcDbCircle
 10
49.454985
 20
204.247837
 30
0.0
 40
0.2
100
AcDbArc
 50
0.0
 51
90.0
  0
ARC
  5
3D1
100
AcDbEntity
  8
1
  6
CONTINUOUS
 62
           7
100
AcDbCircle
 10
48.354985
 20
194.647837
 30
0.0
 40
0.2
100
AcDbArc
 50
180.0
 51
270.0
  0
ARC
  5
3D2
100
AcDbEntity
  8
1
  6
CONTINUOUS
 62
           7
100
AcDbCircle
 10
48.354985
 20
204.247837
 30
0.0
 40
0.2
100
AcDbArc
 50
90.0
 51
180.0
  0
LINE
  5
3D3
100
AcDbEntity
  8
1
  6
CONTINUOUS
 62
           7
100
AcDbLine
 10
48.154985
 20
194.647837
 30
0.0
 11
48.154985
 21
204.247837
 31
0.0
  0
LINE
  5
3D4
100
AcDbEntity
  8
1
  6
CONTINUOUS
 62
           7
100
AcDbLine
 10
52.90515
 20
211.647858
 30
0.0
 11
52.90515
 21
187.247468
 31
0.0
  0
LINE
  5
3D5
100
AcDbEntity
  8
1
  6
CONTINUOUS
 62
           7
100
AcDbLine
 10
52.90515
 20
187.247468
 30
0.0
 11
52.90515
 21
186.747468
 31
0.0
  0
ARC
  5
3D6
100
AcDbEntity
  8
1
  6
CONTINUOUS
 62
           7
100
AcDbCircle
 10
52.70515
 20
186.747468
 30
0.0
 40
0.2
100
AcDbArc
 50
270.0
 51
0.0
  0
LINE
  5
3D7
100
AcDbEntity
  8
1
  6
CONTINUOUS
 62
           7
100
AcDbLine
 10
45.10515
 20
212.347858
 30
0.0
 11
52.70515
 21
212.347858
 31
0.0
  0
LINE
  5
3D8
100
AcDbEntity
  8
1
  6
CONTINUOUS
 62
           7
100
AcDbLine
 10
45.10515
 20
186.547468
 30
0.0
 11
52.70515
 21
186.547468
 31
0.0
  0
LINE
  5
3D9
100
AcDbEntity
  8
1
  6
CONTINUOUS
 62
           7
100
AcDbLine
 10
44.90515
 20
187.247468
 30
0.0
 11
44.90515
 21
211.647858
 31
0.0
  0
ARC
  5
3DA
100
AcDbEntity
  8
1
  6
CONTINUOUS
 62
           7
100
AcDbCircle
 10
45.10515
 20
186.747468
 30
0.0
 40
0.2
100
AcDbArc
 50
180.0
 51
270.0
  0
LINE
  5
3DB
100
AcDbEntity
  8
1
  6
CONTINUOUS
 62
           7
100
AcDbLine
 10
44.90515
 20
186.747468
 30
0.0
 11
44.90515
 21
187.247468
 31
0.0
  0
LINE
  5
3DC
100
AcDbEntity
  8
1
  6
CONTINUOUS
 62
           7
100
AcDbLine
 10
52.90515
 20
212.147858
 30
0.0
 11
52.90515
 21
211.647858
 31
0.0
  0
ARC
  5
3DD
100
AcDbEntity
  8
1
  6
CONTINUOUS
 62
           7
100
AcDbCircle
 10
52.70515
 20
212.147858
 30
0.0
 40
0.2
100
AcDbArc
 50
0.0
 51
90.0
  0
LINE
  5
3DE
100
AcDbEntity
  8
1
  6
CONTINUOUS
 62
           7
100
AcDbLine
 10
44.90515
 20
211.647858
 30
0.0
 11
44.90515
 21
212.147858
 31
0.0
  0
ARC
  5
3DF
100
AcDbEntity
  8
1
  6
CONTINUOUS
 62
           7
100
AcDbCircle
 10
45.10515
 20
212.147858
 30
0.0
 40
0.2
100
AcDbArc
 50
90.0
 51
180.0
  0
POLYLINE
  5
3E0
100
AcDbEntity
  8
1
  6
DOT
 62
           9
100
AcDb2dPolyline
 66
           1
 10
0.0
 20
0.0
 30
0.0
  0
VERTEX
  5
3E1
100
AcDbEntity
  8
1
  6
DOT
 62
           9
100
AcDbVertex
100
AcDb2dVertex
 10
45.10515
 20
189.624332
 30
0.0
  0
VERTEX
  5
3E2
100
AcDbEntity
  8
1
  6
DOT
 62
           9
100
AcDbVertex
100
AcDb2dVertex
 10
45.00233
 20
189.652786
 30
0.0
  0
VERTEX
  5
3E3
100
AcDbEntity
  8
1
  6
DOT
 62
           9
100
AcDbVertex
100
AcDb2dVertex
 10
44.928766
 20
189.730053
 30
0.0
  0
VERTEX
  5
3E4
100
AcDbEntity
  8
1
  6
DOT
 62
           9
100
AcDbVertex
100
AcDb2dVertex
 10
44.90515
 20
189.824332
 30
0.0
  0
SEQEND
  5
3E5
100
AcDbEntity
  8
1
  6
DOT
 62
           9
  0
POLYLINE
  5
3E6
100
AcDbEntity
  8
1
  6
DOT
 62
           9
100
AcDb2dPolyline
 66
           1
 10
0.0
 20
0.0
 30
0.0
  0
VERTEX
  5
3E7
100
AcDbEntity
  8
1
  6
DOT
 62
           9
100
AcDbVertex
100
AcDb2dVertex
 10
45.10515
 20
209.270994
 30
0.0
  0
VERTEX
  5
3E8
100
AcDbEntity
  8
1
  6
DOT
 62
           9
100
AcDbVertex
100
AcDb2dVertex
 10
45.00233
 20
209.242539
 30
0.0
  0
VERTEX
  5
3E9
100
AcDbEntity
  8
1
  6
DOT
 62
           9
100
AcDbVertex
100
AcDb2dVertex
 10
44.928766
 20
209.165273
 30
0.0
  0
VERTEX
  5
3EA
100
AcDbEntity
  8
1
  6
DOT
 62
           9
100
AcDbVertex
100
AcDb2dVertex
 10
44.90515
 20
209.070994
 30
0.0
  0
SEQEND
  5
3EB
100
AcDbEntity
  8
1
  6
DOT
 62
           9
  0
POLYLINE
  5
3EC
100
AcDbEntity
  8
1
  6
DOT
 62
           9
100
AcDb2dPolyline
 66
           1
 10
0.0
 20
0.0
 30
0.0
  0
VERTEX
  5
3ED
100
AcDbEntity
  8
1
  6
DOT
 62
           9
100
AcDbVertex
100
AcDb2dVertex
 10
52.70515
 20
189.624332
 30
0.0
  0
VERTEX
  5
3EE
100
AcDbEntity
  8
1
  6
DOT
 62
           9
100
AcDbVertex
100
AcDb2dVertex
 10
52.807971
 20
189.652786
 30
0.0
  0
VERTEX
  5
3EF
100
AcDbEntity
  8
1
  6
DOT
 62
           9
100
AcDbVertex
100
AcDb2dVertex
 10
52.881535
 20
189.730053
 30
0.0
  0
VERTEX
  5
3F0
100
AcDbEntity
  8
1
  6
DOT
 62
           9
100
AcDbVertex
100
AcDb2dVertex
 10
52.90515
 20
189.824332
 30
0.0
  0
SEQEND
  5
3F1
100
AcDbEntity
  8
1
  6
DOT
 62
           9
  0
POLYLINE
  5
3F2
100
AcDbEntity
  8
1
  6
DOT
 62
           9
100
AcDb2dPolyline
 66
           1
 10
0.0
 20
0.0
 30
0.0
  0
VERTEX
  5
3F3
100
AcDbEntity
  8
1
  6
DOT
 62
           9
100
AcDbVertex
100
AcDb2dVertex
 10
52.90515
 20
209.070994
 30
0.0
  0
VERTEX
  5
3F4
100
AcDbEntity
  8
1
  6
DOT
 62
           9
100
AcDbVertex
100
AcDb2dVertex
 10
52.876696
 20
209.173814
 30
0.0
  0
VERTEX
  5
3F5
100
AcDbEntity
  8
1
  6
DOT
 62
           9
100
AcDbVertex
100
AcDb2dVertex
 10
52.79943
 20
209.247378
 30
0.0
  0
VERTEX
  5
3F6
100
AcDbEntity
  8
1
  6
DOT
 62
           9
100
AcDbVertex
100
AcDb2dVertex
 10
52.70515
 20
209.270994
 30
0.0
  0
SEQEND
  5
3F7
100
AcDbEntity
  8
1
  6
DOT
 62
           9
  0
LINE
  5
3F8
100
AcDbEntity
  8
1
  6
DOT
 62
           9
100
AcDbLine
 10
51.90515
 20
189.624332
 30
0.0
 11
51.90515
 21
188.32
 31
0.0
  0
LINE
  5
3F9
100
AcDbEntity
  8
1
  6
DOT
 62
           9
100
AcDbLine
 10
45.90515
 20
188.32
 30
0.0
 11
51.90515
 21
188.32
 31
0.0
  0
LINE
  5
3FA
100
AcDbEntity
  8
1
  6
DOT
 62
           9
100
AcDbLine
 10
45.90515
 20
189.624332
 30
0.0
 11
45.90515
 21
188.32
 31
0.0
  0
LINE
  5
3FB
100
AcDbEntity
  8
1
  6
DOT
 62
           9
100
AcDbLine
 10
45.10515
 20
209.270994
 30
0.0
 11
52.70515
 21
209.270994
 31
0.0
  0
LINE
  5
3FC
100
AcDbEntity
  8
1
  6
DOT
 62
           9
100
AcDbLine
 10
45.10515
 20
189.624332
 30
0.0
 11
45.90515
 21
189.624332
 31
0.0
  0
LINE
  5
3FD
100
AcDbEntity
  8
1
  6
DOT
 62
           9
100
AcDbLine
 10
51.90515
 20
189.624332
 30
0.0
 11
52.70515
 21
189.624332
 31
0.0
  0
LINE
  5
3FE
100
AcDbEntity
  8
1
  6
DOT
 62
           9
100
AcDbLine
 10
45.90515
 20
187.885219
 30
0.0
 11
51.90515
 21
187.885219
 31
0.0
  0
LINE
  5
3FF
100
AcDbEntity
  8
1
  6
DOT
 62
           9
100
AcDbLine
 10
45.90515
 20
188.32
 30
0.0
 11
45.90515
 21
187.885219
 31
0.0
  0
LINE
  5
400
100
AcDbEntity
  8
1
  6
DOT
 62
           9
100
AcDbLine
 10
51.90515
 20
188.32
 30
0.0
 11
51.90515
 21
187.885219
 31
0.0
  0
LINE
  5
401
100
AcDbEntity
  8
1
  6
DOT
 62
           9
100
AcDbLine
 10
45.90515
 20
187.909681
 30
0.0
 11
51.90515
 21
187.909681
 31
0.0
  0
LINE
  5
402
100
AcDbEntity
  8
1
  6
DOT
 62
           9
100
AcDbLine
 10
45.90515
 20
188.310351
 30
0.0
 11
51.90515
 21
188.310351
 31
0.0
  0
LINE
  5
403
100
AcDbEntity
  8
1
  6
DOT
 62
           9
100
AcDbLine
 10
45.90515
 20
187.917604
 30
0.0
 11
51.90515
 21
187.917604
 31
0.0
  0
LINE
  5
404
100
AcDbEntity
  8
1
  6
DOT
 62
           9
100
AcDbLine
 10
45.90515
 20
188.323789
 30
0.0
 11
51.90515
 21
188.323789
 31
0.0
  0
LINE
  5
405
100
AcDbEntity
  8
1
  6
DOT
 62
           9
100
AcDbLine
 10
45.90515
 20
187.905204
 30
0.0
 11
51.90515
 21
187.905204
 31
0.0
  0
LINE
  5
406
100
AcDbEntity
  8
1
  6
DOT
 62
           9
100
AcDbLine
 10
45.90515
 20
188.321033
 30
0.0
 11
51.90515
 21
188.321033
 31
0.0
  0
LINE
  5
407
100
AcDbEntity
  8
1
  6
DOT
 62
           9
100
AcDbLine
 10
45.90515
 20
187.885219
 30
0.0
 11
45.90515
 21
187.624667
 31
0.0
  0
LINE
  5
408
100
AcDbEntity
  8
1
  6
DOT
 62
           9
100
AcDbLine
 10
51.90515
 20
187.885219
 30
0.0
 11
51.90515
 21
187.624667
 31
0.0
  0
LINE
  5
409
100
AcDbEntity
  8
1
  6
DOT
 62
           9
100
AcDbLine
 10
45.90515
 20
187.624667
 30
0.0
 11
45.90515
 21
187.536825
 31
0.0
  0
LINE
  5
40A
100
AcDbEntity
  8
1
  6
DOT
 62
           9
100
AcDbLine
 10
51.90515
 20
187.624667
 30
0.0
 11
51.90515
 21
187.536825
 31
0.0
  0
LINE
  5
40B
100
AcDbEntity
  8
1
  6
DOT
 62
           9
100
AcDbLine
 10
45.90515
 20
187.843534
 30
0.0
 11
51.90515
 21
187.843534
 31
0.0
  0
LINE
  5
40C
100
AcDbEntity
  8
1
  6
DOT
 62
           9
100
AcDbLine
 10
45.90515
 20
189.624332
 30
0.0
 11
51.90515
 21
189.624332
 31
0.0
  0
POLYLINE
  5
40D
100
AcDbEntity
  8
1
  6
DOT
 62
           9
100
AcDb2dPolyline
 66
           1
 10
0.0
 20
0.0
 30
0.0
  0
VERTEX
  5
40E
100
AcDbEntity
  8
1
  6
DOT
 62
           9
100
AcDbVertex
100
AcDb2dVertex
 10
44.90515
 20
188.747722
 30
0.0
  0
VERTEX
  5
40F
100
AcDbEntity
  8
1
  6
DOT
 62
           9
100
AcDbVertex
100
AcDb2dVertex
 10
44.933605
 20
188.644901
 30
0.0
  0
VERTEX
  5
410
100
AcDbEntity
  8
1
  6
DOT
 62
           9
100
AcDbVertex
100
AcDb2dVertex
 10
45.010871
 20
188.571337
 30
0.0
  0
VERTEX
  5
411
100
AcDbEntity
  8
1
  6
DOT
 62
           9
100
AcDbVertex
100
AcDb2dVertex
 10
45.10515
 20
188.547722
 30
0.0
  0
SEQEND
  5
412
100
AcDbEntity
  8
1
  6
DOT
 62
           9
  0
POLYLINE
  5
413
100
AcDbEntity
  8
1
  6
DOT
 62
           9
100
AcDb2dPolyline
 66
           1
 10
0.0
 20
0.0
 30
0.0
  0
VERTEX
  5
414
100
AcDbEntity
  8
1
  6
DOT
 62
           9
100
AcDbVertex
100
AcDb2dVertex
 10
45.10515
 20
210.34795
 30
0.0
  0
VERTEX
  5
415
100
AcDbEntity
  8
1
  6
DOT
 62
           9
100
AcDbVertex
100
AcDb2dVertex
 10
45.00233
 20
210.319495
 30
0.0
  0
VERTEX
  5
416
100
AcDbEntity
  8
1
  6
DOT
 62
           9
100
AcDbVertex
100
AcDb2dVertex
 10
44.928766
 20
210.242229
 30
0.0
  0
VERTEX
  5
417
100
AcDbEntity
  8
1
  6
DOT
 62
           9
100
AcDbVertex
100
AcDb2dVertex
 10
44.90515
 20
210.14795
 30
0.0
  0
SEQEND
  5
418
100
AcDbEntity
  8
1
  6
DOT
 62
           9
  0
POLYLINE
  5
419
100
AcDbEntity
  8
1
  6
DOT
 62
           9
100
AcDb2dPolyline
 66
           1
 10
0.0
 20
0.0
 30
0.0
  0
VERTEX
  5
41A
100
AcDbEntity
  8
1
  6
DOT
 62
           9
100
AcDbVertex
100
AcDb2dVertex
 10
52.70515
 20
188.547722
 30
0.0
  0
VERTEX
  5
41B
100
AcDbEntity
  8
1
  6
DOT
 62
           9
100
AcDbVertex
100
AcDb2dVertex
 10
52.807971
 20
188.576176
 30
0.0
  0
VERTEX
  5
41C
100
AcDbEntity
  8
1
  6
DOT
 62
           9
100
AcDbVertex
100
AcDb2dVertex
 10
52.881535
 20
188.653442
 30
0.0
  0
VERTEX
  5
41D
100
AcDbEntity
  8
1
  6
DOT
 62
           9
100
AcDbVertex
100
AcDb2dVertex
 10
52.90515
 20
188.747722
 30
0.0
  0
SEQEND
  5
41E
100
AcDbEntity
  8
1
  6
DOT
 62
           9
  0
LINE
  5
41F
100
AcDbEntity
  8
1
  6
DOT
 62
           9
100
AcDbLine
 10
45.10515
 20
188.547722
 30
0.0
 11
52.70515
 21
188.547722
 31
0.0
  0
POLYLINE
  5
420
100
AcDbEntity
  8
1
  6
DOT
 62
           9
100
AcDb2dPolyline
 66
           1
 10
0.0
 20
0.0
 30
0.0
  0
VERTEX
  5
421
100
AcDbEntity
  8
1
  6
DOT
 62
           9
100
AcDbVertex
100
AcDb2dVertex
 10
52.90515
 20
210.14795
 30
0.0
  0
VERTEX
  5
422
100
AcDbEntity
  8
1
  6
DOT
 62
           9
100
AcDbVertex
100
AcDb2dVertex
 10
52.876696
 20
210.25077
 30
0.0
  0
VERTEX
  5
423
100
AcDbEntity
  8
1
  6
DOT
 62
           9
100
AcDbVertex
100
AcDb2dVertex
 10
52.79943
 20
210.324334
 30
0.0
  0
VERTEX
  5
424
100
AcDbEntity
  8
1
  6
DOT
 62
           9
100
AcDbVertex
100
AcDb2dVertex
 10
52.70515
 20
210.34795
 30
0.0
  0
SEQEND
  5
425
100
AcDbEntity
  8
1
  6
DOT
 62
           9
  0
LINE
  5
426
100
AcDbEntity
  8
1
  6
DOT
 62
           9
100
AcDbLine
 10
45.10515
 20
210.34795
 30
0.0
 11
52.70515
 21
210.34795
 31
0.0
  0
POLYLINE
  5
427
100
AcDbEntity
  8
1
  6
DOT
 62
           9
100
AcDb2dPolyline
 66
           1
 10
0.0
 20
0.0
 30
0.0
  0
VERTEX
  5
428
100
AcDbEntity
  8
1
  6
DOT
 62
           9
100
AcDbVertex
100
AcDb2dVertex
 10
52.876634
 20
201.009085
 30
0.0
  0
VERTEX
  5
429
100
AcDbEntity
  8
1
  6
DOT
 62
           9
100
AcDbVertex
100
AcDb2dVertex
 10
52.835646
 20
201.853651
 30
0.0
  0
VERTEX
  5
42A
100
AcDbEntity
  8
1
  6
DOT
 62
           9
100
AcDbVertex
100
AcDb2dVertex
 10
52.777887
 20
202.64263
 30
0.0
  0
VERTEX
  5
42B
100
AcDbEntity
  8
1
  6
DOT
 62
           9
100
AcDbVertex
100
AcDb2dVertex
 10
52.70515
 20
203.355628
 30
0.0
  0
SEQEND
  5
42C
100
AcDbEntity
  8
1
  6
DOT
 62
           9
  0
POLYLINE
  5
42D
100
AcDbEntity
  8
1
  6
DOT
 62
           9
100
AcDb2dPolyline
 66
           1
 10
0.0
 20
0.0
 30
0.0
  0
VERTEX
  5
42E
100
AcDbEntity
  8
1
  6
DOT
 62
           9
100
AcDbVertex
100
AcDb2dVertex
 10
52.70515
 20
195.540044
 30
0.0
  0
VERTEX
  5
42F
100
AcDbEntity
  8
1
  6
DOT
 62
           9
100
AcDbVertex
100
AcDb2dVertex
 10
52.778117
 20
196.255683
 30
0.0
  0
VERTEX
  5
430
100
AcDbEntity
  8
1
  6
DOT
 62
           9
100
AcDbVertex
100
AcDb2dVertex
 10
52.835854
 20
197.045462
 30
0.0
  0
VERTEX
  5
431
100
AcDbEntity
  8
1
  6
DOT
 62
           9
100
AcDbVertex
100
AcDb2dVertex
 10
52.876634
 20
197.886586
 30
0.0
  0
SEQEND
  5
432
100
AcDbEntity
  8
1
  6
DOT
 62
           9
  0
POLYLINE
  5
433
100
AcDbEntity
  8
1
  6
DOT
 62
           9
100
AcDb2dPolyline
 66
           1
 10
0.0
 20
0.0
 30
0.0
  0
VERTEX
  5
434
100
AcDbEntity
  8
1
  6
DOT
 62
           9
100
AcDbVertex
100
AcDb2dVertex
 10
44.933667
 20
197.886586
 30
0.0
  0
VERTEX
  5
435
100
AcDbEntity
  8
1
  6
DOT
 62
           9
100
AcDbVertex
100
AcDb2dVertex
 10
44.974655
 20
197.042021
 30
0.0
  0
VERTEX
  5
436
100
AcDbEntity
  8
1
  6
DOT
 62
           9
100
AcDbVertex
100
AcDb2dVertex
 10
45.032414
 20
196.253041
 30
0.0
  0
VERTEX
  5
437
100
AcDbEntity
  8
1
  6
DOT
 62
           9
100
AcDbVertex
100
AcDb2dVertex
 10
45.10515
 20
195.540044
 30
0.0
  0
SEQEND
  5
438
100
AcDbEntity
  8
1
  6
DOT
 62
           9
  0
POLYLINE
  5
439
100
AcDbEntity
  8
1
  6
DOT
 62
           9
100
AcDb2dPolyline
 66
           1
 10
0.0
 20
0.0
 30
0.0
  0
VERTEX
  5
43A
100
AcDbEntity
  8
1
  6
DOT
 62
           9
100
AcDbVertex
100
AcDb2dVertex
 10
45.10515
 20
203.355628
 30
0.0
  0
VERTEX
  5
43B
100
AcDbEntity
  8
1
  6
DOT
 62
           9
100
AcDbVertex
100
AcDb2dVertex
 10
45.032184
 20
202.639989
 30
0.0
  0
VERTEX
  5
43C
100
AcDbEntity
  8
1
  6
DOT
 62
           9
100
AcDbVertex
100
AcDb2dVertex
 10
44.974447
 20
201.850209
 30
0.0
  0
VERTEX
  5
43D
100
AcDbEntity
  8
1
  6
DOT
 62
           9
100
AcDbVertex
100
AcDb2dVertex
 10
44.933667
 20
201.009085
 30
0.0
  0
SEQEND
  5
43E
100
AcDbEntity
  8
1
  6
DOT
 62
           9
  0
LINE
  5
43F
100
AcDbEntity
  8
1
  6
DOT
 62
           9
100
AcDbLine
 10
52.758058
 20
198.104387
 30
0.0
 11
52.876634
 21
197.886586
 31
0.0
  0
LINE
  5
440
100
AcDbEntity
  8
1
  6
DOT
 62
           9
100
AcDbLine
 10
44.933667
 20
201.009085
 30
0.0
 11
45.052243
 21
200.791284
 31
0.0
  0
LINE
  5
441
100
AcDbEntity
  8
1
  6
DOT
 62
           9
100
AcDbLine
 10
44.933667
 20
197.886586
 30
0.0
 11
45.052243
 21
198.104387
 31
0.0
  0
LINE
  5
442
100
AcDbEntity
  8
1
  6
DOT
 62
           9
100
AcDbLine
 10
52.876634
 20
201.009085
 30
0.0
 11
52.758058
 21
200.791284
 31
0.0
  0
LINE
  5
443
100
AcDbEntity
  8
1
  6
DOT
 62
           9
100
AcDbLine
 10
45.919317
 20
196.120676
 30
0.0
 11
45.10515
 21
195.540044
 31
0.0
  0
LINE
  5
444
100
AcDbEntity
  8
1
  6
DOT
 62
           9
100
AcDbLine
 10
51.890984
 20
196.120676
 30
0.0
 11
52.70515
 21
195.540044
 31
0.0
  0
ARC
  5
445
100
AcDbEntity
  8
1
  6
DOT
 62
           9
100
AcDbCircle
 10
48.90515
 20
200.95083
 30
0.0
 40
4.497005
100
AcDbArc
 50
32.32733
 51
147.67267
  0
LINE
  5
446
100
AcDbEntity
  8
1
  6
DOT
 62
           9
100
AcDbLine
 10
52.70515
 20
203.355628
 30
0.0
 11
51.890984
 21
202.774996
 31
0.0
  0
LINE
  5
447
100
AcDbEntity
  8
1
  6
DOT
 62
           9
100
AcDbLine
 10
45.10515
 20
203.355628
 30
0.0
 11
45.919317
 21
202.774996
 31
0.0
  0
ARC
  5
448
100
AcDbEntity
  8
1
  6
DOT
 62
           9
100
AcDbCircle
 10
48.90515
 20
197.944842
 30
0.0
 40
4.497005
100
AcDbArc
 50
212.32733
 51
327.67267
  0
ARC
  5
449
100
AcDbEntity
  8
1
  6
DOT
 62
           9
100
AcDbCircle
 10
48.90515
 20
200.946724
 30
0.0
 40
3.501111
100
AcDbArc
 50
31.479765
 51
148.520235
  0
ARC
  5
44A
100
AcDbEntity
  8
1
  6
DOT
 62
           9
100
AcDbCircle
 10
48.791444
 20
198.151894
 30
0.0
 40
3.705806
100
AcDbArc
 50
271.75954
 51
326.762011
  0
ARC
  5
44B
100
AcDbEntity
  8
1
  6
DOT
 62
           9
100
AcDbCircle
 10
49.004645
 20
198.126538
 30
0.0
 40
3.680046
100
AcDbArc
 50
213.029077
 51
268.452003
  0
ARC
  5
44C
100
AcDbEntity
  8
1
  6
DOT
 62
           9
100
AcDbCircle
 10
47.433629
 20
199.645348
 30
0.0
 40
5.446348
100
AcDbArc
 50
12.146057
 51
35.073881
  0
ARC
  5
44D
100
AcDbEntity
  8
1
  6
DOT
 62
           9
100
AcDbCircle
 10
50.376672
 20
199.250323
 30
0.0
 40
5.446348
100
AcDbArc
 50
192.146057
 51
215.073881
  0
ARC
  5
44E
100
AcDbEntity
  8
1
  6
DOT
 62
           9
100
AcDbCircle
 10
50.378185
 20
199.644687
 30
0.0
 40
5.447967
100
AcDbArc
 50
144.929571
 51
167.850491
  0
ARC
  5
44F
100
AcDbEntity
  8
1
  6
DOT
 62
           9
100
AcDbCircle
 10
47.432116
 20
199.250984
 30
0.0
 40
5.447967
100
AcDbArc
 50
324.929571
 51
347.850491
  0
ARC
  5
450
100
AcDbEntity
  8
1
  6
DOT
 62
           9
100
AcDbCircle
 10
46.734794
 20
199.452026
 30
0.0
 40
6.170358
100
AcDbArc
 50
359.961088
 51
12.535653
  0
ARC
  5
451
100
AcDbEntity
  8
1
  6
DOT
 62
           9
100
AcDbCircle
 10
51.075507
 20
199.443645
 30
0.0
 40
6.170358
100
AcDbArc
 50
179.961088
 51
192.535653
  0
ARC
  5
452
100
AcDbEntity
  8
1
  6
DOT
 62
           9
100
AcDbCircle
 10
51.077339
 20
199.451826
 30
0.0
 40
6.17219
100
AcDbArc
 50
167.466221
 51
180.037038
  0
ARC
  5
453
100
AcDbEntity
  8
1
  6
DOT
 62
           9
100
AcDbCircle
 10
46.732962
 20
199.443846
 30
0.0
 40
6.17219
100
AcDbArc
 50
347.466221
 51
0.037038
  0
CIRCLE
  5
454
100
AcDbEntity
  8
1
  6
DOT
 62
           9
100
AcDbCircle
 10
48.90515
 20
199.447836
 30
0.0
 40
2.2
  0
POLYLINE
  5
455
100
AcDbEntity
  8
1
  6
CONTINUOUS
 62
           7
100
AcDb2dPolyline
 66
           1
 10
0.0
 20
0.0
 30
0.0
  0
VERTEX
  5
456
100
AcDbEntity
  8
1
  6
CONTINUOUS
 62
           7
100
AcDbVertex
100
AcDb2dVertex
 10
43.810421
 20
202.404816
 30
0.0
  0
VERTEX
  5
457
100
AcDbEntity
  8
1
  6
CONTINUOUS
 62
           7
100
AcDbVertex
100
AcDb2dVertex
 10
43.708739
 20
202.412538
 30
0.0
  0
VERTEX
  5
458
100
AcDbEntity
  8
1
  6
CONTINUOUS
 62
           7
100
AcDbVertex
100
AcDb2dVertex
 10
43.66574
 20
202.371631
 30
0.0
  0
SEQEND
  5
459
100
AcDbEntity
  8
1
  6
CONTINUOUS
 62
           7
  0
LINE
  5
45A
100
AcDbEntity
  8
1
  6
CONTINUOUS
 62
           7
100
AcDbLine
 10
44.049432
 20
202.237459
 30
0.0
 11
43.810421
 21
202.404816
 31
0.0
  0
ARC
  5
45B
100
AcDbEntity
  8
1
  6
CONTINUOUS
 62
           7
100
AcDbCircle
 10
48.90515
 20
199.447836
 30
0.0
 40
5.6
100
AcDbArc
 50
139.877484
 51
150.122516
  0
LINE
  5
45C
100
AcDbEntity
  8
1
  6
CONTINUOUS
 62
           7
100
AcDbLine
 10
44.383998
 20
203.223968
 30
0.0
 11
44.623008
 21
203.056611
 31
0.0
  0
POLYLINE
  5
45D
100
AcDbEntity
  8
1
  6
CONTINUOUS
 62
           7
100
AcDb2dPolyline
 66
           1
 10
0.0
 20
0.0
 30
0.0
  0
VERTEX
  5
45E
100
AcDbEntity
  8
1
  6
CONTINUOUS
 62
           7
100
AcDbVertex
100
AcDb2dVertex
 10
44.365698
 20
203.371274
 30
0.0
  0
VERTEX
  5
45F
100
AcDbEntity
  8
1
  6
CONTINUOUS
 62
           7
100
AcDbVertex
100
AcDb2dVertex
 10
44.347489
 20
203.271402
 30
0.0
  0
VERTEX
  5
460
100
AcDbEntity
  8
1
  6
CONTINUOUS
 62
           7
100
AcDbVertex
100
AcDb2dVertex
 10
44.383998
 20
203.223968
 30
0.0
  0
SEQEND
  5
461
100
AcDbEntity
  8
1
  6
CONTINUOUS
 62
           7
  0
ARC
  5
462
100
AcDbEntity
  8
1
  6
CONTINUOUS
 62
           7
100
AcDbCircle
 10
48.90515
 20
199.447836
 30
0.0
 40
6.0
100
AcDbArc
 50
131.810315
 51
139.16322
  0
ARC
  5
463
100
AcDbEntity
  8
1
  6
DOT
 62
           9
100
AcDbCircle
 10
48.90515
 20
199.447836
 30
0.0
 40
6.0
100
AcDbArc
 50
130.83678
 51
131.810315
  0
POLYLINE
  5
464
100
AcDbEntity
  8
1
  6
DOT
 62
           9
100
AcDb2dPolyline
 66
           1
 10
0.0
 20
0.0
 30
0.0
  0
VERTEX
  5
465
100
AcDbEntity
  8
1
  6
DOT
 62
           9
100
AcDbVertex
100
AcDb2dVertex
 10
45.129018
 20
203.968988
 30
0.0
  0
VERTEX
  5
466
100
AcDbEntity
  8
1
  6
DOT
 62
           9
100
AcDbVertex
100
AcDb2dVertex
 10
45.036109
 20
204.011022
 30
0.0
  0
VERTEX
  5
467
100
AcDbEntity
  8
1
  6
DOT
 62
           9
100
AcDbVertex
100
AcDb2dVertex
 10
44.981712
 20
203.987288
 30
0.0
  0
SEQEND
  5
468
100
AcDbEntity
  8
1
  6
DOT
 62
           9
  0
LINE
  5
469
100
AcDbEntity
  8
1
  6
DOT
 62
           9
100
AcDbLine
 10
45.296375
 20
203.729978
 30
0.0
 11
45.129018
 21
203.968988
 31
0.0
  0
LINE
  5
46A
100
AcDbEntity
  8
1
  6
DOT
 62
           9
100
AcDbLine
 10
45.94817
 20
204.542565
 30
0.0
 11
46.115527
 21
204.303554
 31
0.0
  0
POLYLINE
  5
46B
100
AcDbEntity
  8
1
  6
DOT
 62
           9
100
AcDb2dPolyline
 66
           1
 10
0.0
 20
0.0
 30
0.0
  0
VERTEX
  5
46C
100
AcDbEntity
  8
1
  6
DOT
 62
           9
100
AcDbVertex
100
AcDb2dVertex
 10
45.981355
 20
204.687246
 30
0.0
  0
VERTEX
  5
46D
100
AcDbEntity
  8
1
  6
DOT
 62
           9
100
AcDbVertex
100
AcDb2dVertex
 10
45.930087
 20
204.599624
 30
0.0
  0
VERTEX
  5
46E
100
AcDbEntity
  8
1
  6
DOT
 62
           9
100
AcDbVertex
100
AcDb2dVertex
 10
45.94817
 20
204.542565
 30
0.0
  0
SEQEND
  5
46F
100
AcDbEntity
  8
1
  6
DOT
 62
           9
  0
ARC
  5
470
100
AcDbEntity
  8
1
  6
DOT
 62
           9
100
AcDbCircle
 10
48.90515
 20
199.447836
 30
0.0
 40
6.0
100
AcDbArc
 50
110.478234
 51
119.16322
  0
ARC
  5
471
100
AcDbEntity
  8
1
  6
DOT
 62
           9
100
AcDbCircle
 10
48.90515
 20
199.447836
 30
0.0
 40
6.0
100
AcDbArc
 50
108.273863
 51
110.478234
  0
LINE
  5
472
100
AcDbEntity
  8
1
  6
DOT
 62
           9
100
AcDbLine
 10
47.15515
 20
205.05029
 30
0.0
 11
47.131364
 21
205.115032
 31
0.0
  0
POLYLINE
  5
473
100
AcDbEntity
  8
1
  6
DOT
 62
           9
100
AcDb2dPolyline
 66
           1
 10
0.0
 20
0.0
 30
0.0
  0
VERTEX
  5
474
100
AcDbEntity
  8
1
  6
DOT
 62
           9
100
AcDbVertex
100
AcDb2dVertex
 10
47.131364
 20
205.115032
 30
0.0
  0
VERTEX
  5
475
100
AcDbEntity
  8
1
  6
DOT
 62
           9
100
AcDbVertex
100
AcDb2dVertex
 10
47.035378
 20
205.148315
 30
0.0
  0
VERTEX
  5
476
100
AcDbEntity
  8
1
  6
DOT
 62
           9
100
AcDbVertex
100
AcDb2dVertex
 10
47.023795
 20
205.145247
 30
0.0
  0
SEQEND
  5
477
100
AcDbEntity
  8
1
  6
DOT
 62
           9
  0
LINE
  5
478
100
AcDbEntity
  8
1
  6
DOT
 62
           9
100
AcDbLine
 10
47.15515
 20
204.767375
 30
0.0
 11
47.15515
 21
205.05029
 31
0.0
  0
ARC
  5
479
100
AcDbEntity
  8
1
  6
DOT
 62
           9
100
AcDbCircle
 10
48.90515
 20
199.447836
 30
0.0
 40
5.6
100
AcDbArc
 50
71.790043
 51
108.209957
  0
LINE
  5
47A
100
AcDbEntity
  8
1
  6
DOT
 62
           9
100
AcDbLine
 10
50.65515
 20
205.05029
 30
0.0
 11
50.65515
 21
204.767375
 31
0.0
  0
LINE
  5
47B
100
AcDbEntity
  8
1
  6
DOT
 62
           9
100
AcDbLine
 10
50.786506
 20
205.145247
 30
0.0
 11
50.73201
 21
205.147576
 31
0.0
  0
POLYLINE
  5
47C
100
AcDbEntity
  8
1
  6
DOT
 62
           9
100
AcDb2dPolyline
 66
           1
 10
0.0
 20
0.0
 30
0.0
  0
VERTEX
  5
47D
100
AcDbEntity
  8
1
  6
DOT
 62
           9
100
AcDbVertex
100
AcDb2dVertex
 10
50.73201
 20
205.147576
 30
0.0
  0
VERTEX
  5
47E
100
AcDbEntity
  8
1
  6
DOT
 62
           9
100
AcDbVertex
100
AcDb2dVertex
 10
50.658505
 20
205.075974
 30
0.0
  0
VERTEX
  5
47F
100
AcDbEntity
  8
1
  6
DOT
 62
           9
100
AcDbVertex
100
AcDb2dVertex
 10
50.65515
 20
205.05029
 30
0.0
  0
SEQEND
  5
480
100
AcDbEntity
  8
1
  6
DOT
 62
           9
  0
ARC
  5
481
100
AcDbEntity
  8
1
  6
DOT
 62
           9
100
AcDbCircle
 10
48.90515
 20
199.447836
 30
0.0
 40
6.0
100
AcDbArc
 50
69.238508
 51
71.726137
  0
ARC
  5
482
100
AcDbEntity
  8
1
  6
DOT
 62
           9
100
AcDbCircle
 10
48.90515
 20
199.447836
 30
0.0
 40
6.0
100
AcDbArc
 50
60.83678
 51
69.238508
  0
POLYLINE
  5
483
100
AcDbEntity
  8
1
  6
DOT
 62
           9
100
AcDb2dPolyline
 66
           1
 10
0.0
 20
0.0
 30
0.0
  0
VERTEX
  5
484
100
AcDbEntity
  8
1
  6
DOT
 62
           9
100
AcDbVertex
100
AcDb2dVertex
 10
51.862131
 20
204.542565
 30
0.0
  0
VERTEX
  5
485
100
AcDbEntity
  8
1
  6
DOT
 62
           9
100
AcDbVertex
100
AcDb2dVertex
 10
51.869853
 20
204.644247
 30
0.0
  0
VERTEX
  5
486
100
AcDbEntity
  8
1
  6
DOT
 62
           9
100
AcDbVertex
100
AcDb2dVertex
 10
51.828946
 20
204.687246
 30
0.0
  0
SEQEND
  5
487
100
AcDbEntity
  8
1
  6
DOT
 62
           9
  0
LINE
  5
488
100
AcDbEntity
  8
1
  6
DOT
 62
           9
100
AcDbLine
 10
51.694774
 20
204.303554
 30
0.0
 11
51.862131
 21
204.542565
 31
0.0
  0
LINE
  5
489
100
AcDbEntity
  8
1
  6
DOT
 62
           9
100
AcDbLine
 10
52.681283
 20
203.968988
 30
0.0
 11
52.513926
 21
203.729978
 31
0.0
  0
POLYLINE
  5
48A
100
AcDbEntity
  8
1
  6
DOT
 62
           9
100
AcDb2dPolyline
 66
           1
 10
0.0
 20
0.0
 30
0.0
  0
VERTEX
  5
48B
100
AcDbEntity
  8
1
  6
DOT
 62
           9
100
AcDbVertex
100
AcDb2dVertex
 10
52.828589
 20
203.987288
 30
0.0
  0
VERTEX
  5
48C
100
AcDbEntity
  8
1
  6
DOT
 62
           9
100
AcDbVertex
100
AcDb2dVertex
 10
52.728716
 20
204.005497
 30
0.0
  0
VERTEX
  5
48D
100
AcDbEntity
  8
1
  6
DOT
 62
           9
100
AcDbVertex
100
AcDb2dVertex
 10
52.681283
 20
203.968988
 30
0.0
  0
SEQEND
  5
48E
100
AcDbEntity
  8
1
  6
DOT
 62
           9
  0
ARC
  5
48F
100
AcDbEntity
  8
1
  6
DOT
 62
           9
100
AcDbCircle
 10
48.90515
 20
199.447836
 30
0.0
 40
6.0
100
AcDbArc
 50
48.189685
 51
49.16322
  0
ARC
  5
490
100
AcDbEntity
  8
1
  6
CONTINUOUS
 62
           7
100
AcDbCircle
 10
48.90515
 20
199.447836
 30
0.0
 40
6.0
100
AcDbArc
 50
40.83678
 51
48.189685
  0
POLYLINE
  5
491
100
AcDbEntity
  8
1
  6
CONTINUOUS
 62
           7
100
AcDb2dPolyline
 66
           1
 10
0.0
 20
0.0
 30
0.0
  0
VERTEX
  5
492
100
AcDbEntity
  8
1
  6
CONTINUOUS
 62
           7
100
AcDbVertex
100
AcDb2dVertex
 10
53.426303
 20
203.223968
 30
0.0
  0
VERTEX
  5
493
100
AcDbEntity
  8
1
  6
CONTINUOUS
 62
           7
100
AcDbVertex
100
AcDb2dVertex
 10
53.468337
 20
203.316877
 30
0.0
  0
VERTEX
  5
494
100
AcDbEntity
  8
1
  6
CONTINUOUS
 62
           7
100
AcDbVertex
100
AcDb2dVertex
 10
53.444603
 20
203.371274
 30
0.0
  0
SEQEND
  5
495
100
AcDbEntity
  8
1
  6
CONTINUOUS
 62
           7
  0
LINE
  5
496
100
AcDbEntity
  8
1
  6
CONTINUOUS
 62
           7
100
AcDbLine
 10
53.187292
 20
203.056611
 30
0.0
 11
53.426303
 21
203.223968
 31
0.0
  0
ARC
  5
497
100
AcDbEntity
  8
1
  6
CONTINUOUS
 62
           7
100
AcDbCircle
 10
48.90515
 20
199.447836
 30
0.0
 40
5.6
100
AcDbArc
 50
29.877484
 51
40.122516
  0
LINE
  5
498
100
AcDbEntity
  8
1
  6
CONTINUOUS
 62
           7
100
AcDbLine
 10
53.99988
 20
202.404816
 30
0.0
 11
53.760869
 21
202.237459
 31
0.0
  0
POLYLINE
  5
499
100
AcDbEntity
  8
1
  6
CONTINUOUS
 62
           7
100
AcDb2dPolyline
 66
           1
 10
0.0
 20
0.0
 30
0.0
  0
VERTEX
  5
49A
100
AcDbEntity
  8
1
  6
CONTINUOUS
 62
           7
100
AcDbVertex
100
AcDb2dVertex
 10
54.144561
 20
202.371631
 30
0.0
  0
VERTEX
  5
49B
100
AcDbEntity
  8
1
  6
CONTINUOUS
 62
           7
100
AcDbVertex
100
AcDb2dVertex
 10
54.056939
 20
202.4229
 30
0.0
  0
VERTEX
  5
49C
100
AcDbEntity
  8
1
  6
CONTINUOUS
 62
           7
100
AcDbVertex
100
AcDb2dVertex
 10
53.99988
 20
202.404816
 30
0.0
  0
SEQEND
  5
49D
100
AcDbEntity
  8
1
  6
CONTINUOUS
 62
           7
  0
ARC
  5
49E
100
AcDbEntity
  8
1
  6
CONTINUOUS
 62
           7
100
AcDbCircle
 10
48.90515
 20
199.447836
 30
0.0
 40
6.0
100
AcDbArc
 50
18.273863
 51
29.16322
  0
POLYLINE
  5
49F
100
AcDbEntity
  8
1
  6
CONTINUOUS
 62
           7
100
AcDb2dPolyline
 66
           1
 10
0.0
 20
0.0
 30
0.0
  0
VERTEX
  5
4A0
100
AcDbEntity
  8
1
  6
CONTINUOUS
 62
           7
100
AcDbVertex
100
AcDb2dVertex
 10
54.507605
 20
201.197836
 30
0.0
  0
VERTEX
  5
4A1
100
AcDbEntity
  8
1
  6
CONTINUOUS
 62
           7
100
AcDbVertex
100
AcDb2dVertex
 10
54.595112
 20
201.24944
 30
0.0
  0
VERTEX
  5
4A2
100
AcDbEntity
  8
1
  6
CONTINUOUS
 62
           7
100
AcDbVertex
100
AcDb2dVertex
 10
54.602562
 20
201.329192
 30
0.0
  0
SEQEND
  5
4A3
100
AcDbEntity
  8
1
  6
CONTINUOUS
 62
           7
  0
LINE
  5
4A4
100
AcDbEntity
  8
1
  6
CONTINUOUS
 62
           7
100
AcDbLine
 10
54.22469
 20
201.197836
 30
0.0
 11
54.507605
 21
201.197836
 31
0.0
  0
ARC
  5
4A5
100
AcDbEntity
  8
1
  6
CONTINUOUS
 62
           7
100
AcDbCircle
 10
48.90515
 20
199.447836
 30
0.0
 40
5.6
100
AcDbArc
 50
341.790043
 51
18.209957
  0
LINE
  5
4A6
100
AcDbEntity
  8
1
  6
CONTINUOUS
 62
           7
100
AcDbLine
 10
54.507605
 20
197.697836
 30
0.0
 11
54.22469
 21
197.697836
 31
0.0
  0
POLYLINE
  5
4A7
100
AcDbEntity
  8
1
  6
CONTINUOUS
 62
           7
100
AcDb2dPolyline
 66
           1
 10
0.0
 20
0.0
 30
0.0
  0
VERTEX
  5
4A8
100
AcDbEntity
  8
1
  6
CONTINUOUS
 62
           7
100
AcDbVertex
100
AcDb2dVertex
 10
54.602562
 20
197.56648
 30
0.0
  0
VERTEX
  5
4A9
100
AcDbEntity
  8
1
  6
CONTINUOUS
 62
           7
100
AcDbVertex
100
AcDb2dVertex
 10
54.581056
 20
197.665694
 30
0.0
  0
VERTEX
  5
4AA
100
AcDbEntity
  8
1
  6
CONTINUOUS
 62
           7
100
AcDbVertex
100
AcDb2dVertex
 10
54.507605
 20
197.697836
 30
0.0
  0
SEQEND
  5
4AB
100
AcDbEntity
  8
1
  6
CONTINUOUS
 62
           7
  0
ARC
  5
4AC
100
AcDbEntity
  8
1
  6
CONTINUOUS
 62
           7
100
AcDbCircle
 10
48.90515
 20
199.447836
 30
0.0
 40
6.0
100
AcDbArc
 50
330.83678
 51
341.726137
  0
POLYLINE
  5
4AD
100
AcDbEntity
  8
1
  6
CONTINUOUS
 62
           7
100
AcDb2dPolyline
 66
           1
 10
0.0
 20
0.0
 30
0.0
  0
VERTEX
  5
4AE
100
AcDbEntity
  8
1
  6
CONTINUOUS
 62
           7
100
AcDbVertex
100
AcDb2dVertex
 10
53.99988
 20
196.490855
 30
0.0
  0
VERTEX
  5
4AF
100
AcDbEntity
  8
1
  6
CONTINUOUS
 62
           7
100
AcDbVertex
100
AcDb2dVertex
 10
54.101562
 20
196.483133
 30
0.0
  0
VERTEX
  5
4B0
100
AcDbEntity
  8
1
  6
CONTINUOUS
 62
           7
100
AcDbVertex
100
AcDb2dVertex
 10
54.144561
 20
196.52404
 30
0.0
  0
SEQEND
  5
4B1
100
AcDbEntity
  8
1
  6
CONTINUOUS
 62
           7
  0
LINE
  5
4B2
100
AcDbEntity
  8
1
  6
CONTINUOUS
 62
           7
100
AcDbLine
 10
53.760869
 20
196.658212
 30
0.0
 11
53.99988
 21
196.490855
 31
0.0
  0
ARC
  5
4B3
100
AcDbEntity
  8
1
  6
CONTINUOUS
 62
           7
100
AcDbCircle
 10
48.90515
 20
199.447836
 30
0.0
 40
5.6
100
AcDbArc
 50
319.877484
 51
330.122516
  0
LINE
  5
4B4
100
AcDbEntity
  8
1
  6
CONTINUOUS
 62
           7
100
AcDbLine
 10
53.426303
 20
195.671703
 30
0.0
 11
53.187292
 21
195.83906
 31
0.0
  0
POLYLINE
  5
4B5
100
AcDbEntity
  8
1
  6
CONTINUOUS
 62
           7
100
AcDb2dPolyline
 66
           1
 10
0.0
 20
0.0
 30
0.0
  0
VERTEX
  5
4B6
100
AcDbEntity
  8
1
  6
CONTINUOUS
 62
           7
100
AcDbVertex
100
AcDb2dVertex
 10
53.444603
 20
195.524397
 30
0.0
  0
VERTEX
  5
4B7
100
AcDbEntity
  8
1
  6
CONTINUOUS
 62
           7
100
AcDbVertex
100
AcDb2dVertex
 10
53.462811
 20
195.62427
 30
0.0
  0
VERTEX
  5
4B8
100
AcDbEntity
  8
1
  6
CONTINUOUS
 62
           7
100
AcDbVertex
100
AcDb2dVertex
 10
53.426303
 20
195.671703
 30
0.0
  0
SEQEND
  5
4B9
100
AcDbEntity
  8
1
  6
CONTINUOUS
 62
           7
  0
ARC
  5
4BA
100
AcDbEntity
  8
1
  6
CONTINUOUS
 62
           7
100
AcDbCircle
 10
48.90515
 20
199.447836
 30
0.0
 40
6.0
100
AcDbArc
 50
311.810315
 51
319.16322
  0
ARC
  5
4BB
100
AcDbEntity
  8
1
  6
DOT
 62
           9
100
AcDbCircle
 10
48.90515
 20
199.447836
 30
0.0
 40
6.0
100
AcDbArc
 50
310.83678
 51
311.810315
  0
POLYLINE
  5
4BC
100
AcDbEntity
  8
1
  6
DOT
 62
           9
100
AcDb2dPolyline
 66
           1
 10
0.0
 20
0.0
 30
0.0
  0
VERTEX
  5
4BD
100
AcDbEntity
  8
1
  6
DOT
 62
           9
100
AcDbVertex
100
AcDb2dVertex
 10
52.681283
 20
194.926683
 30
0.0
  0
VERTEX
  5
4BE
100
AcDbEntity
  8
1
  6
DOT
 62
           9
100
AcDbVertex
100
AcDb2dVertex
 10
52.774192
 20
194.884649
 30
0.0
  0
VERTEX
  5
4BF
100
AcDbEntity
  8
1
  6
DOT
 62
           9
100
AcDbVertex
100
AcDb2dVertex
 10
52.828589
 20
194.908383
 30
0.0
  0
SEQEND
  5
4C0
100
AcDbEntity
  8
1
  6
DOT
 62
           9
  0
LINE
  5
4C1
100
AcDbEntity
  8
1
  6
DOT
 62
           9
100
AcDbLine
 10
52.513926
 20
195.165694
 30
0.0
 11
52.681283
 21
194.926683
 31
0.0
  0
LINE
  5
4C2
100
AcDbEntity
  8
1
  6
DOT
 62
           9
100
AcDbLine
 10
51.862131
 20
194.353106
 30
0.0
 11
51.694774
 21
194.592117
 31
0.0
  0
POLYLINE
  5
4C3
100
AcDbEntity
  8
1
  6
DOT
 62
           9
100
AcDb2dPolyline
 66
           1
 10
0.0
 20
0.0
 30
0.0
  0
VERTEX
  5
4C4
100
AcDbEntity
  8
1
  6
DOT
 62
           9
100
AcDbVertex
100
AcDb2dVertex
 10
51.828946
 20
194.208425
 30
0.0
  0
VERTEX
  5
4C5
100
AcDbEntity
  8
1
  6
DOT
 62
           9
100
AcDbVertex
100
AcDb2dVertex
 10
51.880214
 20
194.296047
 30
0.0
  0
VERTEX
  5
4C6
100
AcDbEntity
  8
1
  6
DOT
 62
           9
100
AcDbVertex
100
AcDb2dVertex
 10
51.862131
 20
194.353106
 30
0.0
  0
SEQEND
  5
4C7
100
AcDbEntity
  8
1
  6
DOT
 62
           9
  0
ARC
  5
4C8
100
AcDbEntity
  8
1
  6
DOT
 62
           9
100
AcDbCircle
 10
48.90515
 20
199.447836
 30
0.0
 40
6.0
100
AcDbArc
 50
290.761492
 51
299.16322
  0
ARC
  5
4C9
100
AcDbEntity
  8
1
  6
DOT
 62
           9
100
AcDbCircle
 10
48.90515
 20
199.447836
 30
0.0
 40
6.0
100
AcDbArc
 50
288.273863
 51
290.761492
  0
POLYLINE
  5
4CA
100
AcDbEntity
  8
1
  6
DOT
 62
           9
100
AcDb2dPolyline
 66
           1
 10
0.0
 20
0.0
 30
0.0
  0
VERTEX
  5
4CB
100
AcDbEntity
  8
1
  6
DOT
 62
           9
100
AcDbVertex
100
AcDb2dVertex
 10
50.65515
 20
193.845381
 30
0.0
  0
VERTEX
  5
4CC
100
AcDbEntity
  8
1
  6
DOT
 62
           9
100
AcDbVertex
100
AcDb2dVertex
 10
50.706755
 20
193.757874
 30
0.0
  0
VERTEX
  5
4CD
100
AcDbEntity
  8
1
  6
DOT
 62
           9
100
AcDbVertex
100
AcDb2dVertex
 10
50.73201
 20
193.748095
 30
0.0
  0
SEQEND
  5
4CE
100
AcDbEntity
  8
1
  6
DOT
 62
           9
  0
LINE
  5
4CF
100
AcDbEntity
  8
1
  6
DOT
 62
           9
100
AcDbLine
 10
50.73201
 20
193.748095
 30
0.0
 11
50.786506
 21
193.750424
 31
0.0
  0
LINE
  5
4D0
100
AcDbEntity
  8
1
  6
DOT
 62
           9
100
AcDbLine
 10
50.65515
 20
194.128296
 30
0.0
 11
50.65515
 21
193.845381
 31
0.0
  0
ARC
  5
4D1
100
AcDbEntity
  8
1
  6
DOT
 62
           9
100
AcDbCircle
 10
48.90515
 20
199.447836
 30
0.0
 40
5.6
100
AcDbArc
 50
251.790043
 51
288.209957
  0
LINE
  5
4D2
100
AcDbEntity
  8
1
  6
DOT
 62
           9
100
AcDbLine
 10
47.15515
 20
193.845381
 30
0.0
 11
47.15515
 21
194.128296
 31
0.0
  0
POLYLINE
  5
4D3
100
AcDbEntity
  8
1
  6
DOT
 62
           9
100
AcDb2dPolyline
 66
           1
 10
0.0
 20
0.0
 30
0.0
  0
VERTEX
  5
4D4
100
AcDbEntity
  8
1
  6
DOT
 62
           9
100
AcDbVertex
100
AcDb2dVertex
 10
47.023795
 20
193.750424
 30
0.0
  0
VERTEX
  5
4D5
100
AcDbEntity
  8
1
  6
DOT
 62
           9
100
AcDbVertex
100
AcDb2dVertex
 10
47.123009
 20
193.77193
 30
0.0
  0
VERTEX
  5
4D6
100
AcDbEntity
  8
1
  6
DOT
 62
           9
100
AcDbVertex
100
AcDb2dVertex
 10
47.131208
 20
193.780456
 30
0.0
  0
SEQEND
  5
4D7
100
AcDbEntity
  8
1
  6
DOT
 62
           9
  0
LINE
  5
4D8
100
AcDbEntity
  8
1
  6
DOT
 62
           9
100
AcDbLine
 10
47.131208
 20
193.780456
 30
0.0
 11
47.15515
 21
193.845381
 31
0.0
  0
ARC
  5
4D9
100
AcDbEntity
  8
1
  6
DOT
 62
           9
100
AcDbCircle
 10
48.90515
 20
199.447836
 30
0.0
 40
6.0
100
AcDbArc
 50
249.520321
 51
251.726137
  0
ARC
  5
4DA
100
AcDbEntity
  8
1
  6
DOT
 62
           9
100
AcDbCircle
 10
48.90515
 20
199.447836
 30
0.0
 40
6.0
100
AcDbArc
 50
240.83678
 51
249.520321
  0
POLYLINE
  5
4DB
100
AcDbEntity
  8
1
  6
DOT
 62
           9
100
AcDb2dPolyline
 66
           1
 10
0.0
 20
0.0
 30
0.0
  0
VERTEX
  5
4DC
100
AcDbEntity
  8
1
  6
DOT
 62
           9
100
AcDbVertex
100
AcDb2dVertex
 10
45.94817
 20
194.353106
 30
0.0
  0
VERTEX
  5
4DD
100
AcDbEntity
  8
1
  6
DOT
 62
           9
100
AcDbVertex
100
AcDb2dVertex
 10
45.940448
 20
194.251424
 30
0.0
  0
VERTEX
  5
4DE
100
AcDbEntity
  8
1
  6
DOT
 62
           9
100
AcDbVertex
100
AcDb2dVertex
 10
45.981355
 20
194.208425
 30
0.0
  0
SEQEND
  5
4DF
100
AcDbEntity
  8
1
  6
DOT
 62
           9
  0
LINE
  5
4E0
100
AcDbEntity
  8
1
  6
DOT
 62
           9
100
AcDbLine
 10
46.115527
 20
194.592117
 30
0.0
 11
45.94817
 21
194.353106
 31
0.0
  0
LINE
  5
4E1
100
AcDbEntity
  8
1
  6
DOT
 62
           9
100
AcDbLine
 10
45.129018
 20
194.926683
 30
0.0
 11
45.296375
 21
195.165694
 31
0.0
  0
POLYLINE
  5
4E2
100
AcDbEntity
  8
1
  6
DOT
 62
           9
100
AcDb2dPolyline
 66
           1
 10
0.0
 20
0.0
 30
0.0
  0
VERTEX
  5
4E3
100
AcDbEntity
  8
1
  6
DOT
 62
           9
100
AcDbVertex
100
AcDb2dVertex
 10
44.981712
 20
194.908383
 30
0.0
  0
VERTEX
  5
4E4
100
AcDbEntity
  8
1
  6
DOT
 62
           9
100
AcDbVertex
100
AcDb2dVertex
 10
45.081585
 20
194.890175
 30
0.0
  0
VERTEX
  5
4E5
100
AcDbEntity
  8
1
  6
DOT
 62
           9
100
AcDbVertex
100
AcDb2dVertex
 10
45.129018
 20
194.926683
 30
0.0
  0
SEQEND
  5
4E6
100
AcDbEntity
  8
1
  6
DOT
 62
           9
  0
ARC
  5
4E7
100
AcDbEntity
  8
1
  6
DOT
 62
           9
100
AcDbCircle
 10
48.90515
 20
199.447836
 30
0.0
 40
6.0
100
AcDbArc
 50
228.189685
 51
229.16322
  0
ARC
  5
4E8
100
AcDbEntity
  8
1
  6
CONTINUOUS
 62
           7
100
AcDbCircle
 10
48.90515
 20
199.447836
 30
0.0
 40
6.0
100
AcDbArc
 50
220.83678
 51
228.189685
  0
POLYLINE
  5
4E9
100
AcDbEntity
  8
1
  6
CONTINUOUS
 62
           7
100
AcDb2dPolyline
 66
           1
 10
0.0
 20
0.0
 30
0.0
  0
VERTEX
  5
4EA
100
AcDbEntity
  8
1
  6
CONTINUOUS
 62
           7
100
AcDbVertex
100
AcDb2dVertex
 10
44.383998
 20
195.671703
 30
0.0
  0
VERTEX
  5
4EB
100
AcDbEntity
  8
1
  6
CONTINUOUS
 62
           7
100
AcDbVertex
100
AcDb2dVertex
 10
44.341964
 20
195.578794
 30
0.0
  0
VERTEX
  5
4EC
100
AcDbEntity
  8
1
  6
CONTINUOUS
 62
           7
100
AcDbVertex
100
AcDb2dVertex
 10
44.365698
 20
195.524397
 30
0.0
  0
SEQEND
  5
4ED
100
AcDbEntity
  8
1
  6
CONTINUOUS
 62
           7
  0
LINE
  5
4EE
100
AcDbEntity
  8
1
  6
CONTINUOUS
 62
           7
100
AcDbLine
 10
44.623008
 20
195.83906
 30
0.0
 11
44.383998
 21
195.671703
 31
0.0
  0
ARC
  5
4EF
100
AcDbEntity
  8
1
  6
CONTINUOUS
 62
           7
100
AcDbCircle
 10
48.90515
 20
199.447836
 30
0.0
 40
5.6
100
AcDbArc
 50
209.877484
 51
220.122516
  0
LINE
  5
4F0
100
AcDbEntity
  8
1
  6
CONTINUOUS
 62
           7
100
AcDbLine
 10
43.810421
 20
196.490855
 30
0.0
 11
44.049432
 21
196.658212
 31
0.0
  0
POLYLINE
  5
4F1
100
AcDbEntity
  8
1
  6
CONTINUOUS
 62
           7
100
AcDb2dPolyline
 66
           1
 10
0.0
 20
0.0
 30
0.0
  0
VERTEX
  5
4F2
100
AcDbEntity
  8
1
  6
CONTINUOUS
 62
           7
100
AcDbVertex
100
AcDb2dVertex
 10
43.66574
 20
196.52404
 30
0.0
  0
VERTEX
  5
4F3
100
AcDbEntity
  8
1
  6
CONTINUOUS
 62
           7
100
AcDbVertex
100
AcDb2dVertex
 10
43.753362
 20
196.472772
 30
0.0
  0
VERTEX
  5
4F4
100
AcDbEntity
  8
1
  6
CONTINUOUS
 62
           7
100
AcDbVertex
100
AcDb2dVertex
 10
43.810421
 20
196.490855
 30
0.0
  0
SEQEND
  5
4F5
100
AcDbEntity
  8
1
  6
CONTINUOUS
 62
           7
  0
ARC
  5
4F6
100
AcDbEntity
  8
1
  6
CONTINUOUS
 62
           7
100
AcDbCircle
 10
48.90515
 20
199.447836
 30
0.0
 40
6.0
100
AcDbArc
 50
198.273863
 51
209.16322
  0
POLYLINE
  5
4F7
100
AcDbEntity
  8
1
  6
CONTINUOUS
 62
           7
100
AcDb2dPolyline
 66
           1
 10
0.0
 20
0.0
 30
0.0
  0
VERTEX
  5
4F8
100
AcDbEntity
  8
1
  6
CONTINUOUS
 62
           7
100
AcDbVertex
100
AcDb2dVertex
 10
43.302696
 20
197.697836
 30
0.0
  0
VERTEX
  5
4F9
100
AcDbEntity
  8
1
  6
CONTINUOUS
 62
           7
100
AcDbVertex
100
AcDb2dVertex
 10
43.215189
 20
197.646231
 30
0.0
  0
VERTEX
  5
4FA
100
AcDbEntity
  8
1
  6
CONTINUOUS
 62
           7
100
AcDbVertex
100
AcDb2dVertex
 10
43.207739
 20
197.56648
 30
0.0
  0
SEQEND
  5
4FB
100
AcDbEntity
  8
1
  6
CONTINUOUS
 62
           7
  0
LINE
  5
4FC
100
AcDbEntity
  8
1
  6
CONTINUOUS
 62
           7
100
AcDbLine
 10
43.585611
 20
197.697836
 30
0.0
 11
43.302696
 21
197.697836
 31
0.0
  0
ARC
  5
4FD
100
AcDbEntity
  8
1
  6
CONTINUOUS
 62
           7
100
AcDbCircle
 10
48.90515
 20
199.447836
 30
0.0
 40
5.6
100
AcDbArc
 50
161.790043
 51
198.209957
  0
LINE
  5
4FE
100
AcDbEntity
  8
1
  6
CONTINUOUS
 62
           7
100
AcDbLine
 10
43.302696
 20
201.197836
 30
0.0
 11
43.585611
 21
201.197836
 31
0.0
  0
POLYLINE
  5
4FF
100
AcDbEntity
  8
1
  6
CONTINUOUS
 62
           7
100
AcDb2dPolyline
 66
           1
 10
0.0
 20
0.0
 30
0.0
  0
VERTEX
  5
500
100
AcDbEntity
  8
1
  6
CONTINUOUS
 62
           7
100
AcDbVertex
100
AcDb2dVertex
 10
43.207739
 20
201.329192
 30
0.0
  0
VERTEX
  5
501
100
AcDbEntity
  8
1
  6
CONTINUOUS
 62
           7
100
AcDbVertex
100
AcDb2dVertex
 10
43.229245
 20
201.229977
 30
0.0
  0
VERTEX
  5
502
100
AcDbEntity
  8
1
  6
CONTINUOUS
 62
           7
100
AcDbVertex
100
AcDb2dVertex
 10
43.302696
 20
201.197836
 30
0.0
  0
SEQEND
  5
503
100
AcDbEntity
  8
1
  6
CONTINUOUS
 62
           7
  0
ARC
  5
504
100
AcDbEntity
  8
1
  6
CONTINUOUS
 62
           7
100
AcDbCircle
 10
48.90515
 20
199.447836
 30
0.0
 40
6.0
100
AcDbArc
 50
150.83678
 51
161.726137
  0
ARC
  5
505
100
AcDbEntity
  8
1
  6
CONTINUOUS
 62
           7
100
AcDbCircle
 10
48.90515
 20
199.447836
 30
0.0
 40
5.0
100
AcDbArc
 50
0.0
 51
36.869898
  0
ARC
  5
506
100
AcDbEntity
  8
1
  6
DOT
 62
           9
100
AcDbCircle
 10
48.90515
 20
199.447836
 30
0.0
 40
5.0
100
AcDbArc
 50
36.869898
 51
64.825641
  0
ARC
  5
507
100
AcDbEntity
  8
1
  6
DOT
 62
           9
100
AcDbCircle
 10
48.90515
 20
199.447836
 30
0.0
 40
5.0
100
AcDbArc
 50
64.825641
 51
68.569379
  0
ARC
  5
508
100
AcDbEntity
  8
1
  6
DOT
 62
           9
100
AcDbCircle
 10
48.90515
 20
199.447836
 30
0.0
 40
5.0
100
AcDbArc
 50
68.569379
 51
82.211333
  0
ARC
  5
509
100
AcDbEntity
  8
1
  6
DOT
 62
           9
100
AcDbCircle
 10
48.90515
 20
199.447836
 30
0.0
 40
5.0
100
AcDbArc
 50
82.211333
 51
88.218321
  0
ARC
  5
50A
100
AcDbEntity
  8
1
  6
DOT
 62
           9
100
AcDbCircle
 10
48.90515
 20
199.447836
 30
0.0
 40
5.0
100
AcDbArc
 50
91.781679
 51
97.793253
  0
ARC
  5
50B
100
AcDbEntity
  8
1
  6
DOT
 62
           9
100
AcDbCircle
 10
48.90515
 20
199.447836
 30
0.0
 40
5.0
100
AcDbArc
 50
97.793253
 51
111.434655
  0
ARC
  5
50C
100
AcDbEntity
  8
1
  6
DOT
 62
           9
100
AcDbCircle
 10
48.90515
 20
199.447836
 30
0.0
 40
5.0
100
AcDbArc
 50
111.434655
 51
115.178508
  0
ARC
  5
50D
100
AcDbEntity
  8
1
  6
DOT
 62
           9
100
AcDbCircle
 10
48.90515
 20
199.447836
 30
0.0
 40
5.0
100
AcDbArc
 50
115.178508
 51
143.130102
  0
ARC
  5
50E
100
AcDbEntity
  8
1
  6
CONTINUOUS
 62
           7
100
AcDbCircle
 10
48.90515
 20
199.447836
 30
0.0
 40
5.0
100
AcDbArc
 50
143.130102
 51
216.869898
  0
ARC
  5
50F
100
AcDbEntity
  8
1
  6
DOT
 62
           9
100
AcDbCircle
 10
48.90515
 20
199.447836
 30
0.0
 40
5.0
100
AcDbArc
 50
216.869898
 51
244.821492
  0
ARC
  5
510
100
AcDbEntity
  8
1
  6
DOT
 62
           9
100
AcDbCircle
 10
48.90515
 20
199.447836
 30
0.0
 40
5.0
100
AcDbArc
 50
244.821492
 51
248.565345
  0
ARC
  5
511
100
AcDbEntity
  8
1
  6
DOT
 62
           9
100
AcDbCircle
 10
48.90515
 20
199.447836
 30
0.0
 40
5.0
100
AcDbArc
 50
248.565345
 51
262.206806
  0
ARC
  5
512
100
AcDbEntity
  8
1
  6
DOT
 62
           9
100
AcDbCircle
 10
48.90515
 20
199.447836
 30
0.0
 40
5.0
100
AcDbArc
 50
262.206806
 51
268.218321
  0
ARC
  5
513
100
AcDbEntity
  8
1
  6
DOT
 62
           9
100
AcDbCircle
 10
48.90515
 20
199.447836
 30
0.0
 40
5.0
100
AcDbArc
 50
271.781679
 51
277.788608
  0
ARC
  5
514
100
AcDbEntity
  8
1
  6
DOT
 62
           9
100
AcDbCircle
 10
48.90515
 20
199.447836
 30
0.0
 40
5.0
100
AcDbArc
 50
277.788608
 51
291.430621
  0
ARC
  5
515
100
AcDbEntity
  8
1
  6
DOT
 62
           9
100
AcDbCircle
 10
48.90515
 20
199.447836
 30
0.0
 40
5.0
100
AcDbArc
 50
291.430621
 51
295.174359
  0
ARC
  5
516
100
AcDbEntity
  8
1
  6
DOT
 62
           9
100
AcDbCircle
 10
48.90515
 20
199.447836
 30
0.0
 40
5.0
100
AcDbArc
 50
295.174359
 51
323.130102
  0
ARC
  5
517
100
AcDbEntity
  8
1
  6
CONTINUOUS
 62
           7
100
AcDbCircle
 10
48.90515
 20
199.447836
 30
0.0
 40
5.0
100
AcDbArc
 50
323.130102
 51
0.0
  0
ARC
  5
518
100
AcDbEntity
  8
1
  6
CONTINUOUS
 62
           7
100
AcDbCircle
 10
48.90515
 20
199.447836
 30
0.0
 40
7.0
100
AcDbArc
 50
304.849905
 51
0.0
  0
ARC
  5
519
100
AcDbEntity
  8
1
  6
DOT
 62
           9
100
AcDbCircle
 10
48.90515
 20
199.447836
 30
0.0
 40
7.0
100
AcDbArc
 50
287.170263
 51
304.849905
  0
ARC
  5
51A
100
AcDbEntity
  8
1
  6
DOT
 62
           9
100
AcDbCircle
 10
48.90515
 20
199.447836
 30
0.0
 40
7.0
100
AcDbArc
 50
283.474504
 51
287.170263
  0
ARC
  5
51B
100
AcDbEntity
  8
1
  6
DOT
 62
           9
100
AcDbCircle
 10
48.90515
 20
199.447836
 30
0.0
 40
7.0
100
AcDbArc
 50
278.335334
 51
283.474504
  0
ARC
  5
51C
100
AcDbEntity
  8
1
  6
DOT
 62
           9
100
AcDbCircle
 10
48.90515
 20
199.447836
 30
0.0
 40
7.0
100
AcDbArc
 50
272.003043
 51
278.335334
  0
ARC
  5
51D
100
AcDbEntity
  8
1
  6
DOT
 62
           9
100
AcDbCircle
 10
48.90515
 20
199.447836
 30
0.0
 40
7.0
100
AcDbArc
 50
235.150095
 51
272.003043
  0
ARC
  5
51E
100
AcDbEntity
  8
1
  6
CONTINUOUS
 62
           7
100
AcDbCircle
 10
48.90515
 20
199.447836
 30
0.0
 40
7.0
100
AcDbArc
 50
124.849905
 51
235.150095
  0
ARC
  5
51F
100
AcDbEntity
  8
1
  6
DOT
 62
           9
100
AcDbCircle
 10
48.90515
 20
199.447836
 30
0.0
 40
7.0
100
AcDbArc
 50
87.981562
 51
124.849905
  0
ARC
  5
520
100
AcDbEntity
  8
1
  6
DOT
 62
           9
100
AcDbCircle
 10
48.90515
 20
199.447836
 30
0.0
 40
7.0
100
AcDbArc
 50
81.65227
 51
87.981562
  0
ARC
  5
521
100
AcDbEntity
  8
1
  6
DOT
 62
           9
100
AcDbCircle
 10
48.90515
 20
199.447836
 30
0.0
 40
7.0
100
AcDbArc
 50
76.534266
 51
81.65227
  0
ARC
  5
522
100
AcDbEntity
  8
1
  6
DOT
 62
           9
100
AcDbCircle
 10
48.90515
 20
199.447836
 30
0.0
 40
7.0
100
AcDbArc
 50
72.832362
 51
76.534266
  0
ARC
  5
523
100
AcDbEntity
  8
1
  6
DOT
 62
           9
100
AcDbCircle
 10
48.90515
 20
199.447836
 30
0.0
 40
7.0
100
AcDbArc
 50
55.150095
 51
72.832362
  0
ARC
  5
524
100
AcDbEntity
  8
1
  6
CONTINUOUS
 62
           7
100
AcDbCircle
 10
48.90515
 20
199.447836
 30
0.0
 40
7.0
100
AcDbArc
 50
0.0
 51
55.150095
  0
ARC
  5
525
100
AcDbEntity
  8
1
  6
DOT
 62
           9
100
AcDbCircle
 10
48.90515
 20
199.447836
 30
0.0
 40
4.95
100
AcDbArc
 50
101.010125
 51
180.0
  0
ARC
  5
526
100
AcDbEntity
  8
1
  6
DOT
 62
           9
100
AcDbCircle
 10
48.90515
 20
199.447836
 30
0.0
 40
4.95
100
AcDbArc
 50
281.010125
 51
78.989875
  0
ARC
  5
527
100
AcDbEntity
  8
1
  6
DOT
 62
           9
100
AcDbCircle
 10
48.90515
 20
199.447836
 30
0.0
 40
4.95
100
AcDbArc
 50
180.0
 51
258.989875
  0
CIRCLE
  5
528
100
AcDbEntity
  8
1
  6
DOT
 62
           9
100
AcDbCircle
 10
48.90515
 20
199.447836
 30
0.0
 40
3.0
  0
LINE
  5
529
100
AcDbEntity
  8
1
  6
DOT
 62
           9
100
AcDbLine
 10
51.90515
 20
211.35885
 30
0.0
 11
45.90515
 21
211.35885
 31
0.0
  0
LINE
  5
52A
100
AcDbEntity
  8
1
  6
DOT
 62
           9
100
AcDbLine
 10
45.90515
 20
187.536825
 30
0.0
 11
51.90515
 21
187.536825
 31
0.0
  0
LINE
  5
52B
100
AcDbEntity
  8
1
  6
CONTINUOUS
 62
           7
100
AcDbLine
 10
376.453488
 20
211.052141
 30
0.0
 11
370.453488
 21
211.052141
 31
0.0
  0
LINE
  5
52C
100
AcDbEntity
  8
1
  6
CONTINUOUS
 62
           7
100
AcDbLine
 10
376.453488
 20
211.208766
 30
0.0
 11
376.453488
 21
211.052141
 31
0.0
  0
LINE
  5
52D
100
AcDbEntity
  8
1
  6
CONTINUOUS
 62
           7
100
AcDbLine
 10
370.453488
 20
211.208766
 30
0.0
 11
370.453488
 21
211.052141
 31
0.0
  0
LINE
  5
52E
100
AcDbEntity
  8
1
  6
CONTINUOUS
 62
           7
100
AcDbLine
 10
376.453488
 20
211.052141
 30
0.0
 11
376.453488
 21
210.34795
 31
0.0
  0
LINE
  5
52F
100
AcDbEntity
  8
1
  6
DOT
 62
           9
100
AcDbLine
 10
376.453488
 20
210.34795
 30
0.0
 11
376.453488
 21
209.271343
 31
0.0
  0
LINE
  5
530
100
AcDbEntity
  8
1
  6
DOT
 62
           9
100
AcDbLine
 10
376.453488
 20
209.271343
 30
0.0
 11
370.453488
 21
209.271343
 31
0.0
  0
LINE
  5
531
100
AcDbEntity
  8
1
  6
CONTINUOUS
 62
           7
100
AcDbLine
 10
370.453488
 20
211.052141
 30
0.0
 11
370.453488
 21
210.34795
 31
0.0
  0
LINE
  5
532
100
AcDbEntity
  8
1
  6
DOT
 62
           9
100
AcDbLine
 10
370.453488
 20
210.34795
 30
0.0
 11
370.453488
 21
209.271343
 31
0.0
  0
LINE
  5
533
100
AcDbEntity
  8
1
  6
CONTINUOUS
 62
           7
100
AcDbLine
 10
376.453488
 20
211.35885
 30
0.0
 11
376.453488
 21
211.208766
 31
0.0
  0
LINE
  5
534
100
AcDbEntity
  8
1
  6
CONTINUOUS
 62
           7
100
AcDbLine
 10
370.453488
 20
211.35885
 30
0.0
 11
370.453488
 21
211.208766
 31
0.0
  0
LINE
  5
535
100
AcDbEntity
  8
1
  6
DOT
 62
           9
100
AcDbLine
 10
376.453488
 20
210.990471
 30
0.0
 11
370.453488
 21
210.990471
 31
0.0
  0
LINE
  5
536
100
AcDbEntity
  8
1
  6
DOT
 62
           9
100
AcDbLine
 10
376.453488
 20
210.571886
 30
0.0
 11
370.453488
 21
210.571886
 31
0.0
  0
LINE
  5
537
100
AcDbEntity
  8
1
  6
DOT
 62
           9
100
AcDbLine
 10
376.453488
 20
210.97807
 30
0.0
 11
370.453488
 21
210.97807
 31
0.0
  0
LINE
  5
538
100
AcDbEntity
  8
1
  6
DOT
 62
           9
100
AcDbLine
 10
376.453488
 20
210.574641
 30
0.0
 11
370.453488
 21
210.574641
 31
0.0
  0
LINE
  5
539
100
AcDbEntity
  8
1
  6
DOT
 62
           9
100
AcDbLine
 10
376.453488
 20
210.985994
 30
0.0
 11
370.453488
 21
210.985994
 31
0.0
  0
LINE
  5
53A
100
AcDbEntity
  8
1
  6
DOT
 62
           9
100
AcDbLine
 10
376.453488
 20
211.010456
 30
0.0
 11
370.453488
 21
211.010456
 31
0.0
  0
LINE
  5
53B
100
AcDbEntity
  8
1
  6
DOT
 62
           9
100
AcDbLine
 10
376.453488
 20
210.585324
 30
0.0
 11
370.453488
 21
210.585324
 31
0.0
  0
LINE
  5
53C
100
AcDbEntity
  8
1
  6
DOT
 62
           9
100
AcDbLine
 10
376.453488
 20
210.575675
 30
0.0
 11
370.453488
 21
210.575675
 31
0.0
  0
ARC
  5
53D
100
AcDbEntity
  8
1
  6
CONTINUOUS
 62
           7
100
AcDbCircle
 10
373.453488
 20
199.447836
 30
0.0
 40
3.0
100
AcDbArc
 50
180.0
 51
0.0
  0
ARC
  5
53E
100
AcDbEntity
  8
1
  6
CONTINUOUS
 62
           7
100
AcDbCircle
 10
373.453488
 20
199.447836
 30
0.0
 40
3.0
100
AcDbArc
 50
0.0
 51
180.0
  0
CIRCLE
  5
53F
100
AcDbEntity
  8
1
  6
CONTINUOUS
 62
           7
100
AcDbCircle
 10
373.453488
 20
199.447836
 30
0.0
 40
4.95
  0
CIRCLE
  5
540
100
AcDbEntity
  8
1
  6
CONTINUOUS
 62
           7
100
AcDbCircle
 10
373.453488
 20
199.447836
 30
0.0
 40
7.0
  0
LINE
  5
541
100
AcDbEntity
  8
1
  6
DOT
 62
           9
100
AcDbLine
 10
369.677355
 20
194.926683
 30
0.0
 11
369.844712
 21
195.165694
 31
0.0
  0
ARC
  5
542
100
AcDbEntity
  8
1
  6
DOT
 62
           9
100
AcDbCircle
 10
369.59544
 20
203.911631
 30
0.0
 40
0.1
100
AcDbArc
 50
35.0
 51
130.83678
  0
ARC
  5
543
100
AcDbEntity
  8
1
  6
DOT
 62
           9
100
AcDbCircle
 10
373.453488
 20
199.447836
 30
0.0
 40
5.6
100
AcDbArc
 50
319.877484
 51
330.122516
  0
ARC
  5
544
100
AcDbEntity
  8
1
  6
DOT
 62
           9
100
AcDbCircle
 10
378.605574
 20
202.322901
 30
0.0
 40
0.1
100
AcDbArc
 50
29.16322
 51
125.0
  0
ARC
  5
545
100
AcDbEntity
  8
1
  6
DOT
 62
           9
100
AcDbCircle
 10
376.328553
 20
204.599923
 30
0.0
 40
0.1
100
AcDbArc
 50
325.0
 51
60.83678
  0
ARC
  5
546
100
AcDbEntity
  8
1
  6
DOT
 62
           9
100
AcDbCircle
 10
377.311535
 20
203.911631
 30
0.0
 40
0.1
100
AcDbArc
 50
49.16322
 51
145.0
  0
ARC
  5
547
100
AcDbEntity
  8
1
  6
DOT
 62
           9
100
AcDbCircle
 10
368.301401
 20
196.57277
 30
0.0
 40
0.1
100
AcDbArc
 50
209.16322
 51
305.0
  0
ARC
  5
548
100
AcDbEntity
  8
1
  6
DOT
 62
           9
100
AcDbCircle
 10
368.989692
 20
195.589788
 30
0.0
 40
0.1
100
AcDbArc
 50
125.0
 51
220.83678
  0
ARC
  5
549
100
AcDbEntity
  8
1
  6
DOT
 62
           9
100
AcDbCircle
 10
369.59544
 20
194.98404
 30
0.0
 40
0.1
100
AcDbArc
 50
229.16322
 51
325.0
  0
ARC
  5
54A
100
AcDbEntity
  8
1
  6
DOT
 62
           9
100
AcDbCircle
 10
370.578422
 20
194.295749
 30
0.0
 40
0.1
100
AcDbArc
 50
145.0
 51
240.83678
  0
LINE
  5
54B
100
AcDbEntity
  8
1
  6
DOT
 62
           9
100
AcDbLine
 10
377.97464
 20
195.671703
 30
0.0
 11
377.73563
 21
195.83906
 31
0.0
  0
LINE
  5
54C
100
AcDbEntity
  8
1
  6
DOT
 62
           9
100
AcDbLine
 10
378.309206
 20
196.658212
 30
0.0
 11
378.548217
 21
196.490855
 31
0.0
  0
ARC
  5
54D
100
AcDbEntity
  8
1
  6
DOT
 62
           9
100
AcDbCircle
 10
376.328553
 20
194.295749
 30
0.0
 40
0.1
100
AcDbArc
 50
299.16322
 51
35.0
  0
ARC
  5
54E
100
AcDbEntity
  8
1
  6
DOT
 62
           9
100
AcDbCircle
 10
377.311535
 20
194.98404
 30
0.0
 40
0.1
100
AcDbArc
 50
215.0
 51
310.83678
  0
ARC
  5
54F
100
AcDbEntity
  8
1
  6
DOT
 62
           9
100
AcDbCircle
 10
377.917283
 20
195.589788
 30
0.0
 40
0.1
100
AcDbArc
 50
319.16322
 51
55.0
  0
ARC
  5
550
100
AcDbEntity
  8
1
  6
DOT
 62
           9
100
AcDbCircle
 10
378.605574
 20
196.57277
 30
0.0
 40
0.1
100
AcDbArc
 50
235.0
 51
330.83678
  0
ARC
  5
551
100
AcDbEntity
  8
1
  6
DOT
 62
           9
100
AcDbCircle
 10
368.989692
 20
203.305883
 30
0.0
 40
0.1
100
AcDbArc
 50
139.16322
 51
235.0
  0
ARC
  5
552
100
AcDbEntity
  8
1
  6
DOT
 62
           9
100
AcDbCircle
 10
368.301401
 20
202.322901
 30
0.0
 40
0.1
100
AcDbArc
 50
55.0
 51
150.83678
  0
LINE
  5
553
100
AcDbEntity
  8
1
  6
DOT
 62
           9
100
AcDbLine
 10
378.548217
 20
202.404816
 30
0.0
 11
378.309206
 21
202.237459
 31
0.0
  0
ARC
  5
554
100
AcDbEntity
  8
1
  6
DOT
 62
           9
100
AcDbCircle
 10
373.453488
 20
199.447836
 30
0.0
 40
5.6
100
AcDbArc
 50
49.877484
 51
60.122516
  0
LINE
  5
555
100
AcDbEntity
  8
1
  6
DOT
 62
           9
100
AcDbLine
 10
377.22962
 20
203.968988
 30
0.0
 11
377.062263
 21
203.729978
 31
0.0
  0
LINE
  5
556
100
AcDbEntity
  8
1
  6
DOT
 62
           9
100
AcDbLine
 10
376.243111
 20
204.303554
 30
0.0
 11
376.410468
 21
204.542565
 31
0.0
  0
LINE
  5
557
100
AcDbEntity
  8
1
  6
DOT
 62
           9
100
AcDbLine
 10
377.062263
 20
195.165694
 30
0.0
 11
377.22962
 21
194.926683
 31
0.0
  0
ARC
  5
558
100
AcDbEntity
  8
1
  6
DOT
 62
           9
100
AcDbCircle
 10
373.453488
 20
199.447836
 30
0.0
 40
5.6
100
AcDbArc
 50
299.877484
 51
310.122516
  0
LINE
  5
559
100
AcDbEntity
  8
1
  6
DOT
 62
           9
100
AcDbLine
 10
376.410468
 20
194.353106
 30
0.0
 11
376.243111
 21
194.592117
 31
0.0
  0
LINE
  5
55A
100
AcDbEntity
  8
1
  6
DOT
 62
           9
100
AcDbLine
 10
369.171346
 20
195.83906
 30
0.0
 11
368.932335
 21
195.671703
 31
0.0
  0
ARC
  5
55B
100
AcDbEntity
  8
1
  6
DOT
 62
           9
100
AcDbCircle
 10
373.453488
 20
199.447836
 30
0.0
 40
5.6
100
AcDbArc
 50
209.877484
 51
220.122516
  0
ARC
  5
55C
100
AcDbEntity
  8
1
  6
DOT
 62
           9
100
AcDbCircle
 10
373.453488
 20
199.447836
 30
0.0
 40
5.6
100
AcDbArc
 50
229.877484
 51
240.122516
  0
LINE
  5
55D
100
AcDbEntity
  8
1
  6
DOT
 62
           9
100
AcDbLine
 10
369.844712
 20
203.729978
 30
0.0
 11
369.677355
 21
203.968988
 31
0.0
  0
LINE
  5
55E
100
AcDbEntity
  8
1
  6
DOT
 62
           9
100
AcDbLine
 10
370.663864
 20
194.592117
 30
0.0
 11
370.496507
 21
194.353106
 31
0.0
  0
ARC
  5
55F
100
AcDbEntity
  8
1
  6
DOT
 62
           9
100
AcDbCircle
 10
373.453488
 20
199.447836
 30
0.0
 40
5.6
100
AcDbArc
 50
139.877484
 51
150.122516
  0
LINE
  5
560
100
AcDbEntity
  8
1
  6
DOT
 62
           9
100
AcDbLine
 10
368.932335
 20
203.223968
 30
0.0
 11
369.171346
 21
203.056611
 31
0.0
  0
LINE
  5
561
100
AcDbEntity
  8
1
  6
DOT
 62
           9
100
AcDbLine
 10
368.597769
 20
202.237459
 30
0.0
 11
368.358758
 21
202.404816
 31
0.0
  0
ARC
  5
562
100
AcDbEntity
  8
1
  6
DOT
 62
           9
100
AcDbCircle
 10
373.453488
 20
199.447836
 30
0.0
 40
5.6
100
AcDbArc
 50
119.877484
 51
130.122516
  0
LINE
  5
563
100
AcDbEntity
  8
1
  6
DOT
 62
           9
100
AcDbLine
 10
368.358758
 20
196.490855
 30
0.0
 11
368.597769
 21
196.658212
 31
0.0
  0
LINE
  5
564
100
AcDbEntity
  8
1
  6
DOT
 62
           9
100
AcDbLine
 10
377.73563
 20
203.056611
 30
0.0
 11
377.97464
 21
203.223968
 31
0.0
  0
ARC
  5
565
100
AcDbEntity
  8
1
  6
DOT
 62
           9
100
AcDbCircle
 10
373.453488
 20
199.447836
 30
0.0
 40
5.6
100
AcDbArc
 50
29.877484
 51
40.122516
  0
LINE
  5
566
100
AcDbEntity
  8
1
  6
DOT
 62
           9
100
AcDbLine
 10
370.496507
 20
204.542565
 30
0.0
 11
370.663864
 21
204.303554
 31
0.0
  0
ARC
  5
567
100
AcDbEntity
  8
1
  6
DOT
 62
           9
100
AcDbCircle
 10
377.917283
 20
203.305883
 30
0.0
 40
0.1
100
AcDbArc
 50
305.0
 51
40.83678
  0
ARC
  5
568
100
AcDbEntity
  8
1
  6
DOT
 62
           9
100
AcDbCircle
 10
371.603488
 20
205.05029
 30
0.0
 40
0.1
100
AcDbArc
 50
0.0
 51
108.273863
  0
ARC
  5
569
100
AcDbEntity
  8
1
  6
DOT
 62
           9
100
AcDbCircle
 10
373.453488
 20
199.447836
 30
0.0
 40
6.0
100
AcDbArc
 50
240.83678
 51
251.726137
  0
ARC
  5
56A
100
AcDbEntity
  8
1
  6
DOT
 62
           9
100
AcDbCircle
 10
373.453488
 20
199.447836
 30
0.0
 40
6.0
100
AcDbArc
 50
220.83678
 51
229.16322
  0
ARC
  5
56B
100
AcDbEntity
  8
1
  6
DOT
 62
           9
100
AcDbCircle
 10
379.055942
 20
201.297836
 30
0.0
 40
0.1
100
AcDbArc
 50
270.0
 51
18.273863
  0
ARC
  5
56C
100
AcDbEntity
  8
1
  6
DOT
 62
           9
100
AcDbCircle
 10
373.453488
 20
199.447836
 30
0.0
 40
5.6
100
AcDbArc
 50
341.790043
 51
18.209957
  0
ARC
  5
56D
100
AcDbEntity
  8
1
  6
DOT
 62
           9
100
AcDbCircle
 10
379.055942
 20
197.597836
 30
0.0
 40
0.1
100
AcDbArc
 50
341.726137
 51
90.0
  0
ARC
  5
56E
100
AcDbEntity
  8
1
  6
DOT
 62
           9
100
AcDbCircle
 10
373.453488
 20
199.447836
 30
0.0
 40
6.0
100
AcDbArc
 50
288.273863
 51
299.16322
  0
ARC
  5
56F
100
AcDbEntity
  8
1
  6
DOT
 62
           9
100
AcDbCircle
 10
373.453488
 20
199.447836
 30
0.0
 40
6.0
100
AcDbArc
 50
198.273863
 51
209.16322
  0
ARC
  5
570
100
AcDbEntity
  8
1
  6
DOT
 62
           9
100
AcDbCircle
 10
375.303488
 20
205.05029
 30
0.0
 40
0.1
100
AcDbArc
 50
71.726137
 51
180.0
  0
LINE
  5
571
100
AcDbEntity
  8
1
  6
DOT
 62
           9
100
AcDbLine
 10
371.703488
 20
193.845381
 30
0.0
 11
371.703488
 21
194.128296
 31
0.0
  0
ARC
  5
572
100
AcDbEntity
  8
1
  6
DOT
 62
           9
100
AcDbCircle
 10
373.453488
 20
199.447836
 30
0.0
 40
6.0
100
AcDbArc
 50
108.273863
 51
119.16322
  0
ARC
  5
573
100
AcDbEntity
  8
1
  6
DOT
 62
           9
100
AcDbCircle
 10
373.453488
 20
199.447836
 30
0.0
 40
6.0
100
AcDbArc
 50
18.273863
 51
29.16322
  0
ARC
  5
574
100
AcDbEntity
  8
1
  6
DOT
 62
           9
100
AcDbCircle
 10
373.453488
 20
199.447836
 30
0.0
 40
6.0
100
AcDbArc
 50
130.83678
 51
139.16322
  0
ARC
  5
575
100
AcDbEntity
  8
1
  6
DOT
 62
           9
100
AcDbCircle
 10
370.578422
 20
204.599923
 30
0.0
 40
0.1
100
AcDbArc
 50
119.16322
 51
215.0
  0
ARC
  5
576
100
AcDbEntity
  8
1
  6
DOT
 62
           9
100
AcDbCircle
 10
373.453488
 20
199.447836
 30
0.0
 40
6.0
100
AcDbArc
 50
330.83678
 51
341.726137
  0
ARC
  5
577
100
AcDbEntity
  8
1
  6
DOT
 62
           9
100
AcDbCircle
 10
373.453488
 20
199.447836
 30
0.0
 40
6.0
100
AcDbArc
 50
310.83678
 51
319.16322
  0
ARC
  5
578
100
AcDbEntity
  8
1
  6
DOT
 62
           9
100
AcDbCircle
 10
375.303488
 20
193.845381
 30
0.0
 40
0.1
100
AcDbArc
 50
180.0
 51
288.273863
  0
ARC
  5
579
100
AcDbEntity
  8
1
  6
DOT
 62
           9
100
AcDbCircle
 10
371.603488
 20
193.845381
 30
0.0
 40
0.1
100
AcDbArc
 50
251.726137
 51
0.0
  0
ARC
  5
57A
100
AcDbEntity
  8
1
  6
DOT
 62
           9
100
AcDbCircle
 10
373.453488
 20
199.447836
 30
0.0
 40
6.0
100
AcDbArc
 50
150.83678
 51
161.726137
  0
ARC
  5
57B
100
AcDbEntity
  8
1
  6
DOT
 62
           9
100
AcDbCircle
 10
373.453488
 20
199.447836
 30
0.0
 40
5.6
100
AcDbArc
 50
161.790043
 51
198.209957
  0
ARC
  5
57C
100
AcDbEntity
  8
1
  6
DOT
 62
           9
100
AcDbCircle
 10
373.453488
 20
199.447836
 30
0.0
 40
6.0
100
AcDbArc
 50
60.83678
 51
71.726137
  0
ARC
  5
57D
100
AcDbEntity
  8
1
  6
DOT
 62
           9
100
AcDbCircle
 10
373.453488
 20
199.447836
 30
0.0
 40
6.0
100
AcDbArc
 50
40.83678
 51
49.16322
  0
ARC
  5
57E
100
AcDbEntity
  8
1
  6
DOT
 62
           9
100
AcDbCircle
 10
367.851033
 20
197.597836
 30
0.0
 40
0.1
100
AcDbArc
 50
90.0
 51
198.273863
  0
ARC
  5
57F
100
AcDbEntity
  8
1
  6
DOT
 62
           9
100
AcDbCircle
 10
367.851033
 20
201.297836
 30
0.0
 40
0.1
100
AcDbArc
 50
161.726137
 51
270.0
  0
LINE
  5
580
100
AcDbEntity
  8
1
  6
DOT
 62
           9
100
AcDbLine
 10
371.703488
 20
204.767375
 30
0.0
 11
371.703488
 21
205.05029
 31
0.0
  0
LINE
  5
581
100
AcDbEntity
  8
1
  6
DOT
 62
           9
100
AcDbLine
 10
375.203488
 20
205.05029
 30
0.0
 11
375.203488
 21
204.767375
 31
0.0
  0
LINE
  5
582
100
AcDbEntity
  8
1
  6
DOT
 62
           9
100
AcDbLine
 10
379.055942
 20
197.697836
 30
0.0
 11
378.773027
 21
197.697836
 31
0.0
  0
LINE
  5
583
100
AcDbEntity
  8
1
  6
DOT
 62
           9
100
AcDbLine
 10
368.133948
 20
197.697836
 30
0.0
 11
367.851033
 21
197.697836
 31
0.0
  0
LINE
  5
584
100
AcDbEntity
  8
1
  6
DOT
 62
           9
100
AcDbLine
 10
378.773027
 20
201.197836
 30
0.0
 11
379.055942
 21
201.197836
 31
0.0
  0
LINE
  5
585
100
AcDbEntity
  8
1
  6
DOT
 62
           9
100
AcDbLine
 10
367.851033
 20
201.197836
 30
0.0
 11
368.133948
 21
201.197836
 31
0.0
  0
ARC
  5
586
100
AcDbEntity
  8
1
  6
DOT
 62
           9
100
AcDbCircle
 10
373.453488
 20
199.447836
 30
0.0
 40
5.6
100
AcDbArc
 50
71.790043
 51
108.209957
  0
LINE
  5
587
100
AcDbEntity
  8
1
  6
DOT
 62
           9
100
AcDbLine
 10
375.203488
 20
194.128296
 30
0.0
 11
375.203488
 21
193.845381
 31
0.0
  0
ARC
  5
588
100
AcDbEntity
  8
1
  6
DOT
 62
           9
100
AcDbCircle
 10
373.453488
 20
199.447836
 30
0.0
 40
5.6
100
AcDbArc
 50
251.790043
 51
288.209957
  0
CIRCLE
  5
589
100
AcDbEntity
  8
1
  6
DOT
 62
           9
100
AcDbCircle
 10
373.453488
 20
199.447836
 30
0.0
 40
2.2
  0
CIRCLE
  5
58A
100
AcDbEntity
  8
1
  6
DOT
 62
           9
100
AcDbCircle
 10
373.453488
 20
199.447836
 30
0.0
 40
5.0
  0
ARC
  5
58B
100
AcDbEntity
  8
1
  6
DOT
 62
           9
100
AcDbCircle
 10
373.474817
 20
201.116613
 30
0.0
 40
3.332938
100
AcDbArc
 50
97.669938
 51
105.182764
  0
ARC
  5
58C
100
AcDbEntity
  8
1
  6
DOT
 62
           9
100
AcDbCircle
 10
373.447091
 20
201.185212
 30
0.0
 40
3.262875
100
AcDbArc
 50
72.984191
 51
86.960852
  0
INSERT
  5
58D
100
AcDbEntity
  8
0
  6
CONTINUOUS
 62
           7
100
AcDbBlockReference
  2
_POLYLINE_$14$
 10
0.0
 20
0.0
 30
0.0
  0
INSERT
  5
58E
100
AcDbEntity
  8
0
  6
CONTINUOUS
 62
           7
100
AcDbBlockReference
  2
_POLYLINE_$15$
 10
0.0
 20
0.0
 30
0.0
  0
LINE
  5
58F
100
AcDbEntity
  8
1
  6
DOT
 62
           9
100
AcDbLine
 10
372.506221
 20
204.305607
 30
0.0
 11
372.601924
 21
204.333216
 31
0.0
  0
LINE
  5
590
100
AcDbEntity
  8
1
  6
DOT
 62
           9
100
AcDbLine
 10
377.424971
 20
197.886586
 30
0.0
 11
377.306395
 21
198.104387
 31
0.0
  0
POLYLINE
  5
591
100
AcDbEntity
  8
1
  6
DOT
 62
           9
100
AcDb2dPolyline
 66
           1
 10
0.0
 20
0.0
 30
0.0
  0
VERTEX
  5
592
100
AcDbEntity
  8
1
  6
DOT
 62
           9
100
AcDbVertex
100
AcDb2dVertex
 10
377.424971
 20
197.886586
 30
0.0
  0
VERTEX
  5
593
100
AcDbEntity
  8
1
  6
DOT
 62
           9
100
AcDbVertex
100
AcDb2dVertex
 10
377.383983
 20
197.042021
 30
0.0
  0
VERTEX
  5
594
100
AcDbEntity
  8
1
  6
DOT
 62
           9
100
AcDbVertex
100
AcDb2dVertex
 10
377.337327
 20
196.384274
 30
0.0
  0
SEQEND
  5
595
100
AcDbEntity
  8
1
  6
DOT
 62
           9
  0
POLYLINE
  5
596
100
AcDbEntity
  8
1
  6
DOT
 62
           9
100
AcDb2dPolyline
 66
           1
 10
0.0
 20
0.0
 30
0.0
  0
VERTEX
  5
597
100
AcDbEntity
  8
1
  6
DOT
 62
           9
100
AcDbVertex
100
AcDb2dVertex
 10
377.337327
 20
196.384274
 30
0.0
  0
VERTEX
  5
598
100
AcDbEntity
  8
1
  6
DOT
 62
           9
100
AcDbVertex
100
AcDb2dVertex
 10
377.326224
 20
196.253041
 30
0.0
  0
VERTEX
  5
599
100
AcDbEntity
  8
1
  6
DOT
 62
           9
100
AcDbVertex
100
AcDb2dVertex
 10
377.253488
 20
195.540044
 30
0.0
  0
SEQEND
  5
59A
100
AcDbEntity
  8
1
  6
DOT
 62
           9
  0
LINE
  5
59B
100
AcDbEntity
  8
1
  6
DOT
 62
           9
100
AcDbLine
 10
376.439321
 20
196.120676
 30
0.0
 11
376.837073
 21
195.837014
 31
0.0
  0
LINE
  5
59C
100
AcDbEntity
  8
1
  6
DOT
 62
           9
100
AcDbLine
 10
376.837073
 20
195.837014
 30
0.0
 11
377.253488
 21
195.540044
 31
0.0
  0
ARC
  5
59D
100
AcDbEntity
  8
1
  6
DOT
 62
           9
100
AcDbCircle
 10
373.453488
 20
197.944842
 30
0.0
 40
4.497005
100
AcDbArc
 50
212.32733
 51
327.67267
  0
LINE
  5
59E
100
AcDbEntity
  8
1
  6
DOT
 62
           9
100
AcDbLine
 10
370.467654
 20
196.120676
 30
0.0
 11
370.069902
 21
195.837014
 31
0.0
  0
LINE
  5
59F
100
AcDbEntity
  8
1
  6
DOT
 62
           9
100
AcDbLine
 10
370.069902
 20
195.837014
 30
0.0
 11
369.653488
 21
195.540044
 31
0.0
  0
POLYLINE
  5
5A0
100
AcDbEntity
  8
1
  6
DOT
 62
           9
100
AcDb2dPolyline
 66
           1
 10
0.0
 20
0.0
 30
0.0
  0
VERTEX
  5
5A1
100
AcDbEntity
  8
1
  6
DOT
 62
           9
100
AcDbVertex
100
AcDb2dVertex
 10
369.653488
 20
195.540044
 30
0.0
  0
VERTEX
  5
5A2
100
AcDbEntity
  8
1
  6
DOT
 62
           9
100
AcDbVertex
100
AcDb2dVertex
 10
369.580521
 20
196.255683
 30
0.0
  0
VERTEX
  5
5A3
100
AcDbEntity
  8
1
  6
DOT
 62
           9
100
AcDbVertex
100
AcDb2dVertex
 10
369.569622
 20
196.384594
 30
0.0
  0
SEQEND
  5
5A4
100
AcDbEntity
  8
1
  6
DOT
 62
           9
  0
POLYLINE
  5
5A5
100
AcDbEntity
  8
1
  6
DOT
 62
           9
100
AcDb2dPolyline
 66
           1
 10
0.0
 20
0.0
 30
0.0
  0
VERTEX
  5
5A6
100
AcDbEntity
  8
1
  6
DOT
 62
           9
100
AcDbVertex
100
AcDb2dVertex
 10
369.569622
 20
196.384594
 30
0.0
  0
VERTEX
  5
5A7
100
AcDbEntity
  8
1
  6
DOT
 62
           9
100
AcDbVertex
100
AcDb2dVertex
 10
369.522784
 20
197.045462
 30
0.0
  0
VERTEX
  5
5A8
100
AcDbEntity
  8
1
  6
DOT
 62
           9
100
AcDbVertex
100
AcDb2dVertex
 10
369.482004
 20
197.886586
 30
0.0
  0
SEQEND
  5
5A9
100
AcDbEntity
  8
1
  6
DOT
 62
           9
  0
LINE
  5
5AA
100
AcDbEntity
  8
1
  6
DOT
 62
           9
100
AcDbLine
 10
369.60058
 20
198.104387
 30
0.0
 11
369.482004
 21
197.886586
 31
0.0
  0
POLYLINE
  5
5AB
100
AcDbEntity
  8
1
  6
DOT
 62
           9
100
AcDb2dPolyline
 66
           1
 10
0.0
 20
0.0
 30
0.0
  0
VERTEX
  5
5AC
100
AcDbEntity
  8
1
  6
DOT
 62
           9
100
AcDbVertex
100
AcDb2dVertex
 10
377.253488
 20
203.355628
 30
0.0
  0
VERTEX
  5
5AD
100
AcDbEntity
  8
1
  6
DOT
 62
           9
100
AcDbVertex
100
AcDb2dVertex
 10
377.326454
 20
202.639989
 30
0.0
  0
VERTEX
  5
5AE
100
AcDbEntity
  8
1
  6
DOT
 62
           9
100
AcDbVertex
100
AcDb2dVertex
 10
377.337353
 20
202.511078
 30
0.0
  0
SEQEND
  5
5AF
100
AcDbEntity
  8
1
  6
DOT
 62
           9
  0
POLYLINE
  5
5B0
100
AcDbEntity
  8
1
  6
DOT
 62
           9
100
AcDb2dPolyline
 66
           1
 10
0.0
 20
0.0
 30
0.0
  0
VERTEX
  5
5B1
100
AcDbEntity
  8
1
  6
DOT
 62
           9
100
AcDbVertex
100
AcDb2dVertex
 10
377.337353
 20
202.511078
 30
0.0
  0
VERTEX
  5
5B2
100
AcDbEntity
  8
1
  6
DOT
 62
           9
100
AcDbVertex
100
AcDb2dVertex
 10
377.384191
 20
201.850209
 30
0.0
  0
VERTEX
  5
5B3
100
AcDbEntity
  8
1
  6
DOT
 62
           9
100
AcDbVertex
100
AcDb2dVertex
 10
377.424971
 20
201.009085
 30
0.0
  0
SEQEND
  5
5B4
100
AcDbEntity
  8
1
  6
DOT
 62
           9
  0
LINE
  5
5B5
100
AcDbEntity
  8
1
  6
DOT
 62
           9
100
AcDbLine
 10
377.424971
 20
201.009085
 30
0.0
 11
377.306395
 21
200.791284
 31
0.0
  0
LINE
  5
5B6
100
AcDbEntity
  8
1
  6
DOT
 62
           9
100
AcDbLine
 10
377.253488
 20
203.355628
 30
0.0
 11
376.837073
 21
203.058657
 31
0.0
  0
LINE
  5
5B7
100
AcDbEntity
  8
1
  6
DOT
 62
           9
100
AcDbLine
 10
376.837073
 20
203.058657
 30
0.0
 11
376.439321
 21
202.774996
 31
0.0
  0
ARC
  5
5B8
100
AcDbEntity
  8
1
  6
DOT
 62
           9
100
AcDbCircle
 10
373.453488
 20
200.95083
 30
0.0
 40
4.497005
100
AcDbArc
 50
32.32733
 51
147.67267
  0
LINE
  5
5B9
100
AcDbEntity
  8
1
  6
DOT
 62
           9
100
AcDbLine
 10
369.653488
 20
203.355628
 30
0.0
 11
370.069902
 21
203.058657
 31
0.0
  0
LINE
  5
5BA
100
AcDbEntity
  8
1
  6
DOT
 62
           9
100
AcDbLine
 10
370.069902
 20
203.058657
 30
0.0
 11
370.467654
 21
202.774996
 31
0.0
  0
POLYLINE
  5
5BB
100
AcDbEntity
  8
1
  6
DOT
 62
           9
100
AcDb2dPolyline
 66
           1
 10
0.0
 20
0.0
 30
0.0
  0
VERTEX
  5
5BC
100
AcDbEntity
  8
1
  6
DOT
 62
           9
100
AcDbVertex
100
AcDb2dVertex
 10
369.482004
 20
201.009085
 30
0.0
  0
VERTEX
  5
5BD
100
AcDbEntity
  8
1
  6
DOT
 62
           9
100
AcDbVertex
100
AcDb2dVertex
 10
369.522992
 20
201.853651
 30
0.0
  0
VERTEX
  5
5BE
100
AcDbEntity
  8
1
  6
DOT
 62
           9
100
AcDbVertex
100
AcDb2dVertex
 10
369.569648
 20
202.511397
 30
0.0
  0
SEQEND
  5
5BF
100
AcDbEntity
  8
1
  6
DOT
 62
           9
  0
POLYLINE
  5
5C0
100
AcDbEntity
  8
1
  6
DOT
 62
           9
100
AcDb2dPolyline
 66
           1
 10
0.0
 20
0.0
 30
0.0
  0
VERTEX
  5
5C1
100
AcDbEntity
  8
1
  6
DOT
 62
           9
100
AcDbVertex
100
AcDb2dVertex
 10
369.569648
 20
202.511397
 30
0.0
  0
VERTEX
  5
5C2
100
AcDbEntity
  8
1
  6
DOT
 62
           9
100
AcDbVertex
100
AcDb2dVertex
 10
369.580751
 20
202.64263
 30
0.0
  0
VERTEX
  5
5C3
100
AcDbEntity
  8
1
  6
DOT
 62
           9
100
AcDbVertex
100
AcDb2dVertex
 10
369.653488
 20
203.355628
 30
0.0
  0
SEQEND
  5
5C4
100
AcDbEntity
  8
1
  6
DOT
 62
           9
  0
LINE
  5
5C5
100
AcDbEntity
  8
1
  6
DOT
 62
           9
100
AcDbLine
 10
369.482004
 20
201.009085
 30
0.0
 11
369.60058
 21
200.791284
 31
0.0
  0
ARC
  5
5C6
100
AcDbEntity
  8
1
  6
DOT
 62
           9
100
AcDbCircle
 10
416.231332
 20
199.521359
 30
0.0
 40
46.777903
100
AcDbArc
 50
180.090055
 51
182.002755
  0
ARC
  5
5C7
100
AcDbEntity
  8
1
  6
DOT
 62
           9
100
AcDbCircle
 10
330.679209
 20
199.521294
 30
0.0
 40
46.774336
100
AcDbArc
 50
357.997172
 51
359.910018
  0
ARC
  5
5C8
100
AcDbEntity
  8
1
  6
DOT
 62
           9
100
AcDbCircle
 10
416.227766
 20
199.374377
 30
0.0
 40
46.774336
100
AcDbArc
 50
177.997172
 51
179.910018
  0
ARC
  5
5C9
100
AcDbEntity
  8
1
  6
DOT
 62
           9
100
AcDbCircle
 10
330.675643
 20
199.374312
 30
0.0
 40
46.777902
100
AcDbArc
 50
0.090055
 51
2.002755
  0
LINE
  5
5CA
100
AcDbEntity
  8
1
  6
DOT
 62
           9
100
AcDbLine
 10
377.453488
 20
199.447836
 30
0.0
 11
377.453488
 21
197.886586
 31
0.0
  0
LINE
  5
5CB
100
AcDbEntity
  8
1
  6
DOT
 62
           9
100
AcDbLine
 10
369.453488
 20
199.447836
 30
0.0
 11
369.453488
 21
201.009085
 31
0.0
  0
LINE
  5
5CC
100
AcDbEntity
  8
1
  6
DOT
 62
           9
100
AcDbLine
 10
369.453488
 20
197.886586
 30
0.0
 11
369.453488
 21
199.447836
 31
0.0
  0
LINE
  5
5CD
100
AcDbEntity
  8
1
  6
DOT
 62
           9
100
AcDbLine
 10
377.45104
 20
201.009085
 30
0.0
 11
377.453488
 21
201.009085
 31
0.0
  0
LINE
  5
5CE
100
AcDbEntity
  8
1
  6
DOT
 62
           9
100
AcDbLine
 10
377.453488
 20
200.62698
 30
0.0
 11
377.453488
 21
199.447836
 31
0.0
  0
LINE
  5
5CF
100
AcDbEntity
  8
1
  6
DOT
 62
           9
100
AcDbLine
 10
377.453488
 20
201.009085
 30
0.0
 11
377.453488
 21
200.62698
 31
0.0
  0
LINE
  5
5D0
100
AcDbEntity
  8
1
  6
CONTINUOUS
 62
           7
100
AcDbLine
 10
377.453488
 20
209.34795
 30
0.0
 11
377.453488
 21
205.192398
 31
0.0
  0
LINE
  5
5D1
100
AcDbEntity
  8
1
  6
DOT
 62
           9
100
AcDbLine
 10
377.453488
 20
205.192398
 30
0.0
 11
377.453488
 21
202.36374
 31
0.0
  0
LINE
  5
5D2
100
AcDbEntity
  8
1
  6
DOT
 62
           9
100
AcDbLine
 10
377.453488
 20
202.36374
 30
0.0
 11
377.453488
 21
201.009085
 31
0.0
  0
LINE
  5
5D3
100
AcDbEntity
  8
1
  6
DOT
 62
           9
100
AcDbLine
 10
377.453488
 20
197.886586
 30
0.0
 11
377.453488
 21
196.531931
 31
0.0
  0
LINE
  5
5D4
100
AcDbEntity
  8
1
  6
DOT
 62
           9
100
AcDbLine
 10
377.453488
 20
196.531931
 30
0.0
 11
377.453488
 21
193.703273
 31
0.0
  0
LINE
  5
5D5
100
AcDbEntity
  8
1
  6
CONTINUOUS
 62
           7
100
AcDbLine
 10
377.453488
 20
193.703273
 30
0.0
 11
377.453488
 21
189.547722
 31
0.0
  0
LINE
  5
5D6
100
AcDbEntity
  8
1
  6
DOT
 62
           9
100
AcDbLine
 10
369.453488
 20
201.009085
 30
0.0
 11
369.453488
 21
202.36374
 31
0.0
  0
LINE
  5
5D7
100
AcDbEntity
  8
1
  6
DOT
 62
           9
100
AcDbLine
 10
369.453488
 20
202.36374
 30
0.0
 11
369.453488
 21
205.192398
 31
0.0
  0
LINE
  5
5D8
100
AcDbEntity
  8
1
  6
CONTINUOUS
 62
           7
100
AcDbLine
 10
369.453488
 20
205.192398
 30
0.0
 11
369.453488
 21
209.34795
 31
0.0
  0
LINE
  5
5D9
100
AcDbEntity
  8
1
  6
CONTINUOUS
 62
           7
100
AcDbLine
 10
369.453488
 20
189.547722
 30
0.0
 11
369.453488
 21
193.703273
 31
0.0
  0
LINE
  5
5DA
100
AcDbEntity
  8
1
  6
DOT
 62
           9
100
AcDbLine
 10
369.453488
 20
193.703273
 30
0.0
 11
369.453488
 21
196.531931
 31
0.0
  0
LINE
  5
5DB
100
AcDbEntity
  8
1
  6
DOT
 62
           9
100
AcDbLine
 10
369.453488
 20
196.531931
 30
0.0
 11
369.453488
 21
197.886586
 31
0.0
  0
ARC
  5
5DC
100
AcDbEntity
  8
1
  6
CONTINUOUS
 62
           7
100
AcDbCircle
 10
377.253488
 20
210.14795
 30
0.0
 40
0.2
100
AcDbArc
 50
0.0
 51
90.0
  0
LINE
  5
5DD
100
AcDbEntity
  8
1
  6
CONTINUOUS
 62
           7
100
AcDbLine
 10
377.453488
 20
210.14795
 30
0.0
 11
377.453488
 21
209.34795
 31
0.0
  0
LINE
  5
5DE
100
AcDbEntity
  8
1
  6
CONTINUOUS
 62
           7
100
AcDbLine
 10
377.253488
 20
210.34795
 30
0.0
 11
369.653488
 21
210.34795
 31
0.0
  0
ARC
  5
5DF
100
AcDbEntity
  8
1
  6
CONTINUOUS
 62
           7
100
AcDbCircle
 10
369.653488
 20
188.747722
 30
0.0
 40
0.2
100
AcDbArc
 50
180.0
 51
270.0
  0
LINE
  5
5E0
100
AcDbEntity
  8
1
  6
CONTINUOUS
 62
           7
100
AcDbLine
 10
369.453488
 20
188.747722
 30
0.0
 11
369.453488
 21
189.547722
 31
0.0
  0
LINE
  5
5E1
100
AcDbEntity
  8
1
  6
CONTINUOUS
 62
           7
100
AcDbLine
 10
377.253488
 20
188.547722
 30
0.0
 11
369.653488
 21
188.547722
 31
0.0
  0
ARC
  5
5E2
100
AcDbEntity
  8
1
  6
CONTINUOUS
 62
           7
100
AcDbCircle
 10
377.253488
 20
188.747722
 30
0.0
 40
0.2
100
AcDbArc
 50
270.0
 51
0.0
  0
LINE
  5
5E3
100
AcDbEntity
  8
1
  6
CONTINUOUS
 62
           7
100
AcDbLine
 10
377.453488
 20
189.547722
 30
0.0
 11
377.453488
 21
188.747722
 31
0.0
  0
ARC
  5
5E4
100
AcDbEntity
  8
1
  6
CONTINUOUS
 62
           7
100
AcDbCircle
 10
369.653488
 20
210.14795
 30
0.0
 40
0.2
100
AcDbArc
 50
90.0
 51
180.0
  0
LINE
  5
5E5
100
AcDbEntity
  8
1
  6
CONTINUOUS
 62
           7
100
AcDbLine
 10
369.453488
 20
209.34795
 30
0.0
 11
369.453488
 21
210.14795
 31
0.0
  0
POLYLINE
  5
5E6
100
AcDbEntity
  8
1
  6
DOT
 62
           9
100
AcDb2dPolyline
 66
           1
 10
0.0
 20
0.0
 30
0.0
  0
VERTEX
  5
5E7
100
AcDbEntity
  8
1
  6
DOT
 62
           9
100
AcDbVertex
100
AcDb2dVertex
 10
377.253488
 20
209.270994
 30
0.0
  0
VERTEX
  5
5E8
100
AcDbEntity
  8
1
  6
DOT
 62
           9
100
AcDbVertex
100
AcDb2dVertex
 10
377.356308
 20
209.242539
 30
0.0
  0
VERTEX
  5
5E9
100
AcDbEntity
  8
1
  6
DOT
 62
           9
100
AcDbVertex
100
AcDb2dVertex
 10
377.429872
 20
209.165273
 30
0.0
  0
VERTEX
  5
5EA
100
AcDbEntity
  8
1
  6
DOT
 62
           9
100
AcDbVertex
100
AcDb2dVertex
 10
377.453488
 20
209.070994
 30
0.0
  0
SEQEND
  5
5EB
100
AcDbEntity
  8
1
  6
DOT
 62
           9
  0
POLYLINE
  5
5EC
100
AcDbEntity
  8
1
  6
DOT
 62
           9
100
AcDb2dPolyline
 66
           1
 10
0.0
 20
0.0
 30
0.0
  0
VERTEX
  5
5ED
100
AcDbEntity
  8
1
  6
DOT
 62
           9
100
AcDbVertex
100
AcDb2dVertex
 10
369.453488
 20
209.070994
 30
0.0
  0
VERTEX
  5
5EE
100
AcDbEntity
  8
1
  6
DOT
 62
           9
100
AcDbVertex
100
AcDb2dVertex
 10
369.481942
 20
209.173814
 30
0.0
  0
VERTEX
  5
5EF
100
AcDbEntity
  8
1
  6
DOT
 62
           9
100
AcDbVertex
100
AcDb2dVertex
 10
369.559208
 20
209.247378
 30
0.0
  0
VERTEX
  5
5F0
100
AcDbEntity
  8
1
  6
DOT
 62
           9
100
AcDbVertex
100
AcDb2dVertex
 10
369.653488
 20
209.270994
 30
0.0
  0
SEQEND
  5
5F1
100
AcDbEntity
  8
1
  6
DOT
 62
           9
  0
POLYLINE
  5
5F2
100
AcDbEntity
  8
1
  6
DOT
 62
           9
100
AcDb2dPolyline
 66
           1
 10
0.0
 20
0.0
 30
0.0
  0
VERTEX
  5
5F3
100
AcDbEntity
  8
1
  6
DOT
 62
           9
100
AcDbVertex
100
AcDb2dVertex
 10
369.653488
 20
189.624332
 30
0.0
  0
VERTEX
  5
5F4
100
AcDbEntity
  8
1
  6
DOT
 62
           9
100
AcDbVertex
100
AcDb2dVertex
 10
369.550667
 20
189.652786
 30
0.0
  0
VERTEX
  5
5F5
100
AcDbEntity
  8
1
  6
DOT
 62
           9
100
AcDbVertex
100
AcDb2dVertex
 10
369.477103
 20
189.730053
 30
0.0
  0
VERTEX
  5
5F6
100
AcDbEntity
  8
1
  6
DOT
 62
           9
100
AcDbVertex
100
AcDb2dVertex
 10
369.453488
 20
189.824332
 30
0.0
  0
SEQEND
  5
5F7
100
AcDbEntity
  8
1
  6
DOT
 62
           9
  0
POLYLINE
  5
5F8
100
AcDbEntity
  8
1
  6
DOT
 62
           9
100
AcDb2dPolyline
 66
           1
 10
0.0
 20
0.0
 30
0.0
  0
VERTEX
  5
5F9
100
AcDbEntity
  8
1
  6
DOT
 62
           9
100
AcDbVertex
100
AcDb2dVertex
 10
377.453488
 20
189.824332
 30
0.0
  0
VERTEX
  5
5FA
100
AcDbEntity
  8
1
  6
DOT
 62
           9
100
AcDbVertex
100
AcDb2dVertex
 10
377.425033
 20
189.721511
 30
0.0
  0
VERTEX
  5
5FB
100
AcDbEntity
  8
1
  6
DOT
 62
           9
100
AcDbVertex
100
AcDb2dVertex
 10
377.347767
 20
189.647948
 30
0.0
  0
VERTEX
  5
5FC
100
AcDbEntity
  8
1
  6
DOT
 62
           9
100
AcDbVertex
100
AcDb2dVertex
 10
377.253488
 20
189.624332
 30
0.0
  0
SEQEND
  5
5FD
100
AcDbEntity
  8
1
  6
DOT
 62
           9
  0
LINE
  5
5FE
100
AcDbEntity
  8
1
  6
DOT
 62
           9
100
AcDbLine
 10
377.253488
 20
189.624332
 30
0.0
 11
369.653488
 21
189.624332
 31
0.0
  0
LINE
  5
5FF
100
AcDbEntity
  8
1
  6
DOT
 62
           9
100
AcDbLine
 10
377.253488
 20
209.270994
 30
0.0
 11
369.653488
 21
209.270994
 31
0.0
  0
LINE
  5
600
100
AcDbEntity
  8
1
  6
CONTINUOUS
 62
           7
100
AcDbLine
 10
376.453488
 20
187.843534
 30
0.0
 11
370.453488
 21
187.843534
 31
0.0
  0
LINE
  5
601
100
AcDbEntity
  8
1
  6
CONTINUOUS
 62
           7
100
AcDbLine
 10
376.453488
 20
187.686908
 30
0.0
 11
376.453488
 21
187.843534
 31
0.0
  0
LINE
  5
602
100
AcDbEntity
  8
1
  6
CONTINUOUS
 62
           7
100
AcDbLine
 10
370.453488
 20
187.686908
 30
0.0
 11
370.453488
 21
187.843534
 31
0.0
  0
LINE
  5
603
100
AcDbEntity
  8
1
  6
CONTINUOUS
 62
           7
100
AcDbLine
 10
370.453488
 20
187.843534
 30
0.0
 11
370.453488
 21
188.547722
 31
0.0
  0
LINE
  5
604
100
AcDbEntity
  8
1
  6
DOT
 62
           9
100
AcDbLine
 10
370.453488
 20
188.547722
 30
0.0
 11
370.453488
 21
189.624332
 31
0.0
  0
LINE
  5
605
100
AcDbEntity
  8
1
  6
CONTINUOUS
 62
           7
100
AcDbLine
 10
376.453488
 20
187.843534
 30
0.0
 11
376.453488
 21
188.547722
 31
0.0
  0
LINE
  5
606
100
AcDbEntity
  8
1
  6
DOT
 62
           9
100
AcDbLine
 10
376.453488
 20
188.547722
 30
0.0
 11
376.453488
 21
189.624332
 31
0.0
  0
LINE
  5
607
100
AcDbEntity
  8
1
  6
CONTINUOUS
 62
           7
100
AcDbLine
 10
376.453488
 20
187.536825
 30
0.0
 11
376.453488
 21
187.686908
 31
0.0
  0
LINE
  5
608
100
AcDbEntity
  8
1
  6
CONTINUOUS
 62
           7
100
AcDbLine
 10
370.453488
 20
187.536825
 30
0.0
 11
370.453488
 21
187.686908
 31
0.0
  0
LINE
  5
609
100
AcDbEntity
  8
1
  6
DOT
 62
           9
100
AcDbLine
 10
376.453488
 20
187.905204
 30
0.0
 11
370.453488
 21
187.905204
 31
0.0
  0
LINE
  5
60A
100
AcDbEntity
  8
1
  6
DOT
 62
           9
100
AcDbLine
 10
376.453488
 20
188.323789
 30
0.0
 11
370.453488
 21
188.323789
 31
0.0
  0
LINE
  5
60B
100
AcDbEntity
  8
1
  6
DOT
 62
           9
100
AcDbLine
 10
376.453488
 20
187.917604
 30
0.0
 11
370.453488
 21
187.917604
 31
0.0
  0
LINE
  5
60C
100
AcDbEntity
  8
1
  6
DOT
 62
           9
100
AcDbLine
 10
376.453488
 20
188.321033
 30
0.0
 11
370.453488
 21
188.321033
 31
0.0
  0
LINE
  5
60D
100
AcDbEntity
  8
1
  6
DOT
 62
           9
100
AcDbLine
 10
376.453488
 20
187.909681
 30
0.0
 11
370.453488
 21
187.909681
 31
0.0
  0
LINE
  5
60E
100
AcDbEntity
  8
1
  6
DOT
 62
           9
100
AcDbLine
 10
376.453488
 20
187.885219
 30
0.0
 11
370.453488
 21
187.885219
 31
0.0
  0
LINE
  5
60F
100
AcDbEntity
  8
1
  6
DOT
 62
           9
100
AcDbLine
 10
376.453488
 20
188.310351
 30
0.0
 11
370.453488
 21
188.310351
 31
0.0
  0
LINE
  5
610
100
AcDbEntity
  8
1
  6
DOT
 62
           9
100
AcDbLine
 10
376.453488
 20
188.32
 30
0.0
 11
370.453488
 21
188.32
 31
0.0
  0
LINE
  5
611
100
AcDbEntity
  8
1
  6
CONTINUOUS
 62
           7
100
AcDbLine
 10
369.453488
 20
186.747468
 30
0.0
 11
369.453488
 21
188.747722
 31
0.0
  0
LINE
  5
612
100
AcDbEntity
  8
1
  6
CONTINUOUS
 62
           7
100
AcDbLine
 10
369.453488
 20
210.14795
 30
0.0
 11
369.453488
 21
212.147858
 31
0.0
  0
LINE
  5
613
100
AcDbEntity
  8
1
  6
CONTINUOUS
 62
           7
100
AcDbLine
 10
377.453488
 20
212.147858
 30
0.0
 11
377.453488
 21
210.14795
 31
0.0
  0
LINE
  5
614
100
AcDbEntity
  8
1
  6
CONTINUOUS
 62
           7
100
AcDbLine
 10
377.453488
 20
188.747722
 30
0.0
 11
377.453488
 21
186.747468
 31
0.0
  0
ARC
  5
615
100
AcDbEntity
  8
1
  6
CONTINUOUS
 62
           7
100
AcDbCircle
 10
377.253488
 20
212.147858
 30
0.0
 40
0.2
100
AcDbArc
 50
0.0
 51
90.0
  0
ARC
  5
616
100
AcDbEntity
  8
1
  6
CONTINUOUS
 62
           7
100
AcDbCircle
 10
377.253488
 20
186.747468
 30
0.0
 40
0.2
100
AcDbArc
 50
270.0
 51
0.0
  0
LINE
  5
617
100
AcDbEntity
  8
1
  6
CONTINUOUS
 62
           7
100
AcDbLine
 10
369.653488
 20
212.347858
 30
0.0
 11
377.253488
 21
212.347858
 31
0.0
  0
ARC
  5
618
100
AcDbEntity
  8
1
  6
CONTINUOUS
 62
           7
100
AcDbCircle
 10
369.653488
 20
212.147858
 30
0.0
 40
0.2
100
AcDbArc
 50
90.0
 51
180.0
  0
LINE
  5
619
100
AcDbEntity
  8
1
  6
CONTINUOUS
 62
           7
100
AcDbLine
 10
377.253488
 20
186.547468
 30
0.0
 11
369.653488
 21
186.547468
 31
0.0
  0
ARC
  5
61A
100
AcDbEntity
  8
1
  6
CONTINUOUS
 62
           7
100
AcDbCircle
 10
369.653488
 20
186.747468
 30
0.0
 40
0.2
100
AcDbArc
 50
180.0
 51
270.0
  0
LINE
  5
61B
100
AcDbEntity
  8
1
  6
DOT
 62
           9
100
AcDbLine
 10
374.744669
 20
205.954011
 30
0.0
 11
372.499602
 21
206.668648
 31
0.0
  0
LINE
  5
61C
100
AcDbEntity
  8
1
  6
DOT
 62
           9
100
AcDbLine
 10
372.499639
 20
192.226337
 30
0.0
 11
374.744718
 21
192.941085
 31
0.0
  0
ARC
  5
61D
100
AcDbEntity
  8
1
  6
DOT
 62
           9
100
AcDbCircle
 10
372.226616
 20
205.811048
 30
0.0
 40
0.9
100
AcDbArc
 50
72.342982
 51
180.0
  0
ARC
  5
61E
100
AcDbEntity
  8
1
  6
DOT
 62
           9
100
AcDbCircle
 10
372.226616
 20
193.083925
 30
0.0
 40
0.9
100
AcDbArc
 50
180.0
 51
287.659495
  0
ARC
  5
61F
100
AcDbEntity
  8
1
  6
DOT
 62
           9
100
AcDbCircle
 10
374.380687
 20
204.810544
 30
0.0
 40
1.2
100
AcDbArc
 50
0.0
 51
72.342982
  0
ARC
  5
620
100
AcDbEntity
  8
1
  6
DOT
 62
           9
100
AcDbCircle
 10
374.380687
 20
194.084536
 30
0.0
 40
1.2
100
AcDbArc
 50
287.659495
 51
0.0
  0
LINE
  5
621
100
AcDbEntity
  8
1
  6
DOT
 62
           9
100
AcDbLine
 10
371.326616
 20
205.811048
 30
0.0
 11
371.326616
 21
193.083925
 31
0.0
  0
LINE
  5
622
100
AcDbEntity
  8
1
  6
DOT
 62
           9
100
AcDbLine
 10
375.580687
 20
194.084536
 30
0.0
 11
375.580687
 21
204.810544
 31
0.0
  0
ARC
  5
623
100
AcDbEntity
  8
1
  6
DOT
 62
           9
100
AcDbCircle
 10
374.003653
 20
194.647837
 30
0.0
 40
0.2
100
AcDbArc
 50
270.0
 51
0.0
  0
ARC
  5
624
100
AcDbEntity
  8
1
  6
DOT
 62
           9
100
AcDbCircle
 10
374.003653
 20
204.247837
 30
0.0
 40
0.2
100
AcDbArc
 50
0.0
 51
90.0
  0
LINE
  5
625
100
AcDbEntity
  8
1
  6
DOT
 62
           9
100
AcDbLine
 10
374.203653
 20
204.247837
 30
0.0
 11
374.203653
 21
194.647837
 31
0.0
  0
ARC
  5
626
100
AcDbEntity
  8
1
  6
DOT
 62
           9
100
AcDbCircle
 10
372.226616
 20
205.811048
 30
0.0
 40
0.6
100
AcDbArc
 50
72.342982
 51
180.0
  0
LINE
  5
627
100
AcDbEntity
  8
1
  6
DOT
 62
           9
100
AcDbLine
 10
371.626616
 20
205.811048
 30
0.0
 11
371.626616
 21
193.083925
 31
0.0
  0
ARC
  5
628
100
AcDbEntity
  8
1
  6
DOT
 62
           9
100
AcDbCircle
 10
372.226616
 20
193.083925
 30
0.0
 40
0.6
100
AcDbArc
 50
180.0
 51
287.659495
  0
LINE
  5
629
100
AcDbEntity
  8
1
  6
DOT
 62
           9
100
AcDbLine
 10
372.408632
 20
192.5122
 30
0.0
 11
374.65371
 21
193.226947
 31
0.0
  0
LINE
  5
62A
100
AcDbEntity
  8
1
  6
DOT
 62
           9
100
AcDbLine
 10
374.653673
 20
205.668144
 30
0.0
 11
372.408607
 21
206.382781
 31
0.0
  0
ARC
  5
62B
100
AcDbEntity
  8
1
  6
DOT
 62
           9
100
AcDbCircle
 10
374.380687
 20
194.084536
 30
0.0
 40
0.9
100
AcDbArc
 50
287.659495
 51
0.0
  0
ARC
  5
62C
100
AcDbEntity
  8
1
  6
DOT
 62
           9
100
AcDbCircle
 10
374.380687
 20
204.810544
 30
0.0
 40
0.9
100
AcDbArc
 50
0.0
 51
72.342982
  0
LINE
  5
62D
100
AcDbEntity
  8
1
  6
DOT
 62
           9
100
AcDbLine
 10
375.280687
 20
194.084536
 30
0.0
 11
375.280687
 21
204.810544
 31
0.0
  0
ARC
  5
62E
100
AcDbEntity
  8
1
  6
DOT
 62
           9
100
AcDbCircle
 10
372.903653
 20
194.647837
 30
0.0
 40
0.2
100
AcDbArc
 50
180.0
 51
270.0
  0
ARC
  5
62F
100
AcDbEntity
  8
1
  6
DOT
 62
           9
100
AcDbCircle
 10
372.903653
 20
204.247837
 30
0.0
 40
0.2
100
AcDbArc
 50
90.0
 51
180.0
  0
LINE
  5
630
100
AcDbEntity
  8
1
  6
DOT
 62
           9
100
AcDbLine
 10
372.703653
 20
194.647837
 30
0.0
 11
372.703653
 21
204.247837
 31
0.0
  0
LINE
  5
631
100
AcDbEntity
  8
1
  6
DOT
 62
           9
100
AcDbLine
 10
372.903653
 20
204.447837
 30
0.0
 11
374.003653
 21
204.447837
 31
0.0
  0
LINE
  5
632
100
AcDbEntity
  8
1
  6
CONTINUOUS
 62
           7
100
AcDbLine
 10
376.453488
 20
211.35885
 30
0.0
 11
370.453488
 21
211.35885
 31
0.0
  0
POLYLINE
  5
633
100
AcDbEntity
  8
1
  6
DOT
 62
           9
100
AcDb2dPolyline
 66
           1
 10
0.0
 20
0.0
 30
0.0
  0
VERTEX
  5
634
100
AcDbEntity
  8
1
  6
DOT
 62
           9
100
AcDbVertex
100
AcDb2dVertex
 10
377.452218
 20
200.6242
 30
0.0
  0
VERTEX
  5
635
100
AcDbEntity
  8
1
  6
DOT
 62
           9
100
AcDbVertex
100
AcDb2dVertex
 10
377.451842
 20
200.769014
 30
0.0
  0
VERTEX
  5
636
100
AcDbEntity
  8
1
  6
DOT
 62
           9
100
AcDbVertex
100
AcDb2dVertex
 10
377.451048
 20
201.009085
 30
0.0
  0
SEQEND
  5
637
100
AcDbEntity
  8
1
  6
DOT
 62
           9
  0
LINE
  5
638
100
AcDbEntity
  8
1
  6
CONTINUOUS
 62
           7
100
AcDbLine
 10
370.453488
 20
187.536825
 30
0.0
 11
376.453488
 21
187.536825
 31
0.0
  0
ENDSEC
  0
SECTION
  2
OBJECTS
  0
DICTIONARY
  5
19
100
AcDbDictionary
  3
ACAD_GROUP
350
1A
  3
ACAD_MLINESTYLE
350
1B
  3
DWGPROPS
350
639
  0
DICTIONARY
  5
1A
102
{ACAD_REACTORS
330
19
102
}
100
AcDbDictionary
  0
DICTIONARY
  5
1B
102
{ACAD_REACTORS
330
19
102
}
100
AcDbDictionary
  3
STANDARD
350
1C
  0
MLINESTYLE
  5
1C
102
{ACAD_REACTORS
330
1B
102
}
100
AcDbMlineStyle
  2
STANDARD
 70
           0
  3

 62
           0
 51
90.0
 52
90.0
 71
           2
 49
0.5
 62
         256
  6
BYLAYER
 49
-0.5
 62
         256
  6
BYLAYER
  0
XRECORD
  5
639
100
AcDbXrecord
  1
DWGPROPS COOKIE
  2

  3

  4

  0
ENDSEC
  0
EOF
