  0
SECTION
  2
HEADER
  9
$ACADVER
  1
AC1015
  9
$ACADMAINTVER
 70
     6
  9
$DWGCODEPAGE
  3
DOS932
  9
$INSBASE
 10
0.0
 20
0.0
 30
0.0
  9
$EXTMIN
 10
-282.048298
 20
0.0
 30
0.0
  9
$EXTMAX
 10
747.951702
 20
297.0
 30
5.0
  9
$LIMMIN
 10
-282.048298
 20
0.0
  9
$LIMMAX
 10
747.951702
 20
297.0
  9
$ORTHOMODE
 70
     0
  9
$REGENMODE
 70
     1
  9
$FILLMODE
 70
     1
  9
$QTEXTMODE
 70
     0
  9
$MIRRTEXT
 70
     1
  9
$LTSCALE
 40
10.0
  9
$ATTMODE
 70
     1
  9
$TEXTSIZE
 40
0.2
  9
$TRACEWID
 40
0.05
  9
$TEXTSTYLE
  7
Standard
  9
$CLAYER
  8
0
  9
$CELTYPE
  6
Continuous
  9
$CECOLOR
 62
   256
  9
$CELTSCALE
 40
1.0
  9
$DISPSILH
 70
     0
  9
$DIMSCALE
 40
1.0
  9
$DIMASZ
 40
1.8
  9
$DIMEXO
 40
1.8
  9
$DIMDLI
 40
0.38
  9
$DIMRND
 40
0.0
  9
$DIMDLE
 40
0.0
  9
$DIMEXE
 40
1.8
  9
$DIMTP
 40
0.0
  9
$DIMTM
 40
0.0
  9
$DIMTXT
 40
6.0
  9
$DIMCEN
 40
0.09
  9
$DIMTSZ
 40
0.0
  9
$DIMTOL
 70
     0
  9
$DIMLIM
 70
     0
  9
$DIMTIH
 70
     0
  9
$DIMTOH
 70
     0
  9
$DIMSE1
 70
     0
  9
$DIMSE2
 70
     0
  9
$DIMTAD
 70
     1
  9
$DIMZIN
 70
     0
  9
$DIMBLK
  1

  9
$DIMASO
 70
     1
  9
$DIMSHO
 70
     1
  9
$DIMPOST
  1

  9
$DIMAPOST
  1

  9
$DIMALT
 70
     0
  9
$DIMALTD
 70
     2
  9
$DIMALTF
 40
25.4
  9
$DIMLFAC
 40
1.0
  9
$DIMTOFL
 70
     0
  9
$DIMTVP
 40
0.0
  9
$DIMTIX
 70
     0
  9
$DIMSOXD
 70
     0
  9
$DIMSAH
 70
     0
  9
$DIMBLK1
  1

  9
$DIMBLK2
  1

  9
$DIMSTYLE
  2
Standard
  9
$DIMCLRD
 70
     7
  9
$DIMCLRE
 70
     7
  9
$DIMCLRT
 70
     7
  9
$DIMTFAC
 40
0.7
  9
$DIMGAP
 40
1.2
  9
$DIMJUST
 70
     0
  9
$DIMSD1
 70
     0
  9
$DIMSD2
 70
     0
  9
$DIMTOLJ
 70
     1
  9
$DIMTZIN
 70
     0
  9
$DIMALTZ
 70
     0
  9
$DIMALTTZ
 70
     0
  9
$DIMUPT
 70
     0
  9
$DIMDEC
 70
     7
  9
$DIMTDEC
 70
     4
  9
$DIMALTU
 70
     2
  9
$DIMALTTD
 70
     2
  9
$DIMTXSTY
  7
Standard
  9
$DIMAUNIT
 70
     0
  9
$DIMADEC
 70
     0
  9
$DIMALTRND
 40
0.0
  9
$DIMAZIN
 70
     0
  9
$DIMDSEP
 70
     0
  9
$DIMATFIT
 70
     3
  9
$DIMFRAC
 70
     0
  9
$DIMLDRBLK
  1

  9
$DIMLUNIT
 70
     2
  9
$DIMLWD
 70
     0
  9
$DIMLWE
 70
     0
  9
$DIMTMOVE
 70
     0
  9
$LUNITS
 70
     2
  9
$LUPREC
 70
     4
  9
$SKETCHINC
 40
0.1
  9
$FILLETRAD
 40
0.0
  9
$AUNITS
 70
     0
  9
$AUPREC
 70
     0
  9
$MENU
  1
acad
  9
$ELEVATION
 40
0.0
  9
$PELEVATION
 40
0.0
  9
$THICKNESS
 40
0.0
  9
$LIMCHECK
 70
     0
  9
$CHAMFERA
 40
0.0
  9
$CHAMFERB
 40
0.0
  9
$CHAMFERC
 40
0.0
  9
$CHAMFERD
 40
0.0
  9
$SKPOLY
 70
     0
  9
$TDCREATE
 40
2459173.494363426
  9
$TDUCREATE
 40
0.000000000
  9
$TDUPDATE
 40
2459173.119247685
  9
$TDUUPDATE
 40
0.000000000
  9
$TDINDWG
 40
0.0000000000
  9
$TDUSRTIMER
 40
0.0000000000
  9
$USRTIMER
 70
     1
  9
$ANGBASE
 50
0.0
  9
$ANGDIR
 70
     0
  9
$PDMODE
 70
     0
  9
$PDSIZE
 40
0.0
  9
$PLINEWID
 40
0.0
  9
$SPLFRAME
 70
     0
  9
$SPLINETYPE
 70
     6
  9
$SPLINESEGS
 70
     8
  9
$HANDSEED
  5
4BE
  9
$SURFTAB1
 70
     6
  9
$SURFTAB2
 70
     6
  9
$SURFTYPE
 70
     6
  9
$SURFU
 70
     6
  9
$SURFV
 70
     6
  9
$UCSBASE
  2

  9
$UCSNAME
  2

  9
$UCSORG
 10
0.0
 20
0.0
 30
0.0
  9
$UCSXDIR
 10
1.0
 20
0.0
 30
0.0
  9
$UCSYDIR
 10
0.0
 20
1.0
 30
0.0
  9
$UCSORTHOREF
  2

  9
$UCSORTHOVIEW
 70
     0
  9
$UCSORGTOP
 10
0.0
 20
0.0
 30
0.0
  9
$UCSORGBOTTOM
 10
0.0
 20
0.0
 30
0.0
  9
$UCSORGLEFT
 10
0.0
 20
0.0
 30
0.0
  9
$UCSORGRIGHT
 10
0.0
 20
0.0
 30
0.0
  9
$UCSORGFRONT
 10
0.0
 20
0.0
 30
0.0
  9
$UCSORGBACK
 10
0.0
 20
0.0
 30
0.0
  9
$PUCSBASE
  2

  9
$PUCSNAME
  2

  9
$PUCSORG
 10
0.0
 20
0.0
 30
0.0
  9
$PUCSXDIR
 10
1.0
 20
0.0
 30
0.0
  9
$PUCSYDIR
 10
0.0
 20
1.0
 30
0.0
  9
$PUCSORTHOREF
  2

  9
$PUCSORTHOVIEW
 70
     0
  9
$PUCSORGTOP
 10
0.0
 20
0.0
 30
0.0
  9
$PUCSORGBOTTOM
 10
0.0
 20
0.0
 30
0.0
  9
$PUCSORGLEFT
 10
0.0
 20
0.0
 30
0.0
  9
$PUCSORGRIGHT
 10
0.0
 20
0.0
 30
0.0
  9
$PUCSORGFRONT
 10
0.0
 20
0.0
 30
0.0
  9
$PUCSORGBACK
 10
0.0
 20
0.0
 30
0.0
  9
$USERI1
 70
     0
  9
$USERI2
 70
     0
  9
$USERI3
 70
     0
  9
$USERI4
 70
     0
  9
$USERI5
 70
     0
  9
$USERR1
 40
0.0
  9
$USERR2
 40
0.0
  9
$USERR3
 40
0.0
  9
$USERR4
 40
0.0
  9
$USERR5
 40
0.0
  9
$WORLDVIEW
 70
     1
  9
$SHADEDGE
 70
     3
  9
$SHADEDIF
 70
    70
  9
$TILEMODE
 70
     1
  9
$MAXACTVP
 70
    16
  9
$PINSBASE
 10
0.0
 20
0.0
 30
0.0
  9
$PLIMCHECK
 70
     0
  9
$PEXTMIN
 10
1.000000E+20
 20
1.000000E+20
 30
1.000000E+20
  9
$PEXTMAX
 10
-1.000000E+20
 20
-1.000000E+20
 30
-1.000000E+20
  9
$PLIMMIN
 10
0.0
 20
0.0
  9
$PLIMMAX
 10
12.0
 20
9.0
  9
$UNITMODE
 70
     0
  9
$VISRETAIN
 70
     0
  9
$PLINEGEN
 70
     1
  9
$PSLTSCALE
 70
     0
  9
$TREEDEPTH
 70
  3020
  9
$CMLSTYLE
  2
Standard
  9
$CMLJUST
 70
     0
  9
$CMLSCALE
 40
1.0
  9
$PROXYGRAPHICS
 70
     0
  9
$MEASUREMENT
 70
     0
  9
$CELWEIGHT
370
     0
  9
$ENDCAPS
280
     0
  9
$JOINSTYLE
280
     0
  9
$LWDISPLAY
290
     0
  9
$INSUNITS
 70
     0
  9
$HYPERLINKBASE
  1

  9
$STYLESHEET
  1

  9
$XEDIT
290
     1
  9
$CEPSNTYPE
380
     0
  9
$PSTYLEMODE
290
     1
  9
$FINGERPRINTGUID
  2

  9
$VERSIONGUID
  2

  9
$EXTNAMES
290
     1
  9
$PSVPSCALE
 40
0.0
  0
ENDSEC
  0
SECTION
  2
CLASSES
  0
CLASS
  1
LWPOLYLINE
  2
AcDbPolyline
  3
AutoCAD 2000
 90
        0
280
     0
281
     1
  0
CLASS
  1
IMAGE
  2
AcDbRasterImage
  3
ISM
 90
      127
280
     0
281
     1
  0
CLASS
  1
OLE2FRAME
  2
AcDbOle2Frame
  3
AutoCAD 2000
 90
        0
280
     0
281
     1
  0
CLASS
  1
HATCH
  2
AcDbHatch
  3
AutoCAD 2000
 90
        0
280
     0
281
     1
  0
CLASS
  1
DICTIONARYVAR
  2
AcDbDictionaryVar
  3
AutoCAD 2000
 90
        0
280
     0
281
     0
  0
CLASS
  1
RASTERVARIABLES
  2
AcDbRasterVariables
  3
ISM
 90
        0
280
     0
281
     0
  0
CLASS
  1
IMAGEDEF
  2
AcDbRasterImageDef
  3
ISM
 90
        0
280
     0
281
     0
  0
CLASS
  1
IMAGEDEF_REACTOR
  2
AcDbRasterImageDefReactor
  3
ISM
 90
        1
280
     0
281
     0
  0
CLASS
  1
IDBUFFER
  2
AcDbIdBuffer
  3
AutoCAD 2000
 90
        0
280
     0
281
     0
  0
CLASS
  1
SPATIAL_FILTER
  2
AcDbSpatialFilter
  3
AutoCAD 2000
 90
        0
280
     0
281
     0
  0
CLASS
  1
XRECORD
  2
AcDbXrecord
  3
AutoCAD 2000
 90
        0
280
     0
281
     0
  0
CLASS
  1
SORTENTSTABLE
  2
AcDbSortentsTable
  3
AutoCAD 2000
 90
        0
280
     0
281
     0
  0
CLASS
  1
LAYER_INDEX
  2
AcDbLayerIndex
  3
AutoCAD 2000
 90
        0
280
     0
281
     0
  0
CLASS
  1
SPATIAL_INDEX
  2
AcDbSpatialIndex
  3
AutoCAD 2000
 90
        0
280
     0
281
     0
  0
CLASS
  1
OBJECT_PTR
  2
CAseDLPNTableRecord
  3
"ASE-LPNTableRecord"
 90
        1
280
     0
281
     0
  0
CLASS
  1
LAYOUT
  2
AcDbLayout
  3
AutoCAD 2000
 90
        0
280
     0
281
     0
  0
CLASS
  1
PLOTSETTINGS
  2
AcDbPlotSettings
  3
AutoCAD 2000
 90
        0
280
     0
281
     0
  0
CLASS
  1
ACDBDICTIONARYWDFLT
  2
AcDbDictionaryWithDefault
  3
AutoCAD 2000
 90
        0
280
     0
281
     0
  0
CLASS
  1
ACDBPLACEHOLDER
  2
AcDbPlaceHolder
  3
AutoCAD 2000
 90
        0
280
     0
281
     0
  0
CLASS
  1
VBA_PROJECT
  2
AcDbVbaProject
  3
acadvba
 90
        0
280
     0
281
     0
  0
CLASS
  1
WIPEOUT
  2
AcDbWipeout
  3
WipeOut|AutoCAD Express Tool|expresstools@autodesk.com
 90
      127
280
     0
281
     1
  0
CLASS
  1
WIPEOUTVARIABLES
  2
AcDbWipeoutVariables
  3
WipeOut|AutoCAD Express Tool|expresstools@autodesk.com
 90
        0
280
     0
281
     0
  0
CLASS
  1
RTEXT
  2
RText
  3
RText|AutoCAD Express Tool|expresstools@autodesk.com
 90
        0
280
     0
281
     1
  0
CLASS
  1
ARCALIGNEDTEXT
  2
AcDbArcAlignedText
  3
ATEXT|AutoCAD Express Tool|expresstools@autodesk.com
 90
        0
280
     0
281
     1
  0
ENDSEC
  0
SECTION
  2
TABLES
  0
TABLE
  2
VPORT
  5
7
100
AcDbSymbolTable
 70
     1
  0
VPORT
  5
15
100
AcDbSymbolTableRecord
100
AcDbViewportTableRecord
  2
*ACTIVE
 70
     0
 10
0.0
 20
0.0
 11
1.0
 21
1.0
 12
6.591288
 22
4.579184
 13
0.0
 23
0.0
 14
1.0
 24
1.0
 15
0.0
 25
0.0
 16
0.0
 26
0.0
 36
1.0
 17
0.0
 27
0.0
 37
0.0
 40
9.158369
 41
0.688564
 42
50.0
 43
0.0
 44
0.0
 50
0.0
 51
0.0
 71
     0
 72
   100
 73
     1
 74
     1
 75
     0
 76
     0
 77
     0
 78
     0
281
     0
 65
     0
110
0.0
120
0.0
130
0.0
111
1.0
121
0.0
131
0.0
112
0.0
122
1.0
132
0.0
345
0
346
0
 79
     0
146
0.0
  0
ENDTAB
  0
TABLE
  2
LTYPE
  5
4
100
AcDbSymbolTable
 70
     5
  0
LTYPE
  5
11
100
AcDbSymbolTableRecord
100
AcDbLinetypeTableRecord
  2
ByBlock
 70
    64
  3

 72
    65
 73
     0
 40
0.0
  0
LTYPE
  5
12
100
AcDbSymbolTableRecord
100
AcDbLinetypeTableRecord
  2
ByLayer
 70
    64
  3

 72
    65
 73
     0
 40
0.0
  0
LTYPE
  5
13
100
AcDbSymbolTableRecord
100
AcDbLinetypeTableRecord
  2
Continuous
 70
    64
  3
Solid line
 72
    65
 73
     0
 40
0.0
  0
LTYPE
  5
C3
100
AcDbSymbolTableRecord
100
AcDbLinetypeTableRecord
  2
DOT
 70
    64
  3
..............................................
 72
    65
 73
     2
 40
0.5
 49
0.25
 74
     0
 49
-0.25
 74
     0
  0
LTYPE
  5
2F7
100
AcDbSymbolTableRecord
100
AcDbLinetypeTableRecord
  2
CENTER
 70
    64
  3
____ _ ____ _ ____ _ ____ _ ____ _ ____ _ ____
 72
    65
 73
     4
 40
2.0
 49
1.25
 74
     0
 49
-0.25
 74
     0
 49
0.25
 74
     0
 49
-0.25
 74
     0
  0
ENDTAB
  0
TABLE
  2
LAYER
  5
2
100
AcDbSymbolTable
 70
     4
  0
LAYER
  5
14
100
AcDbSymbolTableRecord
100
AcDbLayerTableRecord
  2
0
 70
     0
 62
     7
  6
Continuous
290
     1
370
    -3
390
1D
  0
LAYER
  5
2B
100
AcDbSymbolTableRecord
100
AcDbLayerTableRecord
  2
256
 70
     0
 62
     7
  6
Continuous
290
     1
370
    -3
390
1D
  0
LAYER
  5
BC
100
AcDbSymbolTableRecord
100
AcDbLayerTableRecord
  2
1
 70
     0
 62
     7
  6
Continuous
290
     1
370
    -3
390
1D
  0
LAYER
  5
C2
100
AcDbSymbolTableRecord
100
AcDbLayerTableRecord
  2
5
 70
     0
 62
    -7
  6
Continuous
290
     1
370
    -3
390
1D
  0
ENDTAB
  0
TABLE
  2
STYLE
  5
3
100
AcDbSymbolTable
 70
     1
  0
STYLE
  5
17
100
AcDbSymbolTableRecord
100
AcDbTextStyleTableRecord
  2
Standard
 70
     0
 40
0.0
 41
1.0
 50
0.0
 71
     0
 42
0.0
  3
ＭＳ Ｐゴシック
  4

1001
ACAD
1000
ＭＳ Ｐゴシック
1071
        0
  0
ENDTAB
  0
TABLE
  2
VIEW
  5
5
100
AcDbSymbolTable
 70
     0
  0
ENDTAB
  0
TABLE
  2
UCS
  5
6
100
AcDbSymbolTable
 70
     0
  0
ENDTAB
  0
TABLE
  2
APPID
  5
8
100
AcDbSymbolTable
 70
     2
  0
APPID
  5
16
100
AcDbSymbolTableRecord
100
AcDbRegAppTableRecord
  2
ACAD
 70
     0
  0
APPID
  5
26
100
AcDbSymbolTableRecord
100
AcDbRegAppTableRecord
  2
TOPsolid_Draft
 70
     0
  0
ENDTAB
  0
TABLE
  2
DIMSTYLE
  5
9
100
AcDbSymbolTable
 70
     1
100
AcDbDimStyleTable
 71
     0
  0
DIMSTYLE
105
18
100
AcDbSymbolTableRecord
100
AcDbDimStyleTableRecord
  2
Standard
 70
     0
  3

  4

 40
1.0
 41
1.8
 42
1.8
 43
0.38
 44
1.8
 45
0.0
 46
0.0
 47
0.0
 48
0.0
 71
     0
 72
     0
 73
     0
 74
     0
 75
     0
 76
     0
 77
     1
 78
     0
 79
     0
140
6.0
141
0.09
142
0.0
143
25.4
144
1.0
145
0.0
146
0.7
147
1.2
148
0.0
170
     0
171
     2
172
     0
173
     0
174
     0
175
     0
176
     7
177
     7
178
     7
179
     0
271
     7
272
     4
273
     2
274
     2
275
     0
276
     0
277
     2
278
    46
279
     0
280
     0
281
     0
282
     0
283
     1
284
     0
285
     0
286
     0
288
     0
289
     3
340
17
341
0
342
0
343
0
344
0
371
    -2
372
    -2
  0
ENDTAB
  0
TABLE
  2
BLOCK_RECORD
  5
1
100
AcDbSymbolTable
 70
    15
  0
BLOCK_RECORD
  5
A
100
AcDbSymbolTableRecord
100
AcDbBlockTableRecord
  2
*MODEL_SPACE
340
20
  0
BLOCK_RECORD
  5
B
100
AcDbSymbolTableRecord
100
AcDbBlockTableRecord
  2
*PAPER_SPACE
340
21
  0
BLOCK_RECORD
  5
B7
100
AcDbSymbolTableRecord
100
AcDbBlockTableRecord
  2
AID287
340
0
102
{BLKREFS
331
BB
102
}
  0
BLOCK_RECORD
  5
3BE
100
AcDbSymbolTableRecord
100
AcDbBlockTableRecord
  2
AID1851
340
0
102
{BLKREFS
331
3D0
102
}
  0
BLOCK_RECORD
  5
3D1
100
AcDbSymbolTableRecord
100
AcDbBlockTableRecord
  2
AID1860
340
0
102
{BLKREFS
331
3E1
102
}
  0
BLOCK_RECORD
  5
3E2
100
AcDbSymbolTableRecord
100
AcDbBlockTableRecord
  2
AID1867
340
0
102
{BLKREFS
331
3F5
102
}
  0
BLOCK_RECORD
  5
3F6
100
AcDbSymbolTableRecord
100
AcDbBlockTableRecord
  2
AID1877
340
0
102
{BLKREFS
331
407
102
}
  0
BLOCK_RECORD
  5
408
100
AcDbSymbolTableRecord
100
AcDbBlockTableRecord
  2
AID1885
340
0
102
{BLKREFS
331
417
102
}
  0
BLOCK_RECORD
  5
418
100
AcDbSymbolTableRecord
100
AcDbBlockTableRecord
  2
AID1895
340
0
102
{BLKREFS
331
425
102
}
  0
BLOCK_RECORD
  5
426
100
AcDbSymbolTableRecord
100
AcDbBlockTableRecord
  2
AID1903
340
0
102
{BLKREFS
331
439
102
}
  0
BLOCK_RECORD
  5
43A
100
AcDbSymbolTableRecord
100
AcDbBlockTableRecord
  2
AID1913
340
0
102
{BLKREFS
331
44C
102
}
  0
BLOCK_RECORD
  5
44D
100
AcDbSymbolTableRecord
100
AcDbBlockTableRecord
  2
AID1922
340
0
102
{BLKREFS
331
461
102
}
  0
BLOCK_RECORD
  5
462
100
AcDbSymbolTableRecord
100
AcDbBlockTableRecord
  2
AID1933
340
0
102
{BLKREFS
331
474
102
}
  0
BLOCK_RECORD
  5
4A1
100
AcDbSymbolTableRecord
100
AcDbBlockTableRecord
  2
AID1986
340
0
102
{BLKREFS
331
4AC
102
}
  0
BLOCK_RECORD
  5
4AF
100
AcDbSymbolTableRecord
100
AcDbBlockTableRecord
  2
AID2004
340
0
102
{BLKREFS
331
4B3
102
}
  0
BLOCK_RECORD
  5
4B4
100
AcDbSymbolTableRecord
100
AcDbBlockTableRecord
  2
AID2008
340
0
102
{BLKREFS
331
4B8
102
}
  0
BLOCK_RECORD
  5
4B9
100
AcDbSymbolTableRecord
100
AcDbBlockTableRecord
  2
AID2012
340
0
102
{BLKREFS
331
4BD
102
}
  0
ENDTAB
  0
ENDSEC
  0
SECTION
  2
BLOCKS
  0
BLOCK
  5
D
100
AcDbEntity
  8
0
390
0
100
AcDbBlockBegin
  2
*MODEL_SPACE
 70
     0
 10
0.0
 20
0.0
 30
0.0
  3
*MODEL_SPACE
  1

  0
ENDBLK
  5
E
100
AcDbEntity
  8
0
390
0
100
AcDbBlockEnd
  0
BLOCK
  5
F
100
AcDbEntity
 67
     1
  8
0
390
0
100
AcDbBlockBegin
  2
*PAPER_SPACE
 70
     0
 10
0.0
 20
0.0
 30
0.0
  3
*PAPER_SPACE
  1

  0
ENDBLK
  5
10
100
AcDbEntity
 67
     1
  8
0
390
0
100
AcDbBlockEnd
  0
BLOCK
  5
B8
100
AcDbEntity
  8
0
390
0
100
AcDbBlockBegin
  2
AID287
 70
     0
 10
0.0
 20
0.0
 30
0.0
  3
DNote#note referencing elements
  1

  0
MTEXT
  5
B9
100
AcDbEntity
  8
256
390
0
 62
     2
100
AcDbMText
 10
406.171318
 20
6.951938
 30
0.0
 40
3.0
 41
7.472727
 71
     7
 72
     1
  1
A3
210
0.0
220
0.0
230
1.0
 73
     1
 44
1.0
  0
ENDBLK
  5
BA
100
AcDbEntity
  8
0
390
0
100
AcDbBlockEnd
  0
BLOCK
  5
3BF
100
AcDbEntity
  8
0
390
0
100
AcDbBlockBegin
  2
AID1851
 70
     0
 10
0.0
 20
0.0
 30
0.0
  3
DIMENS
  1

  0
MTEXT
  5
3C0
100
AcDbEntity
  8
1
390
0
 62
     2
100
AcDbMText
 10
318.814664
 20
201.973132
 30
0.0
 40
6.0
 41
9.490909
 71
     7
 72
     1
  1
Φ
210
0.0
220
0.0
230
1.0
 11
0.0
 21
1.0
 31
0.0
 73
     1
 44
1.0
  0
MTEXT
  5
3C1
100
AcDbEntity
  8
1
390
0
 62
     2
100
AcDbMText
 10
318.814664
 20
207.918586
 30
0.0
 40
6.0
 41
21.6
 71
     7
 72
     1
  1
14.5
210
0.0
220
0.0
230
1.0
 11
0.0
 21
1.0
 31
0.0
 73
     1
 44
1.0
  0
LINE
  5
3C2
100
AcDbEntity
  8
1
390
0
  6
Continuous
 62
    11
100
AcDbLine
 10
319.987391
 20
220.05495
 30
0.0
 11
319.987391
 21
173.284041
 31
0.0
  0
LINE
  5
3C3
100
AcDbEntity
  8
1
390
0
  6
Continuous
 62
    11
100
AcDbLine
 10
294.920145
 20
196.764041
 30
0.0
 11
321.787391
 21
196.764041
 31
0.0
  0
LINE
  5
3C4
100
AcDbEntity
  8
1
390
0
  6
Continuous
 62
    11
100
AcDbLine
 10
294.920145
 20
182.284041
 30
0.0
 11
321.787391
 21
182.284041
 31
0.0
  0
POLYLINE
  5
3C5
100
AcDbEntity
  8
1
390
0
  6
Continuous
 62
    11
100
AcDb2dPolyline
 66
     1
 10
0.0
 20
0.0
 30
0.0
 40
1.0
 41
1.0
  0
VERTEX
  5
3C6
100
AcDbEntity
  8
1
390
0
 62
    11
100
AcDbVertex
100
AcDb2dVertex
 10
319.087391
 20
201.264041
 30
0.0
  0
VERTEX
  5
3C7
100
AcDbEntity
  8
1
390
0
 62
    11
100
AcDbVertex
100
AcDb2dVertex
 10
319.987391
 20
196.764041
 30
0.0
  0
VERTEX
  5
3C8
100
AcDbEntity
  8
1
390
0
 62
    11
100
AcDbVertex
100
AcDb2dVertex
 10
320.887391
 20
201.264041
 30
0.0
  0
SEQEND
  5
3C9
100
AcDbEntity
  8
0
390
0
  0
POLYLINE
  5
3CA
100
AcDbEntity
  8
1
390
0
  6
Continuous
 62
    11
100
AcDb2dPolyline
 66
     1
 10
0.0
 20
0.0
 30
0.0
 40
1.0
 41
1.0
  0
VERTEX
  5
3CB
100
AcDbEntity
  8
1
390
0
 62
    11
100
AcDbVertex
100
AcDb2dVertex
 10
320.887391
 20
177.784041
 30
0.0
  0
VERTEX
  5
3CC
100
AcDbEntity
  8
1
390
0
 62
    11
100
AcDbVertex
100
AcDb2dVertex
 10
319.987391
 20
182.284041
 30
0.0
  0
VERTEX
  5
3CD
100
AcDbEntity
  8
1
390
0
 62
    11
100
AcDbVertex
100
AcDb2dVertex
 10
319.087391
 20
177.784041
 30
0.0
  0
SEQEND
  5
3CE
100
AcDbEntity
  8
0
390
0
  0
ENDBLK
  5
3CF
100
AcDbEntity
  8
0
390
0
100
AcDbBlockEnd
  0
BLOCK
  5
3D2
100
AcDbEntity
  8
0
390
0
100
AcDbBlockBegin
  2
AID1860
 70
     0
 10
0.0
 20
0.0
 30
0.0
  3
DIMENS
  1

  0
MTEXT
  5
3D3
100
AcDbEntity
  8
1
390
0
 62
     2
100
AcDbMText
 10
262.63591
 20
195.633132
 30
0.0
 40
6.0
 41
9.490909
 71
     7
 72
     1
  1
Φ
210
0.0
220
0.0
230
1.0
 11
0.0
 21
1.0
 31
0.0
 73
     1
 44
1.0
  0
MTEXT
  5
3D4
100
AcDbEntity
  8
1
390
0
 62
     2
100
AcDbMText
 10
262.63591
 20
201.578586
 30
0.0
 40
6.0
 41
14.672727
 71
     7
 72
     1
  1
1.8
210
0.0
220
0.0
230
1.0
 11
0.0
 21
1.0
 31
0.0
 73
     1
 44
1.0
  0
LINE
  5
3D5
100
AcDbEntity
  8
1
390
0
  6
Continuous
 62
    11
100
AcDbLine
 10
263.808637
 20
179.624041
 30
0.0
 11
263.808637
 21
210.251314
 31
0.0
  0
POLYLINE
  5
3D6
100
AcDbEntity
  8
1
390
0
  6
Continuous
 62
    11
100
AcDb2dPolyline
 66
     1
 10
0.0
 20
0.0
 30
0.0
 40
1.0
 41
1.0
  0
VERTEX
  5
3D7
100
AcDbEntity
  8
1
390
0
 62
    11
100
AcDbVertex
100
AcDb2dVertex
 10
264.708637
 20
184.124041
 30
0.0
  0
VERTEX
  5
3D8
100
AcDbEntity
  8
1
390
0
 62
    11
100
AcDbVertex
100
AcDb2dVertex
 10
263.808637
 20
188.624041
 30
0.0
  0
VERTEX
  5
3D9
100
AcDbEntity
  8
1
390
0
 62
    11
100
AcDbVertex
100
AcDb2dVertex
 10
262.908637
 20
184.124041
 30
0.0
  0
SEQEND
  5
3DA
100
AcDbEntity
  8
0
390
0
  0
POLYLINE
  5
3DB
100
AcDbEntity
  8
1
390
0
  6
Continuous
 62
    11
100
AcDb2dPolyline
 66
     1
 10
0.0
 20
0.0
 30
0.0
 40
1.0
 41
1.0
  0
VERTEX
  5
3DC
100
AcDbEntity
  8
1
390
0
 62
    11
100
AcDbVertex
100
AcDb2dVertex
 10
262.908637
 20
194.924041
 30
0.0
  0
VERTEX
  5
3DD
100
AcDbEntity
  8
1
390
0
 62
    11
100
AcDbVertex
100
AcDb2dVertex
 10
263.808637
 20
190.424041
 30
0.0
  0
VERTEX
  5
3DE
100
AcDbEntity
  8
1
390
0
 62
    11
100
AcDbVertex
100
AcDb2dVertex
 10
264.708637
 20
194.924041
 30
0.0
  0
SEQEND
  5
3DF
100
AcDbEntity
  8
0
390
0
  0
ENDBLK
  5
3E0
100
AcDbEntity
  8
0
390
0
100
AcDbBlockEnd
  0
BLOCK
  5
3E3
100
AcDbEntity
  8
0
390
0
100
AcDbBlockBegin
  2
AID1867
 70
     0
 10
0.0
 20
0.0
 30
0.0
  3
DIMENS
  1

  0
MTEXT
  5
3E4
100
AcDbEntity
  8
1
390
0
 62
     2
100
AcDbMText
 10
235.644883
 20
160.855267
 30
0.0
 40
6.0
 41
25.963636
 71
     7
 72
     1
  1
1000
210
0.0
220
0.0
230
1.0
 73
     1
 44
1.0
  0
MTEXT
  5
3E5
100
AcDbEntity
  8
1
390
0
 62
     2
100
AcDbMText
 10
252.363065
 20
159.655267
 30
0.0
 40
4.2
 41
4.2
 71
     7
 72
     1
  1
 0
210
0.0
220
0.0
230
1.0
 73
     1
 44
1.0
  0
MTEXT
  5
3E6
100
AcDbEntity
  8
1
390
0
 62
     2
100
AcDbMText
 10
252.363065
 20
164.54254
 30
0.0
 40
4.2
 41
14.050909
 71
     7
 72
     1
  1
+50
210
0.0
220
0.0
230
1.0
 73
     1
 44
1.0
  0
LINE
  5
3E7
100
AcDbEntity
  8
1
390
0
  6
Continuous
 62
    11
100
AcDbLine
 10
193.783259
 20
158.493449
 30
0.0
 11
302.120145
 21
158.493449
 31
0.0
  0
LINE
  5
3E8
100
AcDbEntity
  8
1
390
0
  6
Continuous
 62
    11
100
AcDbLine
 10
193.783259
 20
185.224041
 30
0.0
 11
193.783259
 21
156.693449
 31
0.0
  0
LINE
  5
3E9
100
AcDbEntity
  8
1
390
0
  6
Continuous
 62
    11
100
AcDbLine
 10
302.120145
 20
181.004041
 30
0.0
 11
302.120145
 21
156.693449
 31
0.0
  0
POLYLINE
  5
3EA
100
AcDbEntity
  8
1
390
0
  6
Continuous
 62
    11
100
AcDb2dPolyline
 66
     1
 10
0.0
 20
0.0
 30
0.0
 40
1.0
 41
1.0
  0
VERTEX
  5
3EB
100
AcDbEntity
  8
1
390
0
 62
    11
100
AcDbVertex
100
AcDb2dVertex
 10
198.283259
 20
157.593449
 30
0.0
  0
VERTEX
  5
3EC
100
AcDbEntity
  8
1
390
0
 62
    11
100
AcDbVertex
100
AcDb2dVertex
 10
193.783259
 20
158.493449
 30
0.0
  0
VERTEX
  5
3ED
100
AcDbEntity
  8
1
390
0
 62
    11
100
AcDbVertex
100
AcDb2dVertex
 10
198.283259
 20
159.393449
 30
0.0
  0
SEQEND
  5
3EE
100
AcDbEntity
  8
0
390
0
  0
POLYLINE
  5
3EF
100
AcDbEntity
  8
1
390
0
  6
Continuous
 62
    11
100
AcDb2dPolyline
 66
     1
 10
0.0
 20
0.0
 30
0.0
 40
1.0
 41
1.0
  0
VERTEX
  5
3F0
100
AcDbEntity
  8
1
390
0
 62
    11
100
AcDbVertex
100
AcDb2dVertex
 10
297.620145
 20
159.393449
 30
0.0
  0
VERTEX
  5
3F1
100
AcDbEntity
  8
1
390
0
 62
    11
100
AcDbVertex
100
AcDb2dVertex
 10
302.120145
 20
158.493449
 30
0.0
  0
VERTEX
  5
3F2
100
AcDbEntity
  8
1
390
0
 62
    11
100
AcDbVertex
100
AcDb2dVertex
 10
297.620145
 20
157.593449
 30
0.0
  0
SEQEND
  5
3F3
100
AcDbEntity
  8
0
390
0
  0
ENDBLK
  5
3F4
100
AcDbEntity
  8
0
390
0
100
AcDbBlockEnd
  0
BLOCK
  5
3F7
100
AcDbEntity
  8
0
390
0
100
AcDbBlockBegin
  2
AID1877
 70
     0
 10
0.0
 20
0.0
 30
0.0
  3
DIMENS
  1

  0
MTEXT
  5
3F8
100
AcDbEntity
  8
1
390
0
 62
     2
100
AcDbMText
 10
175.237804
 20
159.666176
 30
0.0
 40
6.0
 41
12.763636
 71
     7
 72
     1
  1
30
210
0.0
220
0.0
230
1.0
 73
     1
 44
1.0
  0
LINE
  5
3F9
100
AcDbEntity
  8
1
390
0
  6
Continuous
 62
    11
100
AcDbLine
 10
193.783259
 20
158.493449
 30
0.0
 11
163.783259
 21
158.493449
 31
0.0
  0
LINE
  5
3FA
100
AcDbEntity
  8
1
390
0
  6
Continuous
 62
    11
100
AcDbLine
 10
193.783259
 20
185.224041
 30
0.0
 11
193.783259
 21
156.693449
 31
0.0
  0
LINE
  5
3FB
100
AcDbEntity
  8
1
390
0
  6
Continuous
 62
    11
100
AcDbLine
 10
163.783259
 20
185.724041
 30
0.0
 11
163.783259
 21
156.693449
 31
0.0
  0
POLYLINE
  5
3FC
100
AcDbEntity
  8
1
390
0
  6
Continuous
 62
    11
100
AcDb2dPolyline
 66
     1
 10
0.0
 20
0.0
 30
0.0
 40
1.0
 41
1.0
  0
VERTEX
  5
3FD
100
AcDbEntity
  8
1
390
0
 62
    11
100
AcDbVertex
100
AcDb2dVertex
 10
189.283259
 20
159.393449
 30
0.0
  0
VERTEX
  5
3FE
100
AcDbEntity
  8
1
390
0
 62
    11
100
AcDbVertex
100
AcDb2dVertex
 10
193.783259
 20
158.493449
 30
0.0
  0
VERTEX
  5
3FF
100
AcDbEntity
  8
1
390
0
 62
    11
100
AcDbVertex
100
AcDb2dVertex
 10
189.283259
 20
157.593449
 30
0.0
  0
SEQEND
  5
400
100
AcDbEntity
  8
0
390
0
  0
POLYLINE
  5
401
100
AcDbEntity
  8
1
390
0
  6
Continuous
 62
    11
100
AcDb2dPolyline
 66
     1
 10
0.0
 20
0.0
 30
0.0
 40
1.0
 41
1.0
  0
VERTEX
  5
402
100
AcDbEntity
  8
1
390
0
 62
    11
100
AcDbVertex
100
AcDb2dVertex
 10
168.283259
 20
157.593449
 30
0.0
  0
VERTEX
  5
403
100
AcDbEntity
  8
1
390
0
 62
    11
100
AcDbVertex
100
AcDb2dVertex
 10
163.783259
 20
158.493449
 30
0.0
  0
VERTEX
  5
404
100
AcDbEntity
  8
1
390
0
 62
    11
100
AcDbVertex
100
AcDb2dVertex
 10
168.283259
 20
159.393449
 30
0.0
  0
SEQEND
  5
405
100
AcDbEntity
  8
0
390
0
  0
ENDBLK
  5
406
100
AcDbEntity
  8
0
390
0
100
AcDbBlockEnd
  0
BLOCK
  5
409
100
AcDbEntity
  8
0
390
0
100
AcDbBlockBegin
  2
AID1885
 70
     0
 10
0.0
 20
0.0
 30
0.0
  3
DIMENS
  1

  0
MTEXT
  5
40A
100
AcDbEntity
  8
1
390
0
 62
     2
100
AcDbMText
 10
140.800531
 20
172.204194
 30
0.0
 40
6.0
 41
5.672727
 71
     7
 72
     1
  1
8
210
0.0
220
0.0
230
1.0
 73
     1
 44
1.0
  0
MTEXT
  5
40B
100
AcDbEntity
  8
1
390
0
 62
     2
100
AcDbMText
 10
146.964168
 20
171.004194
 30
0.0
 40
4.2
 41
4.2
 71
     7
 72
     1
  1
 0
210
0.0
220
0.0
230
1.0
 73
     1
 44
1.0
  0
MTEXT
  5
40C
100
AcDbEntity
  8
1
390
0
 62
     2
100
AcDbMText
 10
146.964168
 20
175.891467
 30
0.0
 40
4.2
 41
20.770909
 71
     7
 72
     1
  1
+0.03
210
0.0
220
0.0
230
1.0
 73
     1
 44
1.0
  0
LINE
  5
40D
100
AcDbEntity
  8
1
390
0
  6
Continuous
 62
    11
100
AcDbLine
 10
140.527804
 20
169.842376
 30
0.0
 11
171.783259
 21
169.842376
 31
0.0
  0
LINE
  5
40E
100
AcDbEntity
  8
1
390
0
  6
Continuous
 62
    11
100
AcDbLine
 10
163.783259
 20
185.724041
 30
0.0
 11
163.783259
 21
168.042376
 31
0.0
  0
LINE
  5
40F
100
AcDbEntity
  8
1
390
0
  6
Continuous
 62
    11
100
AcDbLine
 10
171.783259
 20
184.424041
 30
0.0
 11
171.783259
 21
168.042376
 31
0.0
  0
POLYLINE
  5
410
100
AcDbEntity
  8
1
390
0
  6
Continuous
 62
    11
100
AcDb2dPolyline
 66
     1
 10
0.0
 20
0.0
 30
0.0
 40
1.0
 41
1.0
  0
VERTEX
  5
411
100
AcDbEntity
  8
1
390
0
 62
    11
100
AcDbVertex
100
AcDb2dVertex
 10
159.283259
 20
168.942376
 30
0.0
  0
VERTEX
  5
412
100
AcDbEntity
  8
1
390
0
 62
    11
100
AcDbVertex
100
AcDb2dVertex
 10
163.783259
 20
169.842376
 30
0.0
  0
VERTEX
  5
413
100
AcDbEntity
  8
1
390
0
 62
    11
100
AcDbVertex
100
AcDb2dVertex
 10
159.283259
 20
170.742376
 30
0.0
  0
SEQEND
  5
414
100
AcDbEntity
  8
0
390
0
  0
HATCH
  5
415
100
AcDbEntity
  8
1
390
0
 62
    11
100
AcDbHatch
 10
171.78325866937573
 20
169.84237588499226
 30
0.0
210
0.0
220
0.0
230
1.0
  2
SOLID
 70
     1
 71
     1
 91
        1
 92
        1
 93
       72
 72
     1
 10
172.9082586693757
 20
169.84237588499226
 11
172.90397770472893
 21
169.94042609558338
 72
     1
 10
172.90397770472893
 20
169.94042609558338
 11
172.89116739151444
 21
170.03773008486755
 72
     1
 10
172.89116739151444
 20
170.03773008486755
 11
172.86992522395093
 21
170.13354731073261
 72
     1
 10
172.86992522395093
 20
170.13354731073261
 11
172.84041286775985
 21
170.22714854623365
 72
     1
 10
172.84041286775985
 20
170.22714854623365
 11
172.80285492979195
 21
170.31782142945053
 72
     1
 10
172.80285492979195
 20
170.31782142945053
 11
172.75753724863321
 21
170.40487588499226
 72
     1
 10
172.75753724863321
 20
170.40487588499226
 11
172.70480471920084
 21
170.4876493758872
 72
     1
 10
172.70480471920084
 20
170.4876493758872
 11
172.64505866788457
 21
170.56551194588963
 72
     1
 10
172.64505866788457
 20
170.56551194588963
 11
172.57875379821058
 21
170.63787101382712
 72
     1
 10
172.57875379821058
 20
170.63787101382712
 11
172.50639473027306
 21
170.70417588350111
 72
     1
 10
172.50639473027306
 20
170.70417588350111
 11
172.42853216027066
 21
170.76392193481738
 72
     1
 10
172.42853216027066
 20
170.76392193481738
 11
172.3457586693757
 21
170.81665446424975
 72
     1
 10
172.3457586693757
 20
170.81665446424975
 11
172.25870421383399
 21
170.86197214540849
 72
     1
 10
172.25870421383399
 20
170.86197214540849
 11
172.16803133061708
 21
170.89953008337642
 72
     1
 10
172.16803133061708
 20
170.89953008337642
 11
172.07443009511604
 21
170.92904243956747
 72
     1
 10
172.07443009511604
 20
170.92904243956747
 11
171.97861286925101
 21
170.95028460713098
 72
     1
 10
171.97861286925101
 20
170.95028460713098
 11
171.88130887996684
 21
170.96309492034547
 72
     1
 10
171.88130887996684
 20
170.96309492034547
 11
171.78325866937573
 21
170.96737588499226
 72
     1
 10
171.78325866937573
 20
170.96737588499226
 11
171.68520845878459
 21
170.96309492034547
 72
     1
 10
171.68520845878459
 20
170.96309492034547
 11
171.58790446950042
 21
170.95028460713098
 72
     1
 10
171.58790446950042
 20
170.95028460713098
 11
171.49208724363538
 21
170.92904243956747
 72
     1
 10
171.49208724363538
 20
170.92904243956747
 11
171.39848600813434
 21
170.89953008337642
 72
     1
 10
171.39848600813434
 20
170.89953008337642
 11
171.30781312491743
 21
170.86197214540849
 72
     1
 10
171.30781312491743
 20
170.86197214540849
 11
171.22075866937573
 21
170.81665446424975
 72
     1
 10
171.22075866937573
 20
170.81665446424975
 11
171.13798517848079
 21
170.76392193481738
 72
     1
 10
171.13798517848079
 20
170.76392193481738
 11
171.06012260847837
 21
170.70417588350111
 72
     1
 10
171.06012260847837
 20
170.70417588350111
 11
170.98776354054084
 21
170.63787101382712
 72
     1
 10
170.98776354054084
 20
170.63787101382712
 11
170.92145867086685
 21
170.56551194588963
 72
     1
 10
170.92145867086685
 20
170.56551194588963
 11
170.86171261955062
 21
170.4876493758872
 72
     1
 10
170.86171261955062
 20
170.4876493758872
 11
170.80898009011821
 21
170.40487588499226
 72
     1
 10
170.80898009011821
 20
170.40487588499226
 11
170.76366240895948
 21
170.31782142945053
 72
     1
 10
170.76366240895948
 20
170.31782142945053
 11
170.72610447099157
 21
170.22714854623365
 72
     1
 10
170.72610447099157
 20
170.22714854623365
 11
170.69659211480052
 21
170.13354731073261
 72
     1
 10
170.69659211480052
 20
170.13354731073261
 11
170.67534994723698
 21
170.03773008486755
 72
     1
 10
170.67534994723698
 20
170.03773008486755
 11
170.66253963402249
 21
169.94042609558338
 72
     1
 10
170.66253963402249
 20
169.94042609558338
 11
170.65825866937573
 21
169.84237588499226
 72
     1
 10
170.65825866937573
 20
169.84237588499226
 11
170.66253963402249
 21
169.74432567440115
 72
     1
 10
170.66253963402249
 20
169.74432567440115
 11
170.67534994723698
 21
169.64702168511698
 72
     1
 10
170.67534994723698
 20
169.64702168511698
 11
170.69659211480052
 21
169.55120445925192
 72
     1
 10
170.69659211480052
 20
169.55120445925192
 11
170.72610447099157
 21
169.45760322375088
 72
     1
 10
170.72610447099157
 20
169.45760322375088
 11
170.76366240895948
 21
169.366930340534
 72
     1
 10
170.76366240895948
 20
169.366930340534
 11
170.80898009011821
 21
169.27987588499226
 72
     1
 10
170.80898009011821
 20
169.27987588499226
 11
170.86171261955062
 21
169.19710239409733
 72
     1
 10
170.86171261955062
 20
169.19710239409733
 11
170.92145867086685
 21
169.1192398240949
 72
     1
 10
170.92145867086685
 20
169.1192398240949
 11
170.98776354054084
 21
169.04688075615741
 72
     1
 10
170.98776354054084
 20
169.04688075615741
 11
171.06012260847837
 21
168.98057588648342
 72
     1
 10
171.06012260847837
 20
168.98057588648342
 11
171.13798517848079
 21
168.92082983516715
 72
     1
 10
171.13798517848079
 20
168.92082983516715
 11
171.22075866937573
 21
168.86809730573478
 72
     1
 10
171.22075866937573
 20
168.86809730573478
 11
171.30781312491743
 21
168.82277962457604
 72
     1
 10
171.30781312491743
 20
168.82277962457604
 11
171.39848600813434
 21
168.78522168660811
 72
     1
 10
171.39848600813434
 20
168.78522168660811
 11
171.49208724363538
 21
168.75570933041706
 72
     1
 10
171.49208724363538
 20
168.75570933041706
 11
171.58790446950042
 21
168.73446716285355
 72
     1
 10
171.58790446950042
 20
168.73446716285355
 11
171.68520845878459
 21
168.72165684963906
 72
     1
 10
171.68520845878459
 20
168.72165684963906
 11
171.78325866937573
 21
168.71737588499226
 72
     1
 10
171.78325866937573
 20
168.71737588499226
 11
171.88130887996684
 21
168.72165684963906
 72
     1
 10
171.88130887996684
 20
168.72165684963906
 11
171.97861286925101
 21
168.73446716285355
 72
     1
 10
171.97861286925101
 20
168.73446716285355
 11
172.07443009511604
 21
168.75570933041706
 72
     1
 10
172.07443009511604
 20
168.75570933041706
 11
172.16803133061708
 21
168.78522168660811
 72
     1
 10
172.16803133061708
 20
168.78522168660811
 11
172.25870421383399
 21
168.82277962457604
 72
     1
 10
172.25870421383399
 20
168.82277962457604
 11
172.3457586693757
 21
168.86809730573478
 72
     1
 10
172.3457586693757
 20
168.86809730573478
 11
172.42853216027066
 21
168.92082983516715
 72
     1
 10
172.42853216027066
 20
168.92082983516715
 11
172.50639473027306
 21
168.98057588648342
 72
     1
 10
172.50639473027306
 20
168.98057588648342
 11
172.57875379821058
 21
169.04688075615741
 72
     1
 10
172.57875379821058
 20
169.04688075615741
 11
172.64505866788457
 21
169.1192398240949
 72
     1
 10
172.64505866788457
 20
169.1192398240949
 11
172.70480471920084
 21
169.19710239409733
 72
     1
 10
172.70480471920084
 20
169.19710239409733
 11
172.75753724863321
 21
169.27987588499226
 72
     1
 10
172.75753724863321
 20
169.27987588499226
 11
172.80285492979195
 21
169.366930340534
 72
     1
 10
172.80285492979195
 20
169.366930340534
 11
172.84041286775985
 21
169.45760322375088
 72
     1
 10
172.84041286775985
 20
169.45760322375088
 11
172.86992522395093
 21
169.55120445925192
 72
     1
 10
172.86992522395093
 20
169.55120445925192
 11
172.89116739151444
 21
169.64702168511698
 72
     1
 10
172.89116739151444
 20
169.64702168511698
 11
172.90397770472893
 21
169.74432567440115
 72
     1
 10
172.90397770472893
 20
169.74432567440115
 11
172.9082586693757
 21
169.84237588499226
 97
        0
 75
     0
 76
     1
 98
        1
 10
0.0
 20
0.0
  0
ENDBLK
  5
416
100
AcDbEntity
  8
0
390
0
100
AcDbBlockEnd
  0
BLOCK
  5
419
100
AcDbEntity
  8
0
390
0
100
AcDbBlockBegin
  2
AID1895
 70
     0
 10
0.0
 20
0.0
 30
0.0
  3
DIMENS
  1

  0
MTEXT
  5
41A
100
AcDbEntity
  8
1
390
0
 62
     2
100
AcDbMText
 10
172.537804
 20
171.015103
 30
0.0
 40
6.0
 41
5.563636
 71
     7
 72
     1
  1
5
210
0.0
220
0.0
230
1.0
 73
     1
 44
1.0
  0
LINE
  5
41B
100
AcDbEntity
  8
1
390
0
  6
Continuous
 62
    11
100
AcDbLine
 10
171.783259
 20
169.842376
 30
0.0
 11
185.783259
 21
169.842376
 31
0.0
  0
LINE
  5
41C
100
AcDbEntity
  8
1
390
0
  6
Continuous
 62
    11
100
AcDbLine
 10
171.783259
 20
184.424041
 30
0.0
 11
171.783259
 21
168.042376
 31
0.0
  0
LINE
  5
41D
100
AcDbEntity
  8
1
390
0
  6
Continuous
 62
    11
100
AcDbLine
 10
176.783259
 20
184.424041
 30
0.0
 11
176.783259
 21
168.042376
 31
0.0
  0
HATCH
  5
41E
100
AcDbEntity
  8
1
390
0
 62
    11
100
AcDbHatch
 10
171.78325866937573
 20
169.84237588499226
 30
0.0
210
0.0
220
0.0
230
1.0
  2
SOLID
 70
     1
 71
     1
 91
        1
 92
        1
 93
       72
 72
     1
 10
170.65825866937573
 20
169.84237588499226
 11
170.66253963402249
 21
169.74432567440115
 72
     1
 10
170.66253963402249
 20
169.74432567440115
 11
170.67534994723698
 21
169.64702168511698
 72
     1
 10
170.67534994723698
 20
169.64702168511698
 11
170.69659211480052
 21
169.55120445925192
 72
     1
 10
170.69659211480052
 20
169.55120445925192
 11
170.72610447099157
 21
169.45760322375088
 72
     1
 10
170.72610447099157
 20
169.45760322375088
 11
170.76366240895948
 21
169.366930340534
 72
     1
 10
170.76366240895948
 20
169.366930340534
 11
170.80898009011821
 21
169.27987588499226
 72
     1
 10
170.80898009011821
 20
169.27987588499226
 11
170.86171261955062
 21
169.19710239409733
 72
     1
 10
170.86171261955062
 20
169.19710239409733
 11
170.92145867086685
 21
169.1192398240949
 72
     1
 10
170.92145867086685
 20
169.1192398240949
 11
170.98776354054084
 21
169.04688075615741
 72
     1
 10
170.98776354054084
 20
169.04688075615741
 11
171.06012260847837
 21
168.98057588648342
 72
     1
 10
171.06012260847837
 20
168.98057588648342
 11
171.13798517848079
 21
168.92082983516715
 72
     1
 10
171.13798517848079
 20
168.92082983516715
 11
171.22075866937573
 21
168.86809730573478
 72
     1
 10
171.22075866937573
 20
168.86809730573478
 11
171.30781312491743
 21
168.82277962457604
 72
     1
 10
171.30781312491743
 20
168.82277962457604
 11
171.39848600813434
 21
168.78522168660811
 72
     1
 10
171.39848600813434
 20
168.78522168660811
 11
171.49208724363538
 21
168.75570933041706
 72
     1
 10
171.49208724363538
 20
168.75570933041706
 11
171.58790446950042
 21
168.73446716285355
 72
     1
 10
171.58790446950042
 20
168.73446716285355
 11
171.68520845878459
 21
168.72165684963906
 72
     1
 10
171.68520845878459
 20
168.72165684963906
 11
171.78325866937573
 21
168.71737588499226
 72
     1
 10
171.78325866937573
 20
168.71737588499226
 11
171.88130887996684
 21
168.72165684963906
 72
     1
 10
171.88130887996684
 20
168.72165684963906
 11
171.97861286925101
 21
168.73446716285355
 72
     1
 10
171.97861286925101
 20
168.73446716285355
 11
172.07443009511604
 21
168.75570933041706
 72
     1
 10
172.07443009511604
 20
168.75570933041706
 11
172.16803133061708
 21
168.78522168660811
 72
     1
 10
172.16803133061708
 20
168.78522168660811
 11
172.25870421383399
 21
168.82277962457604
 72
     1
 10
172.25870421383399
 20
168.82277962457604
 11
172.3457586693757
 21
168.86809730573478
 72
     1
 10
172.3457586693757
 20
168.86809730573478
 11
172.42853216027066
 21
168.92082983516715
 72
     1
 10
172.42853216027066
 20
168.92082983516715
 11
172.50639473027306
 21
168.98057588648342
 72
     1
 10
172.50639473027306
 20
168.98057588648342
 11
172.57875379821058
 21
169.04688075615741
 72
     1
 10
172.57875379821058
 20
169.04688075615741
 11
172.64505866788457
 21
169.1192398240949
 72
     1
 10
172.64505866788457
 20
169.1192398240949
 11
172.70480471920084
 21
169.19710239409733
 72
     1
 10
172.70480471920084
 20
169.19710239409733
 11
172.75753724863321
 21
169.27987588499226
 72
     1
 10
172.75753724863321
 20
169.27987588499226
 11
172.80285492979195
 21
169.366930340534
 72
     1
 10
172.80285492979195
 20
169.366930340534
 11
172.84041286775985
 21
169.45760322375088
 72
     1
 10
172.84041286775985
 20
169.45760322375088
 11
172.86992522395093
 21
169.55120445925192
 72
     1
 10
172.86992522395093
 20
169.55120445925192
 11
172.89116739151444
 21
169.64702168511698
 72
     1
 10
172.89116739151444
 20
169.64702168511698
 11
172.90397770472893
 21
169.74432567440115
 72
     1
 10
172.90397770472893
 20
169.74432567440115
 11
172.9082586693757
 21
169.84237588499226
 72
     1
 10
172.9082586693757
 20
169.84237588499226
 11
172.90397770472893
 21
169.94042609558338
 72
     1
 10
172.90397770472893
 20
169.94042609558338
 11
172.89116739151444
 21
170.03773008486755
 72
     1
 10
172.89116739151444
 20
170.03773008486755
 11
172.86992522395093
 21
170.13354731073261
 72
     1
 10
172.86992522395093
 20
170.13354731073261
 11
172.84041286775985
 21
170.22714854623365
 72
     1
 10
172.84041286775985
 20
170.22714854623365
 11
172.80285492979195
 21
170.31782142945053
 72
     1
 10
172.80285492979195
 20
170.31782142945053
 11
172.75753724863321
 21
170.40487588499226
 72
     1
 10
172.75753724863321
 20
170.40487588499226
 11
172.70480471920084
 21
170.4876493758872
 72
     1
 10
172.70480471920084
 20
170.4876493758872
 11
172.64505866788457
 21
170.56551194588963
 72
     1
 10
172.64505866788457
 20
170.56551194588963
 11
172.57875379821058
 21
170.63787101382712
 72
     1
 10
172.57875379821058
 20
170.63787101382712
 11
172.50639473027306
 21
170.70417588350111
 72
     1
 10
172.50639473027306
 20
170.70417588350111
 11
172.42853216027066
 21
170.76392193481738
 72
     1
 10
172.42853216027066
 20
170.76392193481738
 11
172.3457586693757
 21
170.81665446424975
 72
     1
 10
172.3457586693757
 20
170.81665446424975
 11
172.25870421383399
 21
170.86197214540849
 72
     1
 10
172.25870421383399
 20
170.86197214540849
 11
172.16803133061708
 21
170.89953008337642
 72
     1
 10
172.16803133061708
 20
170.89953008337642
 11
172.07443009511604
 21
170.92904243956747
 72
     1
 10
172.07443009511604
 20
170.92904243956747
 11
171.97861286925101
 21
170.95028460713098
 72
     1
 10
171.97861286925101
 20
170.95028460713098
 11
171.88130887996684
 21
170.96309492034547
 72
     1
 10
171.88130887996684
 20
170.96309492034547
 11
171.78325866937573
 21
170.96737588499226
 72
     1
 10
171.78325866937573
 20
170.96737588499226
 11
171.68520845878459
 21
170.96309492034547
 72
     1
 10
171.68520845878459
 20
170.96309492034547
 11
171.58790446950042
 21
170.95028460713098
 72
     1
 10
171.58790446950042
 20
170.95028460713098
 11
171.49208724363538
 21
170.92904243956747
 72
     1
 10
171.49208724363538
 20
170.92904243956747
 11
171.39848600813434
 21
170.89953008337642
 72
     1
 10
171.39848600813434
 20
170.89953008337642
 11
171.30781312491743
 21
170.86197214540849
 72
     1
 10
171.30781312491743
 20
170.86197214540849
 11
171.22075866937573
 21
170.81665446424975
 72
     1
 10
171.22075866937573
 20
170.81665446424975
 11
171.13798517848079
 21
170.76392193481738
 72
     1
 10
171.13798517848079
 20
170.76392193481738
 11
171.06012260847837
 21
170.70417588350111
 72
     1
 10
171.06012260847837
 20
170.70417588350111
 11
170.98776354054084
 21
170.63787101382712
 72
     1
 10
170.98776354054084
 20
170.63787101382712
 11
170.92145867086685
 21
170.56551194588963
 72
     1
 10
170.92145867086685
 20
170.56551194588963
 11
170.86171261955062
 21
170.4876493758872
 72
     1
 10
170.86171261955062
 20
170.4876493758872
 11
170.80898009011821
 21
170.40487588499226
 72
     1
 10
170.80898009011821
 20
170.40487588499226
 11
170.76366240895948
 21
170.31782142945053
 72
     1
 10
170.76366240895948
 20
170.31782142945053
 11
170.72610447099157
 21
170.22714854623365
 72
     1
 10
170.72610447099157
 20
170.22714854623365
 11
170.69659211480052
 21
170.13354731073261
 72
     1
 10
170.69659211480052
 20
170.13354731073261
 11
170.67534994723698
 21
170.03773008486755
 72
     1
 10
170.67534994723698
 20
170.03773008486755
 11
170.66253963402249
 21
169.94042609558338
 72
     1
 10
170.66253963402249
 20
169.94042609558338
 11
170.65825866937573
 21
169.84237588499226
 97
        0
 75
     0
 76
     1
 98
        1
 10
0.0
 20
0.0
  0
POLYLINE
  5
41F
100
AcDbEntity
  8
1
390
0
  6
Continuous
 62
    11
100
AcDb2dPolyline
 66
     1
 10
0.0
 20
0.0
 30
0.0
 40
1.0
 41
1.0
  0
VERTEX
  5
420
100
AcDbEntity
  8
1
390
0
 62
    11
100
AcDbVertex
100
AcDb2dVertex
 10
181.283259
 20
170.742376
 30
0.0
  0
VERTEX
  5
421
100
AcDbEntity
  8
1
390
0
 62
    11
100
AcDbVertex
100
AcDb2dVertex
 10
176.783259
 20
169.842376
 30
0.0
  0
VERTEX
  5
422
100
AcDbEntity
  8
1
390
0
 62
    11
100
AcDbVertex
100
AcDb2dVertex
 10
181.283259
 20
168.942376
 30
0.0
  0
SEQEND
  5
423
100
AcDbEntity
  8
0
390
0
  0
ENDBLK
  5
424
100
AcDbEntity
  8
0
390
0
100
AcDbBlockEnd
  0
BLOCK
  5
427
100
AcDbEntity
  8
0
390
0
100
AcDbBlockBegin
  2
AID1903
 70
     0
 10
0.0
 20
0.0
 30
0.0
  3
DIMENS
  1

  0
MTEXT
  5
428
100
AcDbEntity
  8
1
390
0
 62
     2
100
AcDbMText
 10
178.805986
 20
171.58783
 30
0.0
 40
6.0
 41
3.327273
 71
     7
 72
     1
  1
(
210
0.0
220
0.0
230
1.0
 73
     1
 44
1.0
  0
MTEXT
  5
429
100
AcDbEntity
  8
1
390
0
 62
     2
100
AcDbMText
 10
181.915077
 20
171.58783
 30
0.0
 40
6.0
 41
11.618182
 71
     7
 72
     1
  1
17
210
0.0
220
0.0
230
1.0
 73
     1
 44
1.0
  0
MTEXT
  5
42A
100
AcDbEntity
  8
1
390
0
 62
     2
100
AcDbMText
 10
189.660531
 20
171.58783
 30
0.0
 40
6.0
 41
3.327273
 71
     7
 72
     1
  1
)
210
0.0
220
0.0
230
1.0
 73
     1
 44
1.0
  0
LINE
  5
42B
100
AcDbEntity
  8
1
390
0
  6
Continuous
 62
    11
100
AcDbLine
 10
176.783259
 20
169.842376
 30
0.0
 11
193.783259
 21
169.842376
 31
0.0
  0
LINE
  5
42C
100
AcDbEntity
  8
1
390
0
  6
Continuous
 62
    11
100
AcDbLine
 10
176.783259
 20
184.424041
 30
0.0
 11
176.783259
 21
168.042376
 31
0.0
  0
LINE
  5
42D
100
AcDbEntity
  8
1
390
0
  6
Continuous
 62
    11
100
AcDbLine
 10
193.783259
 20
185.224041
 30
0.0
 11
193.783259
 21
168.042376
 31
0.0
  0
POLYLINE
  5
42E
100
AcDbEntity
  8
1
390
0
  6
Continuous
 62
    11
100
AcDb2dPolyline
 66
     1
 10
0.0
 20
0.0
 30
0.0
 40
1.0
 41
1.0
  0
VERTEX
  5
42F
100
AcDbEntity
  8
1
390
0
 62
    11
100
AcDbVertex
100
AcDb2dVertex
 10
181.283259
 20
168.942376
 30
0.0
  0
VERTEX
  5
430
100
AcDbEntity
  8
1
390
0
 62
    11
100
AcDbVertex
100
AcDb2dVertex
 10
176.783259
 20
169.842376
 30
0.0
  0
VERTEX
  5
431
100
AcDbEntity
  8
1
390
0
 62
    11
100
AcDbVertex
100
AcDb2dVertex
 10
181.283259
 20
170.742376
 30
0.0
  0
SEQEND
  5
432
100
AcDbEntity
  8
0
390
0
  0
POLYLINE
  5
433
100
AcDbEntity
  8
1
390
0
  6
Continuous
 62
    11
100
AcDb2dPolyline
 66
     1
 10
0.0
 20
0.0
 30
0.0
 40
1.0
 41
1.0
  0
VERTEX
  5
434
100
AcDbEntity
  8
1
390
0
 62
    11
100
AcDbVertex
100
AcDb2dVertex
 10
189.283259
 20
170.742376
 30
0.0
  0
VERTEX
  5
435
100
AcDbEntity
  8
1
390
0
 62
    11
100
AcDbVertex
100
AcDb2dVertex
 10
193.783259
 20
169.842376
 30
0.0
  0
VERTEX
  5
436
100
AcDbEntity
  8
1
390
0
 62
    11
100
AcDbVertex
100
AcDb2dVertex
 10
189.283259
 20
168.942376
 30
0.0
  0
SEQEND
  5
437
100
AcDbEntity
  8
0
390
0
  0
ENDBLK
  5
438
100
AcDbEntity
  8
0
390
0
100
AcDbBlockEnd
  0
BLOCK
  5
43B
100
AcDbEntity
  8
0
390
0
100
AcDbBlockBegin
  2
AID1913
 70
     0
 10
0.0
 20
0.0
 30
0.0
  3
DIMENS
  1

  0
MTEXT
  5
43C
100
AcDbEntity
  8
1
390
0
 62
     2
100
AcDbMText
 10
168.67322
 20
196.733132
 30
0.0
 40
6.0
 41
9.490909
 71
     7
 72
     1
  1
Φ
210
0.0
220
0.0
230
1.0
 11
0.0
 21
1.0
 31
0.0
 73
     1
 44
1.0
  0
MTEXT
  5
43D
100
AcDbEntity
  8
1
390
0
 62
     2
100
AcDbMText
 10
168.67322
 20
202.678586
 30
0.0
 40
6.0
 41
6.054545
 71
     7
 72
     1
  1
4
210
0.0
220
0.0
230
1.0
 11
0.0
 21
1.0
 31
0.0
 73
     1
 44
1.0
  0
MTEXT
  5
43E
100
AcDbEntity
  8
1
390
0
 62
     2
100
AcDbMText
 10
169.87322
 20
208.951314
 30
0.0
 40
4.2
 41
25.62
 71
     7
 72
     1
  1
-0.006
210
0.0
220
0.0
230
1.0
 11
0.0
 21
1.0
 31
0.0
 73
     1
 44
1.0
  0
MTEXT
  5
43F
100
AcDbEntity
  8
1
390
0
 62
     2
100
AcDbMText
 10
164.985947
 20
208.951314
 30
0.0
 40
4.2
 41
4.2
 71
     7
 72
     1
  1
 0
210
0.0
220
0.0
230
1.0
 11
0.0
 21
1.0
 31
0.0
 73
     1
 44
1.0
  0
LINE
  5
440
100
AcDbEntity
  8
1
390
0
  6
Continuous
 62
    11
100
AcDbLine
 10
171.054129
 20
222.49495
 30
0.0
 11
171.054129
 21
178.524041
 31
0.0
  0
POLYLINE
  5
441
100
AcDbEntity
  8
1
390
0
  6
Continuous
 62
    11
100
AcDb2dPolyline
 66
     1
 10
0.0
 20
0.0
 30
0.0
 40
1.0
 41
1.0
  0
VERTEX
  5
442
100
AcDbEntity
  8
1
390
0
 62
    11
100
AcDbVertex
100
AcDb2dVertex
 10
170.154129
 20
196.024041
 30
0.0
  0
VERTEX
  5
443
100
AcDbEntity
  8
1
390
0
 62
    11
100
AcDbVertex
100
AcDb2dVertex
 10
171.054129
 20
191.524041
 30
0.0
  0
VERTEX
  5
444
100
AcDbEntity
  8
1
390
0
 62
    11
100
AcDbVertex
100
AcDb2dVertex
 10
171.954129
 20
196.024041
 30
0.0
  0
SEQEND
  5
445
100
AcDbEntity
  8
0
390
0
  0
POLYLINE
  5
446
100
AcDbEntity
  8
1
390
0
  6
Continuous
 62
    11
100
AcDb2dPolyline
 66
     1
 10
0.0
 20
0.0
 30
0.0
 40
1.0
 41
1.0
  0
VERTEX
  5
447
100
AcDbEntity
  8
1
390
0
 62
    11
100
AcDbVertex
100
AcDb2dVertex
 10
171.954129
 20
183.024041
 30
0.0
  0
VERTEX
  5
448
100
AcDbEntity
  8
1
390
0
 62
    11
100
AcDbVertex
100
AcDb2dVertex
 10
171.054129
 20
187.524041
 30
0.0
  0
VERTEX
  5
449
100
AcDbEntity
  8
1
390
0
 62
    11
100
AcDbVertex
100
AcDb2dVertex
 10
170.154129
 20
183.024041
 30
0.0
  0
SEQEND
  5
44A
100
AcDbEntity
  8
0
390
0
  0
ENDBLK
  5
44B
100
AcDbEntity
  8
0
390
0
100
AcDbBlockEnd
  0
BLOCK
  5
44E
100
AcDbEntity
  8
0
390
0
100
AcDbBlockBegin
  2
AID1922
 70
     0
 10
0.0
 20
0.0
 30
0.0
  3
DIMENS
  1

  0
MTEXT
  5
44F
100
AcDbEntity
  8
1
390
0
 62
     2
100
AcDbMText
 10
201.392741
 20
198.233132
 30
0.0
 40
6.0
 41
9.490909
 71
     7
 72
     1
  1
Φ
210
0.0
220
0.0
230
0.9999999999999999
 11
0.0
 21
1.0
 31
0.0
 73
     1
 44
1.0
  0
MTEXT
  5
450
100
AcDbEntity
  8
1
390
0
 62
     2
100
AcDbMText
 10
201.392741
 20
204.178586
 30
0.0
 40
6.0
 41
5.181818
 71
     7
 72
     1
  1
7
210
0.0
220
0.0
230
0.9999999999999999
 11
0.0
 21
1.0
 31
0.0
 73
     1
 44
1.0
  0
MTEXT
  5
451
100
AcDbEntity
  8
1
390
0
 62
     2
100
AcDbMText
 10
202.592741
 20
210.233132
 30
0.0
 40
4.2
 41
14.547273
 71
     7
 72
     1
  1
-0.1
210
0.0
220
0.0
230
0.9999999999999999
 11
0.0
 21
1.0
 31
0.0
 73
     1
 44
1.0
  0
MTEXT
  5
452
100
AcDbEntity
  8
1
390
0
 62
     2
100
AcDbMText
 10
197.705469
 20
210.233132
 30
0.0
 40
4.2
 41
4.2
 71
     7
 72
     1
  1
 0
210
0.0
220
0.0
230
0.9999999999999999
 11
0.0
 21
1.0
 31
0.0
 73
     1
 44
1.0
  0
LINE
  5
453
100
AcDbEntity
  8
1
390
0
  6
Continuous
 62
    11
100
AcDbLine
 10
203.75456
 20
218.240405
 30
0.0
 11
203.75456
 21
177.024041
 31
0.0
  0
LINE
  5
454
100
AcDbEntity
  8
1
390
0
  6
Continuous
 62
    11
100
AcDbLine
 10
178.383259
 20
193.024041
 30
0.0
 11
205.55456
 21
193.024041
 31
0.0
  0
LINE
  5
455
100
AcDbEntity
  8
1
390
0
  6
Continuous
 62
    11
100
AcDbLine
 10
178.383259
 20
186.024041
 30
0.0
 11
205.55456
 21
186.024041
 31
0.0
  0
POLYLINE
  5
456
100
AcDbEntity
  8
1
390
0
  6
Continuous
 62
    11
100
AcDb2dPolyline
 66
     1
 10
0.0
 20
0.0
 30
0.0
 40
1.0
 41
1.0
  0
VERTEX
  5
457
100
AcDbEntity
  8
1
390
0
 62
    11
100
AcDbVertex
100
AcDb2dVertex
 10
202.85456
 20
197.524041
 30
0.0
  0
VERTEX
  5
458
100
AcDbEntity
  8
1
390
0
 62
    11
100
AcDbVertex
100
AcDb2dVertex
 10
203.75456
 20
193.024041
 30
0.0
  0
VERTEX
  5
459
100
AcDbEntity
  8
1
390
0
 62
    11
100
AcDbVertex
100
AcDb2dVertex
 10
204.65456
 20
197.524041
 30
0.0
  0
SEQEND
  5
45A
100
AcDbEntity
  8
0
390
0
  0
POLYLINE
  5
45B
100
AcDbEntity
  8
1
390
0
  6
Continuous
 62
    11
100
AcDb2dPolyline
 66
     1
 10
0.0
 20
0.0
 30
0.0
 40
1.0
 41
1.0
  0
VERTEX
  5
45C
100
AcDbEntity
  8
1
390
0
 62
    11
100
AcDbVertex
100
AcDb2dVertex
 10
204.65456
 20
181.524041
 30
0.0
  0
VERTEX
  5
45D
100
AcDbEntity
  8
1
390
0
 62
    11
100
AcDbVertex
100
AcDb2dVertex
 10
203.75456
 20
186.024041
 30
0.0
  0
VERTEX
  5
45E
100
AcDbEntity
  8
1
390
0
 62
    11
100
AcDbVertex
100
AcDb2dVertex
 10
202.85456
 20
181.524041
 30
0.0
  0
SEQEND
  5
45F
100
AcDbEntity
  8
0
390
0
  0
ENDBLK
  5
460
100
AcDbEntity
  8
0
390
0
100
AcDbBlockEnd
  0
BLOCK
  5
463
100
AcDbEntity
  8
0
390
0
100
AcDbBlockBegin
  2
AID1933
 70
     0
 10
0.0
 20
0.0
 30
0.0
  3
DIMENS
  1

  0
MTEXT
  5
464
100
AcDbEntity
  8
1
390
0
 62
     2
100
AcDbMText
 10
180.580918
 20
197.233132
 30
0.0
 40
6.0
 41
9.490909
 71
     7
 72
     1
  1
Φ
210
0.0
220
0.0
230
1.0
 11
0.0
 21
1.0
 31
0.0
 73
     1
 44
1.0
  0
MTEXT
  5
465
100
AcDbEntity
  8
1
390
0
 62
     2
100
AcDbMText
 10
180.580918
 20
203.178586
 30
0.0
 40
6.0
 41
5.563636
 71
     7
 72
     1
  1
5
210
0.0
220
0.0
230
1.0
 11
0.0
 21
1.0
 31
0.0
 73
     1
 44
1.0
  0
MTEXT
  5
466
100
AcDbEntity
  8
1
390
0
 62
     2
100
AcDbMText
 10
181.780918
 20
209.31495
 30
0.0
 40
4.2
 41
14.547273
 71
     7
 72
     1
  1
-0.1
210
0.0
220
0.0
230
1.0
 11
0.0
 21
1.0
 31
0.0
 73
     1
 44
1.0
  0
MTEXT
  5
467
100
AcDbEntity
  8
1
390
0
 62
     2
100
AcDbMText
 10
176.893646
 20
209.31495
 30
0.0
 40
4.2
 41
4.2
 71
     7
 72
     1
  1
 0
210
0.0
220
0.0
230
1.0
 11
0.0
 21
1.0
 31
0.0
 73
     1
 44
1.0
  0
LINE
  5
468
100
AcDbEntity
  8
1
390
0
  6
Continuous
 62
    11
100
AcDbLine
 10
182.942737
 20
178.024041
 30
0.0
 11
182.942737
 21
217.322223
 31
0.0
  0
POLYLINE
  5
469
100
AcDbEntity
  8
1
390
0
  6
Continuous
 62
    11
100
AcDb2dPolyline
 66
     1
 10
0.0
 20
0.0
 30
0.0
 40
1.0
 41
1.0
  0
VERTEX
  5
46A
100
AcDbEntity
  8
1
390
0
 62
    11
100
AcDbVertex
100
AcDb2dVertex
 10
183.842737
 20
182.524041
 30
0.0
  0
VERTEX
  5
46B
100
AcDbEntity
  8
1
390
0
 62
    11
100
AcDbVertex
100
AcDb2dVertex
 10
182.942737
 20
187.024041
 30
0.0
  0
VERTEX
  5
46C
100
AcDbEntity
  8
1
390
0
 62
    11
100
AcDbVertex
100
AcDb2dVertex
 10
182.042737
 20
182.524041
 30
0.0
  0
SEQEND
  5
46D
100
AcDbEntity
  8
0
390
0
  0
POLYLINE
  5
46E
100
AcDbEntity
  8
1
390
0
  6
Continuous
 62
    11
100
AcDb2dPolyline
 66
     1
 10
0.0
 20
0.0
 30
0.0
 40
1.0
 41
1.0
  0
VERTEX
  5
46F
100
AcDbEntity
  8
1
390
0
 62
    11
100
AcDbVertex
100
AcDb2dVertex
 10
182.042737
 20
196.524041
 30
0.0
  0
VERTEX
  5
470
100
AcDbEntity
  8
1
390
0
 62
    11
100
AcDbVertex
100
AcDb2dVertex
 10
182.942737
 20
192.024041
 30
0.0
  0
VERTEX
  5
471
100
AcDbEntity
  8
1
390
0
 62
    11
100
AcDbVertex
100
AcDb2dVertex
 10
183.842737
 20
196.524041
 30
0.0
  0
SEQEND
  5
472
100
AcDbEntity
  8
0
390
0
  0
ENDBLK
  5
473
100
AcDbEntity
  8
0
390
0
100
AcDbBlockEnd
  0
BLOCK
  5
4A2
100
AcDbEntity
  8
0
390
0
100
AcDbBlockBegin
  2
AID1986
 70
     0
 10
0.0
 20
0.0
 30
0.0
  3
DNote#note referencing elements
  1

  0
MTEXT
  5
4A3
100
AcDbEntity
  8
1
390
0
 62
     2
100
AcDbMText
 10
202.337779
 20
170.20408
 30
0.0
 40
6.0
 41
49.472727
 71
     7
 72
     1
  1
M5XP0.5
210
0.0
220
0.0
230
1.0
 73
     1
 44
1.0
  0
LINE
  5
4A4
100
AcDbEntity
  8
1
390
0
  6
Continuous
 62
     9
100
AcDbLine
 10
202.828688
 20
169.231352
 30
0.0
 11
227.565052
 21
169.231352
 31
0.0
  0
POLYLINE
  5
4A5
100
AcDbEntity
  8
1
390
0
  6
Continuous
 62
     9
100
AcDb2dPolyline
 66
     1
 10
0.0
 20
0.0
 30
0.0
 40
1.0
 41
1.0
  0
VERTEX
  5
4A6
100
AcDbEntity
  8
1
390
0
 62
     9
100
AcDbVertex
100
AcDb2dVertex
 10
194.471742
 20
182.392371
 30
0.0
  0
VERTEX
  5
4A7
100
AcDbEntity
  8
1
390
0
 62
     9
100
AcDbVertex
100
AcDb2dVertex
 10
192.923311
 20
187.024041
 30
0.0
  0
VERTEX
  5
4A8
100
AcDbEntity
  8
1
390
0
 62
     9
100
AcDbVertex
100
AcDb2dVertex
 10
196.044454
 20
183.267916
 30
0.0
  0
SEQEND
  5
4A9
100
AcDbEntity
  8
0
390
0
  0
LINE
  5
4AA
100
AcDbEntity
  8
1
390
0
  6
Continuous
 62
     9
100
AcDbLine
 10
192.923311
 20
187.024041
 30
0.0
 11
202.828688
 21
169.231352
 31
0.0
  0
ENDBLK
  5
4AB
100
AcDbEntity
  8
0
390
0
100
AcDbBlockEnd
  0
BLOCK
  5
4B0
100
AcDbEntity
  8
0
390
0
100
AcDbBlockBegin
  2
AID2004
 70
     0
 10
0.0
 20
0.0
 30
0.0
  3
DNote#note referencing elements
  1

  0
MTEXT
  5
4B1
100
AcDbEntity
  8
1
390
0
 62
     2
100
AcDbMText
 10
361.268978
 20
39.618786
 30
0.0
 40
4.0
 41
71.163636
 71
     7
 72
     1
  1
直接式圧力センサ
210
0.0
220
0.0
230
1.0
 73
     1
 44
1.0
  0
ENDBLK
  5
4B2
100
AcDbEntity
  8
0
390
0
100
AcDbBlockEnd
  0
BLOCK
  5
4B5
100
AcDbEntity
  8
0
390
0
100
AcDbBlockBegin
  2
AID2008
 70
     0
 10
0.0
 20
0.0
 30
0.0
  3
DNote#note referencing elements
  1

  0
MTEXT
  5
4B6
100
AcDbEntity
  8
1
390
0
 62
     2
100
AcDbMText
 10
361.785197
 20
29.247972
 30
0.0
 40
4.0
 41
72.472727
 71
     7
 72
     1
  1
SPF04.0X08.0X030
210
0.0
220
0.0
230
1.0
 73
     1
 44
1.0
  0
ENDBLK
  5
4B7
100
AcDbEntity
  8
0
390
0
100
AcDbBlockEnd
  0
BLOCK
  5
4BA
100
AcDbEntity
  8
0
390
0
100
AcDbBlockBegin
  2
AID2012
 70
     0
 10
0.0
 20
0.0
 30
0.0
  3
DNote#note referencing elements
  1

  0
MTEXT
  5
4BB
100
AcDbEntity
  8
1
390
0
 62
     2
100
AcDbMText
 10
323.304424
 20
31.098312
 30
0.0
 40
5.0
 41
14.045455
 71
     7
 72
     1
  1
1：1
210
0.0
220
0.0
230
1.0
 73
     1
 44
1.0
  0
ENDBLK
  5
4BC
100
AcDbEntity
  8
0
390
0
100
AcDbBlockEnd
  0
ENDSEC
  0
SECTION
  2
ENTITIES
  0
LINE
  5
2C
100
AcDbEntity
  8
256
390
0
  6
Continuous
 62
     8
100
AcDbLine
 10
222.0
 20
34.5
 30
0.0
 11
271.0
 21
34.5
 31
0.0
  0
LINE
  5
2D
100
AcDbEntity
  8
256
390
0
  6
Continuous
 62
     8
100
AcDbLine
 10
390.25
 20
277.0
 30
0.0
 11
390.25
 21
287.0
 31
0.0
  0
LINE
  5
2E
100
AcDbEntity
  8
256
390
0
  6
Continuous
 62
     8
100
AcDbLine
 10
229.511017
 20
262.368011
 30
0.0
 11
234.511017
 21
262.368011
 31
0.0
  0
LINE
  5
2F
100
AcDbEntity
  8
256
390
0
  6
Continuous
 62
     8
100
AcDbLine
 10
222.0
 20
38.0
 30
0.0
 11
271.0
 21
38.0
 31
0.0
  0
LINE
  5
30
100
AcDbEntity
  8
256
390
0
  6
Continuous
 62
     8
100
AcDbLine
 10
237.0
 20
287.0
 30
0.0
 11
237.0
 21
257.0
 31
0.0
  0
LINE
  5
31
100
AcDbEntity
  8
256
390
0
  6
Continuous
 62
     8
100
AcDbLine
 10
303.8
 20
48.0
 30
0.0
 11
303.8
 21
10.0
 31
0.0
  0
LINE
  5
32
100
AcDbEntity
  8
256
390
0
  6
Continuous
 62
     8
100
AcDbLine
 10
385.25
 20
277.0
 30
0.0
 11
385.25
 21
287.0
 31
0.0
  0
LINE
  5
33
100
AcDbEntity
  8
256
390
0
  6
Continuous
 62
     8
100
AcDbLine
 10
287.4
 20
31.0
 30
0.0
 11
287.4
 21
10.0
 31
0.0
  0
LINE
  5
34
100
AcDbEntity
  8
256
390
0
  6
Continuous
 62
     8
100
AcDbLine
 10
253.750031
 20
44.0
 30
0.0
 11
253.750031
 21
10.0
 31
0.0
  0
LINE
  5
35
100
AcDbEntity
  8
256
390
0
  6
Continuous
 62
     8
100
AcDbLine
 10
410.0
 20
10.0
 30
0.0
 11
410.0
 21
287.0
 31
0.0
  0
LINE
  5
36
100
AcDbEntity
  8
256
390
0
  6
Continuous
 62
     8
100
AcDbLine
 10
335.25
 20
15.666667
 30
0.0
 11
335.25
 21
48.0
 31
0.0
  0
LINE
  5
37
100
AcDbEntity
  8
256
390
0
  6
Continuous
 62
     8
100
AcDbLine
 10
410.0
 20
287.0
 30
0.0
 11
10.0
 21
287.0
 31
0.0
  0
LINE
  5
38
100
AcDbEntity
  8
256
390
0
  6
Continuous
 62
     8
100
AcDbLine
 10
362.0
 20
287.0
 30
0.0
 11
362.0
 21
257.0
 31
0.0
  0
LINE
  5
39
100
AcDbEntity
  8
256
390
0
  6
Continuous
 62
     8
100
AcDbLine
 10
410.0
 20
267.0
 30
0.0
 11
227.0
 21
267.0
 31
0.0
  0
LINE
  5
3A
100
AcDbEntity
  8
256
390
0
  6
Continuous
 62
     8
100
AcDbLine
 10
410.0
 20
277.0
 30
0.0
 11
227.0
 21
277.0
 31
0.0
  0
LINE
  5
3B
100
AcDbEntity
  8
256
390
0
  6
Continuous
 62
     8
100
AcDbLine
 10
271.0
 20
41.0
 30
0.0
 11
335.25
 21
41.0
 31
0.0
  0
LINE
  5
3C
100
AcDbEntity
  8
256
390
0
  6
Continuous
 62
     8
100
AcDbLine
 10
222.0
 20
44.0
 30
0.0
 11
271.0
 21
44.0
 31
0.0
  0
LINE
  5
3D
100
AcDbEntity
  8
256
390
0
  6
Continuous
 62
     8
100
AcDbLine
 10
232.011017
 20
261.664886
 30
0.0
 11
229.511017
 21
257.368011
 31
0.0
  0
LINE
  5
3E
100
AcDbEntity
  8
256
390
0
  6
Continuous
 62
     8
100
AcDbLine
 10
248.000031
 20
38.0
 30
0.0
 11
222.0
 21
44.0
 31
0.0
  0
LINE
  5
3F
100
AcDbEntity
  8
256
390
0
  6
Continuous
 62
     8
100
AcDbLine
 10
357.0
 20
262.0
 30
0.0
 11
227.0
 21
262.0
 31
0.0
  0
LINE
  5
40
100
AcDbEntity
  8
256
390
0
  6
Continuous
 62
     8
100
AcDbLine
 10
222.0
 20
31.0
 30
0.0
 11
320.25
 21
31.0
 31
0.0
  0
LINE
  5
41
100
AcDbEntity
  8
256
390
0
  6
Continuous
 62
     8
100
AcDbLine
 10
234.511017
 20
267.368011
 30
0.0
 11
232.011017
 21
271.664886
 31
0.0
  0
LINE
  5
42
100
AcDbEntity
  8
256
390
0
  6
Continuous
 62
     8
100
AcDbLine
 10
385.25
 20
282.0
 30
0.0
 11
362.0
 21
282.0
 31
0.0
  0
LINE
  5
43
100
AcDbEntity
  8
256
390
0
  6
Continuous
 62
     8
100
AcDbLine
 10
10.0
 20
10.0
 30
0.0
 11
410.0
 21
10.0
 31
0.0
  0
LINE
  5
44
100
AcDbEntity
  8
256
390
0
  6
Continuous
 62
     8
100
AcDbLine
 10
222.0
 20
48.0
 30
0.0
 11
410.0
 21
48.0
 31
0.0
  0
LINE
  5
45
100
AcDbEntity
  8
256
390
0
  6
Continuous
 62
     8
100
AcDbLine
 10
227.000031
 20
10.0
 30
0.0
 11
410.0
 21
10.0
 31
0.0
  0
LINE
  5
46
100
AcDbEntity
  8
256
390
0
  6
Continuous
 62
     8
100
AcDbLine
 10
342.0
 20
287.0
 30
0.0
 11
342.0
 21
257.0
 31
0.0
  0
LINE
  5
47
100
AcDbEntity
  8
256
390
0
  6
Continuous
 62
     8
100
AcDbLine
 10
222.0
 20
13.5
 30
0.0
 11
271.000031
 21
13.5
 31
0.0
  0
LINE
  5
48
100
AcDbEntity
  8
256
390
0
  6
Continuous
 62
     8
100
AcDbLine
 10
222.0
 20
20.5
 30
0.0
 11
271.0
 21
20.5
 31
0.0
  0
LINE
  5
49
100
AcDbEntity
  8
256
390
0
  6
Continuous
 62
     8
100
AcDbLine
 10
222.0
 20
27.5
 30
0.0
 11
271.0
 21
27.5
 31
0.0
  0
LINE
  5
4A
100
AcDbEntity
  8
256
390
0
  6
Continuous
 62
     8
100
AcDbLine
 10
248.000031
 20
44.0
 30
0.0
 11
248.000031
 21
10.0
 31
0.0
  0
LINE
  5
4B
100
AcDbEntity
  8
256
390
0
  6
Continuous
 62
     8
100
AcDbLine
 10
222.0
 20
48.0
 30
0.0
 11
222.0
 21
10.0
 31
0.0
  0
LINE
  5
4C
100
AcDbEntity
  8
256
390
0
  6
Continuous
 62
     8
100
AcDbLine
 10
232.011017
 20
276.664886
 30
0.0
 11
229.511017
 21
272.368011
 31
0.0
  0
LINE
  5
4D
100
AcDbEntity
  8
256
390
0
  6
Continuous
 62
     8
100
AcDbLine
 10
357.0
 20
282.0
 30
0.0
 11
227.0
 21
282.0
 31
0.0
  0
LINE
  5
4E
100
AcDbEntity
  8
256
390
0
  6
Continuous
 62
     8
100
AcDbLine
 10
229.511017
 20
267.368011
 30
0.0
 11
234.511017
 21
267.368011
 31
0.0
  0
LINE
  5
4F
100
AcDbEntity
  8
256
390
0
  6
Continuous
 62
     8
100
AcDbLine
 10
222.0
 20
24.0
 30
0.0
 11
271.0
 21
24.0
 31
0.0
  0
LINE
  5
50
100
AcDbEntity
  8
256
390
0
  6
Continuous
 62
     8
100
AcDbLine
 10
232.011017
 20
281.664886
 30
0.0
 11
229.511017
 21
277.368011
 31
0.0
  0
LINE
  5
51
100
AcDbEntity
  8
256
390
0
  6
Continuous
 62
     8
100
AcDbLine
 10
265.250031
 20
44.0
 30
0.0
 11
265.250031
 21
10.0
 31
0.0
  0
LINE
  5
52
100
AcDbEntity
  8
256
390
0
  6
Continuous
 62
     8
100
AcDbLine
 10
229.511017
 20
277.368011
 30
0.0
 11
234.511017
 21
277.368011
 31
0.0
  0
LINE
  5
53
100
AcDbEntity
  8
256
390
0
  6
Continuous
 62
     8
100
AcDbLine
 10
320.25
 20
10.0
 30
0.0
 11
320.25
 21
48.0
 31
0.0
  0
LINE
  5
54
100
AcDbEntity
  8
256
390
0
  6
Continuous
 62
     8
100
AcDbLine
 10
232.011017
 20
271.664886
 30
0.0
 11
229.511017
 21
267.368011
 31
0.0
  0
LINE
  5
55
100
AcDbEntity
  8
256
390
0
  6
Continuous
 62
     8
100
AcDbLine
 10
234.511017
 20
277.368011
 30
0.0
 11
232.011017
 21
281.664886
 31
0.0
  0
LINE
  5
56
100
AcDbEntity
  8
256
390
0
  6
Continuous
 62
     8
100
AcDbLine
 10
222.0
 20
17.0
 30
0.0
 11
271.0
 21
17.0
 31
0.0
  0
LINE
  5
57
100
AcDbEntity
  8
256
390
0
  6
Continuous
 62
     8
100
AcDbLine
 10
271.0
 20
48.0
 30
0.0
 11
271.0
 21
10.0
 31
0.0
  0
LINE
  5
58
100
AcDbEntity
  8
256
390
0
  6
Continuous
 62
     8
100
AcDbLine
 10
357.0
 20
287.0
 30
0.0
 11
357.0
 21
257.0
 31
0.0
  0
LINE
  5
59
100
AcDbEntity
  8
256
390
0
  6
Continuous
 62
     8
100
AcDbLine
 10
335.25
 20
35.0
 30
0.0
 11
410.0
 21
35.0
 31
0.0
  0
LINE
  5
5A
100
AcDbEntity
  8
256
390
0
  6
Continuous
 62
     8
100
AcDbLine
 10
227.0
 20
287.0
 30
0.0
 11
227.0
 21
257.0
 31
0.0
  0
LINE
  5
5B
100
AcDbEntity
  8
256
390
0
  6
Continuous
 62
     8
100
AcDbLine
 10
327.0
 20
287.0
 30
0.0
 11
327.0
 21
257.0
 31
0.0
  0
LINE
  5
5C
100
AcDbEntity
  8
256
390
0
  6
Continuous
 62
     8
100
AcDbLine
 10
229.511017
 20
272.368011
 30
0.0
 11
234.511017
 21
272.368011
 31
0.0
  0
LINE
  5
5D
100
AcDbEntity
  8
256
390
0
  6
Continuous
 62
     8
100
AcDbLine
 10
259.500031
 20
44.0
 30
0.0
 11
259.500031
 21
10.0
 31
0.0
  0
LINE
  5
5E
100
AcDbEntity
  8
256
390
0
  6
Continuous
 62
     8
100
AcDbLine
 10
320.25
 20
15.666667
 30
0.0
 11
410.0
 21
15.666667
 31
0.0
  0
LINE
  5
5F
100
AcDbEntity
  8
256
390
0
  6
Continuous
 62
     8
100
AcDbLine
 10
229.511017
 20
257.368011
 30
0.0
 11
234.511017
 21
257.368011
 31
0.0
  0
LINE
  5
60
100
AcDbEntity
  8
256
390
0
  6
Continuous
 62
     8
100
AcDbLine
 10
232.011017
 20
266.664886
 30
0.0
 11
229.511017
 21
262.368011
 31
0.0
  0
LINE
  5
61
100
AcDbEntity
  8
256
390
0
  6
Continuous
 62
     8
100
AcDbLine
 10
410.0
 20
257.0
 30
0.0
 11
227.0
 21
257.0
 31
0.0
  0
LINE
  5
62
100
AcDbEntity
  8
256
390
0
  6
Continuous
 62
     8
100
AcDbLine
 10
234.511017
 20
257.368011
 30
0.0
 11
232.011017
 21
261.664886
 31
0.0
  0
LINE
  5
63
100
AcDbEntity
  8
256
390
0
  6
Continuous
 62
     8
100
AcDbLine
 10
271.0
 20
26.5
 30
0.0
 11
410.0
 21
26.5
 31
0.0
  0
LINE
  5
64
100
AcDbEntity
  8
256
390
0
  6
Continuous
 62
     8
100
AcDbLine
 10
10.0
 20
10.0
 30
0.0
 11
10.0
 21
287.0
 31
0.0
  0
LINE
  5
65
100
AcDbEntity
  8
256
390
0
  6
Continuous
 62
     8
100
AcDbLine
 10
234.511017
 20
262.368011
 30
0.0
 11
232.011017
 21
266.664886
 31
0.0
  0
LINE
  5
66
100
AcDbEntity
  8
256
390
0
  6
Continuous
 62
     8
100
AcDbLine
 10
350.25
 20
15.666667
 30
0.0
 11
350.25
 21
48.0
 31
0.0
  0
LINE
  5
67
100
AcDbEntity
  8
256
390
0
  6
Continuous
 62
     8
100
AcDbLine
 10
307.164695
 20
32.573373
 30
0.0
 11
314.235801
 21
39.644442
 31
0.0
  0
LINE
  5
68
100
AcDbEntity
  8
256
390
0
  6
Continuous
 62
     8
100
AcDbLine
 10
357.0
 20
272.0
 30
0.0
 11
227.0
 21
272.0
 31
0.0
  0
LINE
  5
69
100
AcDbEntity
  8
256
390
0
  6
Continuous
 62
     8
100
AcDbLine
 10
234.511017
 20
272.368011
 30
0.0
 11
232.011017
 21
276.664886
 31
0.0
  0
MTEXT
  5
6A
100
AcDbEntity
  8
256
390
0
 62
     8
100
AcDbMText
 10
262.375031
 20
28.244792
 30
0.0
 40
1.75
 41
4.55
 71
     8
 72
     1
  1
0.5  
210
0.0
220
0.0
230
1.0
 73
     1
 44
1.0
  0
MTEXT
  5
6B
100
AcDbEntity
  8
256
390
0
 62
     8
100
AcDbMText
 10
250.875031
 20
21.244792
 30
0.0
 40
1.75
 41
4.55
 71
     8
 72
     1
  1
0.2  
210
0.0
220
0.0
230
1.0
 73
     1
 44
1.0
  0
MTEXT
  5
6C
100
AcDbEntity
  8
256
390
0
 62
     8
100
AcDbMText
 10
250.875031
 20
28.244792
 30
0.0
 40
1.75
 41
3.993182
 71
     8
 72
     1
  1
0.1  
210
0.0
220
0.0
230
1.0
 73
     1
 44
1.0
  0
MTEXT
  5
6D
100
AcDbEntity
  8
256
390
0
 62
     8
100
AcDbMText
 10
250.875031
 20
17.744792
 30
0.0
 40
1.75
 41
4.55
 71
     8
 72
     1
  1
0.3  
210
0.0
220
0.0
230
1.0
 73
     1
 44
1.0
  0
MTEXT
  5
6E
100
AcDbEntity
  8
256
390
0
 62
     8
100
AcDbMText
 10
287.02719
 20
42.856306
 30
0.0
 40
3.386667
 41
24.56873
 71
     8
 72
     1
  1
材    質  
210
0.0
220
0.0
230
1.0
 73
     1
 44
1.0
  0
MTEXT
  5
6F
100
AcDbEntity
  8
256
390
0
 62
     8
100
AcDbMText
 10
256.625031
 20
35.244792
 30
0.0
 40
1.75
 41
3.993182
 71
     8
 72
     1
  1
0.1  
210
0.0
220
0.0
230
1.0
 73
     1
 44
1.0
  0
MTEXT
  5
70
100
AcDbEntity
  8
256
390
0
 62
     8
100
AcDbMText
 10
268.125015
 20
14.244792
 30
0.0
 40
1.75
 41
1.590909
 71
     8
 72
     1
  1
6  
210
0.0
220
0.0
230
1.0
 73
     1
 44
1.0
  0
MTEXT
  5
71
100
AcDbEntity
  8
256
390
0
 62
     8
100
AcDbMText
 10
268.125015
 20
21.244792
 30
0.0
 40
1.75
 41
4.486364
 71
     8
 72
     1
  1
2.5  
210
0.0
220
0.0
230
1.0
 73
     1
 44
1.0
  0
MTEXT
  5
72
100
AcDbEntity
  8
256
390
0
 62
     8
100
AcDbMText
 10
312.52208
 20
42.980576
 30
0.0
 40
3.386667
 41
17.518305
 71
     8
 72
     1
  1
個 数  
210
0.0
220
0.0
230
1.0
 73
     1
 44
1.0
  0
MTEXT
  5
73
100
AcDbEntity
  8
256
390
0
 62
     8
100
AcDbMText
 10
360.130196
 20
257.742347
 30
0.0
 40
2.822222
 41
5.926666
 71
     8
 72
     1
  1
理  
210
0.0
220
0.0
230
1.0
 73
     1
 44
1.0
  0
MTEXT
  5
74
100
AcDbEntity
  8
256
390
0
 62
     8
100
AcDbMText
 10
257.063488
 20
41.133356
 30
0.0
 40
1.7952
 41
7.6704
 71
     8
 72
     1
  1
中級  
210
0.0
220
0.0
230
1.0
 73
     1
 44
1.0
  0
MTEXT
  5
75
100
AcDbEntity
  8
256
390
0
 62
     8
100
AcDbMText
 10
268.763424
 20
39.076539
 30
0.0
 40
2.0
 41
7.581818
 71
     8
 72
     1
  1
v %%p  
210
0.0
220
0.0
230
1.0
 73
     1
 44
1.0
  0
MTEXT
  5
76
100
AcDbEntity
  8
256
390
0
 62
     8
100
AcDbMText
 10
246.361108
 20
10.744792
 30
0.0
 40
1.75
 41
35.111364
 71
     9
 72
     1
  1
2000を超え4000以下  
210
0.0
220
0.0
230
1.0
 73
     1
 44
1.0
  0
MTEXT
  5
77
100
AcDbEntity
  8
256
390
0
 62
     8
100
AcDbMText
 10
315.229673
 20
32.880846
 30
0.0
 40
3.386667
 41
10.375516
 71
     8
 72
     1
  1
1台  
210
0.0
220
0.0
230
1.0
 73
     1
 44
1.0
  0
MTEXT
  5
78
100
AcDbEntity
  8
256
390
0
 62
     8
100
AcDbMText
 10
246.383663
 20
21.244792
 30
0.0
 40
1.75
 41
32.056818
 71
     9
 72
     1
  1
 120を超え 400以下  
210
0.0
220
0.0
230
1.0
 73
     1
 44
1.0
  0
MTEXT
  5
79
100
AcDbEntity
  8
256
390
0
 62
     8
100
AcDbMText
 10
388.380196
 20
278.047566
 30
0.0
 40
3.386667
 41
6.958061
 71
     8
 72
     1
  1
取  
210
0.0
220
0.0
230
1.0
 73
     1
 44
1.0
  0
MTEXT
  5
7A
100
AcDbEntity
  8
256
390
0
 62
     8
100
AcDbMText
 10
388.380196
 20
282.575181
 30
0.0
 40
3.386667
 41
6.68097
 71
     8
 72
     1
  1
面  
210
0.0
220
0.0
230
1.0
 73
     1
 44
1.0
  0
MTEXT
  5
7B
100
AcDbEntity
  8
256
390
0
 62
     8
100
AcDbMText
 10
230.223858
 20
38.623908
 30
0.0
 40
1.5
 41
24.272727
 71
     8
 72
     1
  1
寸法の区分(mm)  
210
0.0
220
0.0
230
1.0
 73
     1
 44
1.0
  0
MTEXT
  5
7C
100
AcDbEntity
  8
256
390
0
 62
     8
100
AcDbMText
 10
343.211504
 20
19.692223
 30
0.0
 40
3.386667
 41
16.902547
 71
     8
 72
     1
  1
図 番  
210
0.0
220
0.0
230
1.0
 73
     1
 44
1.0
  0
MTEXT
  5
7D
100
AcDbEntity
  8
256
390
0
 62
     8
100
AcDbMText
 10
262.375031
 20
31.744792
 30
0.0
 40
1.75
 41
4.55
 71
     8
 72
     1
  1
0.3  
210
0.0
220
0.0
230
1.0
 73
     1
 44
1.0
  0
MTEXT
  5
7E
100
AcDbEntity
  8
256
390
0
 62
     8
100
AcDbMText
 10
360.130196
 20
268.089407
 30
0.0
 40
3.386667
 41
7.112001
 71
     8
 72
     1
  1
理  
210
0.0
220
0.0
230
1.0
 73
     1
 44
1.0
  0
MTEXT
  5
7F
100
AcDbEntity
  8
256
390
0
 62
     8
100
AcDbMText
 10
246.369552
 20
14.244792
 30
0.0
 40
1.75
 41
34.888636
 71
     9
 72
     1
  1
1000を超え2000以下  
210
0.0
220
0.0
230
1.0
 73
     1
 44
1.0
  0
MTEXT
  5
80
100
AcDbEntity
  8
256
390
0
 62
     8
100
AcDbMText
 10
268.125015
 20
24.744792
 30
0.0
 40
1.75
 41
4.263636
 71
     8
 72
     1
  1
1.5  
210
0.0
220
0.0
230
1.0
 73
     1
 44
1.0
  0
MTEXT
  5
81
100
AcDbEntity
  8
256
390
0
 62
     8
100
AcDbMText
 10
262.375031
 20
35.244792
 30
0.0
 40
1.75
 41
4.55
 71
     8
 72
     1
  1
0.2  
210
0.0
220
0.0
230
1.0
 73
     1
 44
1.0
  0
MTEXT
  5
82
100
AcDbEntity
  8
256
390
0
 62
     8
100
AcDbMText
 10
351.983257
 20
283.013492
 30
0.0
 40
3.386667
 41
21.551517
 71
     8
 72
     1
  1
年月日     
210
0.0
220
0.0
230
1.0
 73
     1
 44
1.0
  0
MTEXT
  5
83
100
AcDbEntity
  8
256
390
0
 62
     8
100
AcDbMText
 10
250.875031
 20
31.744792
 30
0.0
 40
1.75
 41
6.586364
 71
     8
 72
     1
  1
0.05  
210
0.0
220
0.0
230
1.0
 73
     1
 44
1.0
  0
MTEXT
  5
84
100
AcDbEntity
  8
256
390
0
 62
     8
100
AcDbMText
 10
250.875031
 20
35.244792
 30
0.0
 40
1.75
 41
6.586364
 71
     8
 72
     1
  1
0.05  
210
0.0
220
0.0
230
1.0
 73
     1
 44
1.0
  0
MTEXT
  5
85
100
AcDbEntity
  8
256
390
0
 62
     8
100
AcDbMText
 10
262.375031
 20
10.744792
 30
0.0
 40
1.75
 41
1.765909
 71
     8
 72
     1
  1
4  
210
0.0
220
0.0
230
1.0
 73
     1
 44
1.0
  0
MTEXT
  5
86
100
AcDbEntity
  8
256
390
0
 62
     8
100
AcDbMText
 10
343.259623
 20
40.051182
 30
0.0
 40
3.386667
 41
17.210426
 71
     8
 72
     1
  1
名 称  
210
0.0
220
0.0
230
1.0
 73
     1
 44
1.0
  0
MTEXT
  5
87
100
AcDbEntity
  8
256
390
0
 62
     8
100
AcDbMText
 10
280.042689
 20
27.073014
 30
0.0
 40
3.386667
 41
17.241214
 71
     8
 72
     1
  1
設 計  
210
0.0
220
0.0
230
1.0
 73
     1
 44
1.0
  0
MTEXT
  5
88
100
AcDbEntity
  8
256
390
0
 62
     8
100
AcDbMText
 10
268.125015
 20
17.744792
 30
0.0
 40
1.75
 41
1.765909
 71
     8
 72
     1
  1
4  
210
0.0
220
0.0
230
1.0
 73
     1
 44
1.0
  0
MTEXT
  5
89
100
AcDbEntity
  8
256
390
0
 62
     8
100
AcDbMText
 10
256.625031
 20
28.244792
 30
0.0
 40
1.75
 41
4.55
 71
     8
 72
     1
  1
0.2  
210
0.0
220
0.0
230
1.0
 73
     1
 44
1.0
  0
MTEXT
  5
8A
100
AcDbEntity
  8
256
390
0
 62
     8
100
AcDbMText
 10
246.368174
 20
17.744792
 30
0.0
 40
1.75
 41
33.138636
 71
     9
 72
     1
  1
 400を超え1000以下  
210
0.0
220
0.0
230
1.0
 73
     1
 44
1.0
  0
MTEXT
  5
8B
100
AcDbEntity
  8
256
390
0
 62
     8
100
AcDbMText
 10
250.875031
 20
14.244792
 30
0.0
 40
1.75
 41
4.55
 71
     8
 72
     1
  1
0.5  
210
0.0
220
0.0
230
1.0
 73
     1
 44
1.0
  0
MTEXT
  5
8C
100
AcDbEntity
  8
256
390
0
 62
     8
100
AcDbMText
 10
257.26344
 20
39.076539
 30
0.0
 40
2.0
 41
8.563636
 71
     8
 72
     1
  1
m %%p  
210
0.0
220
0.0
230
1.0
 73
     1
 44
1.0
  0
MTEXT
  5
8D
100
AcDbEntity
  8
256
390
0
 62
     8
100
AcDbMText
 10
246.444454
 20
35.244792
 30
0.0
 40
1.75
 41
29.543182
 71
     9
 72
     1
  1
 0.5を超え   3以下  
210
0.0
220
0.0
230
1.0
 73
     1
 44
1.0
  0
MTEXT
  5
8E
100
AcDbEntity
  8
256
390
0
 62
     8
100
AcDbMText
 10
246.445896
 20
31.744792
 30
0.0
 40
1.75
 41
26.615909
 71
     9
 72
     1
  1
   3を超え   6以下  
210
0.0
220
0.0
230
1.0
 73
     1
 44
1.0
  0
MTEXT
  5
8F
100
AcDbEntity
  8
256
390
0
 62
     8
100
AcDbMText
 10
343.228244
 20
29.512776
 30
0.0
 40
2.54
 41
22.998545
 71
     8
 72
     1
  1
部品番号  
210
0.0
220
0.0
230
1.0
 73
     1
 44
1.0
  0
MTEXT
  5
90
100
AcDbEntity
  8
256
390
0
 62
     8
100
AcDbMText
 10
251.19527
 20
41.133356
 30
0.0
 40
1.7952
 41
8.04576
 71
     8
 72
     1
  1
精級  
210
0.0
220
0.0
230
1.0
 73
     1
 44
1.0
  0
MTEXT
  5
91
100
AcDbEntity
  8
256
390
0
 62
     8
100
AcDbMText
 10
246.399214
 20
24.744792
 30
0.0
 40
1.75
 41
30.243182
 71
     9
 72
     1
  1
  30を超え 120以下  
210
0.0
220
0.0
230
1.0
 73
     1
 44
1.0
  0
MTEXT
  5
92
100
AcDbEntity
  8
256
390
0
 62
     8
100
AcDbMText
 10
262.375031
 20
24.744792
 30
0.0
 40
1.75
 41
4.565909
 71
     8
 72
     1
  1
0.8  
210
0.0
220
0.0
230
1.0
 73
     1
 44
1.0
  0
MTEXT
  5
93
100
AcDbEntity
  8
256
390
0
 62
     8
100
AcDbMText
 10
242.4153
 20
40.925781
 30
0.0
 40
1.5
 41
13.636364
 71
     8
 72
     1
  1
公差等級  
210
0.0
220
0.0
230
1.0
 73
     1
 44
1.0
  0
MTEXT
  5
94
100
AcDbEntity
  8
256
390
0
 62
     8
100
AcDbMText
 10
246.430153
 20
28.244792
 30
0.0
 40
1.75
 41
27.395455
 71
     9
 72
     1
  1
   6を超え  30以下  
210
0.0
220
0.0
230
1.0
 73
     1
 44
1.0
  0
MTEXT
  5
95
100
AcDbEntity
  8
256
390
0
 62
     8
100
AcDbMText
 10
285.330511
 20
282.942152
 30
0.0
 40
3.386667
 41
59.482188
 71
     8
 72
     1
  1
訂    正    内    容  
210
0.0
220
0.0
230
1.0
 73
     1
 44
1.0
  0
MTEXT
  5
96
100
AcDbEntity
  8
256
390
0
 62
     8
100
AcDbMText
 10
256.625031
 20
24.744792
 30
0.0
 40
1.75
 41
4.55
 71
     8
 72
     1
  1
0.3  
210
0.0
220
0.0
230
1.0
 73
     1
 44
1.0
  0
MTEXT
  5
97
100
AcDbEntity
  8
256
390
0
 62
     8
100
AcDbMText
 10
262.375031
 20
17.744792
 30
0.0
 40
1.75
 41
1.622727
 71
     8
 72
     1
  1
2  
210
0.0
220
0.0
230
1.0
 73
     1
 44
1.0
  0
MTEXT
  5
98
100
AcDbEntity
  8
256
390
0
 62
     8
100
AcDbMText
 10
262.375031
 20
14.244792
 30
0.0
 40
1.75
 41
1.622727
 71
     8
 72
     1
  1
3  
210
0.0
220
0.0
230
1.0
 73
     1
 44
1.0
  0
MTEXT
  5
99
100
AcDbEntity
  8
256
390
0
 62
     8
100
AcDbMText
 10
328.687321
 20
19.668163
 30
0.0
 40
3.386667
 41
22.536729
 71
     8
 72
     1
  1
三角法  
210
0.0
220
0.0
230
1.0
 73
     1
 44
1.0
  0
MTEXT
  5
9A
100
AcDbEntity
  8
256
390
0
 62
     8
100
AcDbMText
 10
365.92539
 20
11.0735
 30
0.0
 40
3.386667
 41
99.506434
 71
     8
 72
     1
  1
双 葉 電 子 工 業 株 式 会 社  
210
0.0
220
0.0
230
1.0
 73
     1
 44
1.0
  0
MTEXT
  5
9B
100
AcDbEntity
  8
256
390
0
 62
     8
100
AcDbMText
 10
256.625031
 20
17.744792
 30
0.0
 40
1.75
 41
4.565909
 71
     8
 72
     1
  1
0.8  
210
0.0
220
0.0
230
1.0
 73
     1
 44
1.0
  0
MTEXT
  5
9C
100
AcDbEntity
  8
256
390
0
 62
     8
100
AcDbMText
 10
312.769883
 20
27.273035
 30
0.0
 40
3.386667
 41
17.518305
 71
     8
 72
     1
  1
承 認  
210
0.0
220
0.0
230
1.0
 73
     1
 44
1.0
  0
MTEXT
  5
9D
100
AcDbEntity
  8
256
390
0
 62
     8
100
AcDbMText
 10
268.125015
 20
28.244792
 30
0.0
 40
1.75
 41
0.843182
 71
     8
 72
     1
  1
1  
210
0.0
220
0.0
230
1.0
 73
     1
 44
1.0
  0
MTEXT
  5
9E
100
AcDbEntity
  8
256
390
0
 62
     8
100
AcDbMText
 10
247.07562
 20
45.235875
 30
0.0
 40
1.7
 41
74.846364
 71
     8
 72
     1
  1
削り加工寸法の普通許容差 JIS B 0405-1991  
210
0.0
220
0.0
230
1.0
 73
     1
 44
1.0
  0
MTEXT
  5
9F
100
AcDbEntity
  8
256
390
0
 62
     8
100
AcDbMText
 10
250.875031
 20
24.744792
 30
0.0
 40
1.75
 41
6.586364
 71
     8
 72
     1
  1
0.15  
210
0.0
220
0.0
230
1.0
 73
     1
 44
1.0
  0
MTEXT
  5
A0
100
AcDbEntity
  8
256
390
0
 62
     8
100
AcDbMText
 10
250.875031
 20
9.839584
 30
0.0
 40
2.54
 41
2.632364
 71
     8
 72
     1
  1
-  
210
0.0
220
0.0
230
1.0
 73
     1
 44
1.0
  0
MTEXT
  5
A1
100
AcDbEntity
  8
256
390
0
 62
     8
100
AcDbMText
 10
296.045235
 20
27.214792
 30
0.0
 40
3.386667
 41
17.025699
 71
     8
 72
     1
  1
検 図  
210
0.0
220
0.0
230
1.0
 73
     1
 44
1.0
  0
MTEXT
  5
A2
100
AcDbEntity
  8
256
390
0
 62
     8
100
AcDbMText
 10
268.125015
 20
34.339584
 30
0.0
 40
2.54
 41
2.632364
 71
     8
 72
     1
  1
-  
210
0.0
220
0.0
230
1.0
 73
     1
 44
1.0
  0
MTEXT
  5
A3
100
AcDbEntity
  8
256
390
0
 62
     8
100
AcDbMText
 10
256.625031
 20
31.744792
 30
0.0
 40
1.75
 41
3.993182
 71
     8
 72
     1
  1
0.1  
210
0.0
220
0.0
230
1.0
 73
     1
 44
1.0
  0
MTEXT
  5
A4
100
AcDbEntity
  8
256
390
0
 62
     8
100
AcDbMText
 10
263.01344
 20
39.076539
 30
0.0
 40
2.0
 41
7.527273
 71
     8
 72
     1
  1
c %%p  
210
0.0
220
0.0
230
1.0
 73
     1
 44
1.0
  0
MTEXT
  5
A5
100
AcDbEntity
  8
256
390
0
 62
     8
100
AcDbMText
 10
360.130196
 20
278.047566
 30
0.0
 40
3.386667
 41
6.68097
 71
     8
 72
     1
  1
上  
210
0.0
220
0.0
230
1.0
 73
     1
 44
1.0
  0
MTEXT
  5
A6
100
AcDbEntity
  8
256
390
0
 62
     8
100
AcDbMText
 10
232.748022
 20
282.92144
 30
0.0
 40
3.386667
 41
14.870547
 71
     8
 72
     1
  1
記号  
210
0.0
220
0.0
230
1.0
 73
     1
 44
1.0
  0
MTEXT
  5
A7
100
AcDbEntity
  8
256
390
0
 62
     8
100
AcDbMText
 10
256.625031
 20
21.244792
 30
0.0
 40
1.75
 41
4.55
 71
     8
 72
     1
  1
0.5  
210
0.0
220
0.0
230
1.0
 73
     1
 44
1.0
  0
MTEXT
  5
A8
100
AcDbEntity
  8
256
390
0
 62
     8
100
AcDbMText
 10
256.625031
 20
10.744792
 30
0.0
 40
1.75
 41
1.622727
 71
     8
 72
     1
  1
2  
210
0.0
220
0.0
230
1.0
 73
     1
 44
1.0
  0
MTEXT
  5
A9
100
AcDbEntity
  8
256
390
0
 62
     8
100
AcDbMText
 10
262.375031
 20
21.244792
 30
0.0
 40
1.75
 41
4.263636
 71
     8
 72
     1
  1
1.2  
210
0.0
220
0.0
230
1.0
 73
     1
 44
1.0
  0
MTEXT
  5
AA
100
AcDbEntity
  8
256
390
0
 62
     8
100
AcDbMText
 10
360.130196
 20
282.575181
 30
0.0
 40
3.386667
 41
7.050425
 71
     8
 72
     1
  1
仕  
210
0.0
220
0.0
230
1.0
 73
     1
 44
1.0
  0
MTEXT
  5
AB
100
AcDbEntity
  8
256
390
0
 62
     8
100
AcDbMText
 10
268.125015
 20
10.744792
 30
0.0
 40
1.75
 41
1.654545
 71
     8
 72
     1
  1
8  
210
0.0
220
0.0
230
1.0
 73
     1
 44
1.0
  0
MTEXT
  5
AC
100
AcDbEntity
  8
256
390
0
 62
     8
100
AcDbMText
 10
360.130196
 20
260.858133
 30
0.0
 40
2.822222
 41
5.875353
 71
     8
 72
     1
  1
処  
210
0.0
220
0.0
230
1.0
 73
     1
 44
1.0
  0
MTEXT
  5
AD
100
AcDbEntity
  8
256
390
0
 62
     8
100
AcDbMText
 10
336.870941
 20
283.013492
 30
0.0
 40
3.386667
 41
22.81382
 71
     8
 72
     1
  1
担当者     
210
0.0
220
0.0
230
1.0
 73
     1
 44
1.0
  0
MTEXT
  5
AE
100
AcDbEntity
  8
256
390
0
 62
     8
100
AcDbMText
 10
251.577735
 20
39.076539
 30
0.0
 40
2.0
 41
6.836364
 71
     8
 72
     1
  1
f %%p  
210
0.0
220
0.0
230
1.0
 73
     1
 44
1.0
  0
MTEXT
  5
AF
100
AcDbEntity
  8
256
390
0
 62
     8
100
AcDbMText
 10
360.130196
 20
263.973919
 30
0.0
 40
2.822222
 41
5.952323
 71
     8
 72
     1
  1
熱  
210
0.0
220
0.0
230
1.0
 73
     1
 44
1.0
  0
MTEXT
  5
B0
100
AcDbEntity
  8
256
390
0
 62
     8
100
AcDbMText
 10
268.125015
 20
31.744792
 30
0.0
 40
1.75
 41
4.55
 71
     8
 72
     1
  1
0.5  
210
0.0
220
0.0
230
1.0
 73
     1
 44
1.0
  0
MTEXT
  5
B1
100
AcDbEntity
  8
256
390
0
 62
     8
100
AcDbMText
 10
328.494219
 20
43.012096
 30
0.0
 40
3.386667
 41
17.30279
 71
     8
 72
     1
  1
尺 度  
210
0.0
220
0.0
230
1.0
 73
     1
 44
1.0
  0
MTEXT
  5
B2
100
AcDbEntity
  8
256
390
0
 62
     8
100
AcDbMText
 10
262.660189
 20
41.133356
 30
0.0
 40
1.7952
 41
7.9968
 71
     8
 72
     1
  1
粗級  
210
0.0
220
0.0
230
1.0
 73
     1
 44
1.0
  0
MTEXT
  5
B3
100
AcDbEntity
  8
256
390
0
 62
     8
100
AcDbMText
 10
225.086682
 20
40.357732
 30
0.0
 40
1.5
 41
6.640909
 71
     8
 72
     1
  1
基準  
210
0.0
220
0.0
230
1.0
 73
     1
 44
1.0
  0
MTEXT
  5
B4
100
AcDbEntity
  8
256
390
0
 62
     8
100
AcDbMText
 10
268.384088
 20
41.201556
 30
0.0
 40
1.584
 41
10.8
 71
     8
 72
     1
  1
極粗級  
210
0.0
220
0.0
230
1.0
 73
     1
 44
1.0
  0
MTEXT
  5
B5
100
AcDbEntity
  8
256
390
0
 62
     8
100
AcDbMText
 10
256.625031
 20
14.244792
 30
0.0
 40
1.75
 41
4.263636
 71
     8
 72
     1
  1
1.2  
210
0.0
220
0.0
230
1.0
 73
     1
 44
1.0
  0
MTEXT
  5
B6
100
AcDbEntity
  8
256
390
0
 62
     8
100
AcDbMText
 10
360.130196
 20
272.53334
 30
0.0
 40
3.386667
 41
7.050425
 71
     8
 72
     1
  1
処  
210
0.0
220
0.0
230
1.0
 73
     1
 44
1.0
  0
INSERT
  5
BB
100
AcDbEntity
  8
256
390
0
100
AcDbBlockReference
  2
AID287
 10
0.0
 20
0.0
 30
0.0
  0
LINE
  5
BD
100
AcDbEntity
  8
1
390
0
  6
Continuous
 62
     7
100
AcDbLine
 10
171.783259
 20
186.224041
 30
0.0
 11
171.783259
 21
189.524041
 31
0.0
  0
LINE
  5
BE
100
AcDbEntity
  8
1
390
0
  6
Continuous
 62
     7
100
AcDbLine
 10
171.983259
 20
193.024041
 30
0.0
 11
171.983259
 21
189.524041
 31
0.0
  0
LINE
  5
BF
100
AcDbEntity
  8
1
390
0
  6
Continuous
 62
     7
100
AcDbLine
 10
171.783259
 20
189.524041
 30
0.0
 11
171.783259
 21
192.824041
 31
0.0
  0
LINE
  5
C0
100
AcDbEntity
  8
1
390
0
  6
Continuous
 62
     7
100
AcDbLine
 10
171.983259
 20
189.524041
 30
0.0
 11
171.983259
 21
186.024041
 31
0.0
  0
LINE
  5
C1
100
AcDbEntity
  8
1
390
0
  6
Continuous
 62
     7
100
AcDbLine
 10
176.583259
 20
186.024041
 30
0.0
 11
176.583259
 21
188.225003
 31
0.0
  0
LINE
  5
C4
100
AcDbEntity
  8
5
390
0
  6
DOT
 62
     9
100
AcDbLine
 10
175.283259
 20
190.823079
 30
0.0
 11
176.583259
 21
190.823079
 31
0.0
  0
LINE
  5
C5
100
AcDbEntity
  8
1
390
0
  6
Continuous
 62
     7
100
AcDbLine
 10
176.583259
 20
190.823079
 30
0.0
 11
176.583259
 21
193.024041
 31
0.0
  0
LINE
  5
C6
100
AcDbEntity
  8
1
390
0
  6
Continuous
 62
     7
100
AcDbLine
 10
175.283259
 20
190.823079
 30
0.0
 11
176.583259
 21
190.823079
 31
0.0
  0
LINE
  5
C7
100
AcDbEntity
  8
1
390
0
  6
Continuous
 62
     7
100
AcDbLine
 10
175.283259
 20
190.823079
 30
0.0
 11
175.283259
 21
188.225003
 31
0.0
  0
LINE
  5
C8
100
AcDbEntity
  8
1
390
0
  6
Continuous
 62
     7
100
AcDbLine
 10
175.283259
 20
188.225003
 30
0.0
 11
176.583259
 21
188.225003
 31
0.0
  0
ARC
  5
C9
100
AcDbEntity
  8
1
390
0
  6
Continuous
 62
     7
100
AcDbCircle
 10
172.74194
 20
189.673008
 30
0.0
 40
4.105174
210
0.0
220
0.0
230
1.0
100
AcDbArc
 50
339.345801
 51
349.881107
  0
LINE
  5
CA
100
AcDbEntity
  8
1
390
0
  6
Continuous
 62
     7
100
AcDbLine
 10
176.783259
 20
188.951765
 30
0.0
 11
176.783259
 21
186.224041
 31
0.0
  0
ARC
  5
CB
100
AcDbEntity
  8
5
390
0
  6
DOT
 62
     9
100
AcDbCircle
 10
172.743781
 20
189.672501
 30
0.0
 40
4.103272
210
0.0
220
0.0
230
1.0
100
AcDbArc
 50
339.343352
 51
349.883556
  0
ARC
  5
CC
100
AcDbEntity
  8
1
390
0
  6
Continuous
 62
     7
100
AcDbCircle
 10
172.743781
 20
189.37558
 30
0.0
 40
4.103272
210
0.0
220
0.0
230
1.0
100
AcDbArc
 50
10.116444
 51
20.656648
  0
LINE
  5
CD
100
AcDbEntity
  8
1
390
0
  6
Continuous
 62
     7
100
AcDbLine
 10
176.783259
 20
188.951765
 30
0.0
 11
176.783259
 21
190.096317
 31
0.0
  0
LINE
  5
CE
100
AcDbEntity
  8
1
390
0
  6
Continuous
 62
     7
100
AcDbLine
 10
176.783259
 20
192.824041
 30
0.0
 11
176.783259
 21
190.096317
 31
0.0
  0
ARC
  5
CF
100
AcDbEntity
  8
5
390
0
  6
DOT
 62
     9
100
AcDbCircle
 10
172.74194
 20
189.375074
 30
0.0
 40
4.105174
210
0.0
220
0.0
230
1.0
100
AcDbArc
 50
10.118893
 51
20.654199
  0
LINE
  5
D0
100
AcDbEntity
  8
1
390
0
  6
Continuous
 62
     7
100
AcDbLine
 10
186.383259
 20
187.024041
 30
0.0
 11
186.383259
 21
188.434316
 31
0.0
  0
LINE
  5
D1
100
AcDbEntity
  8
1
390
0
  6
Continuous
 62
     7
100
AcDbLine
 10
178.983259
 20
187.024041
 30
0.0
 11
178.983259
 21
189.524041
 31
0.0
  0
LINE
  5
D2
100
AcDbEntity
  8
5
390
0
  6
DOT
 62
     9
100
AcDbLine
 10
184.383259
 20
190.613766
 30
0.0
 11
186.383259
 21
190.613766
 31
0.0
  0
LINE
  5
D3
100
AcDbEntity
  8
1
390
0
  6
Continuous
 62
     7
100
AcDbLine
 10
186.383259
 20
190.613766
 30
0.0
 11
186.383259
 21
192.024041
 31
0.0
  0
LINE
  5
D4
100
AcDbEntity
  8
1
390
0
  6
Continuous
 62
     7
100
AcDbLine
 10
184.383259
 20
190.613766
 30
0.0
 11
186.383259
 21
190.613766
 31
0.0
  0
LINE
  5
D5
100
AcDbEntity
  8
1
390
0
  6
Continuous
 62
     7
100
AcDbLine
 10
184.383259
 20
188.434316
 30
0.0
 11
186.383259
 21
188.434316
 31
0.0
  0
LINE
  5
D6
100
AcDbEntity
  8
1
390
0
  6
Continuous
 62
     7
100
AcDbLine
 10
178.983259
 20
189.524041
 30
0.0
 11
178.983259
 21
192.024041
 31
0.0
  0
LINE
  5
D7
100
AcDbEntity
  8
1
390
0
  6
Continuous
 62
     7
100
AcDbLine
 10
184.383259
 20
188.434316
 30
0.0
 11
184.383259
 21
190.613766
 31
0.0
  0
LINE
  5
D8
100
AcDbEntity
  8
1
390
0
  6
Continuous
 62
     7
100
AcDbLine
 10
190.783259
 20
187.524041
 30
0.0
 11
190.783259
 21
191.524041
 31
0.0
  0
LINE
  5
D9
100
AcDbEntity
  8
1
390
0
  6
Continuous
 62
     7
100
AcDbLine
 10
191.283259
 20
192.024041
 30
0.0
 11
191.283259
 21
187.024041
 31
0.0
  0
LINE
  5
DA
100
AcDbEntity
  8
1
390
0
  6
Continuous
 62
     7
100
AcDbLine
 10
193.783259
 20
187.024041
 30
0.0
 11
193.783259
 21
192.024041
 31
0.0
  0
LINE
  5
DB
100
AcDbEntity
  8
1
390
0
  6
Continuous
 62
     7
100
AcDbLine
 10
178.783259
 20
187.024041
 30
0.0
 11
178.783259
 21
188.434316
 31
0.0
  0
LINE
  5
DC
100
AcDbEntity
  8
5
390
0
  6
DOT
 62
     9
100
AcDbLine
 10
177.383259
 20
190.613766
 30
0.0
 11
178.783259
 21
190.613766
 31
0.0
  0
LINE
  5
DD
100
AcDbEntity
  8
1
390
0
  6
Continuous
 62
     7
100
AcDbLine
 10
178.783259
 20
190.613766
 30
0.0
 11
178.783259
 21
192.024041
 31
0.0
  0
LINE
  5
DE
100
AcDbEntity
  8
1
390
0
  6
Continuous
 62
     7
100
AcDbLine
 10
177.383259
 20
190.613766
 30
0.0
 11
178.783259
 21
190.613766
 31
0.0
  0
LINE
  5
DF
100
AcDbEntity
  8
1
390
0
  6
Continuous
 62
     7
100
AcDbLine
 10
177.383259
 20
188.434316
 30
0.0
 11
178.783259
 21
188.434316
 31
0.0
  0
LINE
  5
E0
100
AcDbEntity
  8
1
390
0
  6
Continuous
 62
     7
100
AcDbLine
 10
177.383259
 20
188.434316
 30
0.0
 11
177.383259
 21
190.613766
 31
0.0
  0
LINE
  5
E1
100
AcDbEntity
  8
1
390
0
  6
Continuous
 62
     7
100
AcDbLine
 10
178.883259
 20
187.124041
 30
0.0
 11
178.883259
 21
188.688876
 31
0.0
  0
LINE
  5
E2
100
AcDbEntity
  8
1
390
0
  6
Continuous
 62
     7
100
AcDbLine
 10
178.883259
 20
188.688876
 30
0.0
 11
178.883259
 21
190.359206
 31
0.0
  0
LINE
  5
E3
100
AcDbEntity
  8
1
390
0
  6
Continuous
 62
     7
100
AcDbLine
 10
178.883259
 20
190.359206
 30
0.0
 11
178.883259
 21
191.924041
 31
0.0
  0
POLYLINE
  5
E4
100
AcDbEntity
  8
1
390
0
  6
Continuous
 62
     7
100
AcDb2dPolyline
 66
     1
 10
0.0
 20
0.0
 30
0.0
 40
1.0
 41
1.0
  0
VERTEX
  5
E5
100
AcDbEntity
  8
1
390
0
 62
     7
100
AcDbVertex
100
AcDb2dVertex
 10
178.783259
 20
188.434316
 30
0.0
  0
VERTEX
  5
E6
100
AcDbEntity
  8
1
390
0
 62
     7
100
AcDbVertex
100
AcDb2dVertex
 10
178.835647
 20
188.560555
 30
0.0
  0
VERTEX
  5
E7
100
AcDbEntity
  8
1
390
0
 62
     7
100
AcDbVertex
100
AcDb2dVertex
 10
178.883259
 20
188.688876
 30
0.0
  0
SEQEND
  5
E8
100
AcDbEntity
  8
0
390
0
  0
POLYLINE
  5
E9
100
AcDbEntity
  8
5
390
0
  6
DOT
 62
     9
100
AcDb2dPolyline
 66
     1
 10
0.0
 20
0.0
 30
0.0
 40
1.0
 41
1.0
  0
VERTEX
  5
EA
100
AcDbEntity
  8
5
390
0
 62
     9
100
AcDbVertex
100
AcDb2dVertex
 10
178.883259
 20
188.688876
 30
0.0
  0
VERTEX
  5
EB
100
AcDbEntity
  8
5
390
0
 62
     9
100
AcDbVertex
100
AcDb2dVertex
 10
178.835719
 20
188.56074
 30
0.0
  0
VERTEX
  5
EC
100
AcDbEntity
  8
5
390
0
 62
     9
100
AcDbVertex
100
AcDb2dVertex
 10
178.783259
 20
188.434316
 30
0.0
  0
SEQEND
  5
ED
100
AcDbEntity
  8
0
390
0
  0
POLYLINE
  5
EE
100
AcDbEntity
  8
1
390
0
  6
Continuous
 62
     7
100
AcDb2dPolyline
 66
     1
 10
0.0
 20
0.0
 30
0.0
 40
1.0
 41
1.0
  0
VERTEX
  5
EF
100
AcDbEntity
  8
1
390
0
 62
     7
100
AcDbVertex
100
AcDb2dVertex
 10
178.883259
 20
190.359206
 30
0.0
  0
VERTEX
  5
F0
100
AcDbEntity
  8
1
390
0
 62
     7
100
AcDbVertex
100
AcDb2dVertex
 10
178.835719
 20
190.487342
 30
0.0
  0
VERTEX
  5
F1
100
AcDbEntity
  8
1
390
0
 62
     7
100
AcDbVertex
100
AcDb2dVertex
 10
178.783259
 20
190.613766
 30
0.0
  0
SEQEND
  5
F2
100
AcDbEntity
  8
0
390
0
  0
ARC
  5
F3
100
AcDbEntity
  8
1
390
0
  6
Continuous
 62
     7
100
AcDbCircle
 10
184.131072
 20
189.524041
 30
0.0
 40
2.501968
210
0.0
220
0.0
230
1.0
100
AcDbArc
 50
334.179893
 51
25.820107
  0
POLYLINE
  5
F4
100
AcDbEntity
  8
5
390
0
  6
DOT
 62
     9
100
AcDb2dPolyline
 66
     1
 10
0.0
 20
0.0
 30
0.0
 40
1.0
 41
1.0
  0
VERTEX
  5
F5
100
AcDbEntity
  8
5
390
0
 62
     9
100
AcDbVertex
100
AcDb2dVertex
 10
178.783259
 20
190.613766
 30
0.0
  0
VERTEX
  5
F6
100
AcDbEntity
  8
5
390
0
 62
     9
100
AcDbVertex
100
AcDb2dVertex
 10
178.835647
 20
190.487527
 30
0.0
  0
VERTEX
  5
F7
100
AcDbEntity
  8
5
390
0
 62
     9
100
AcDbVertex
100
AcDb2dVertex
 10
178.883259
 20
190.359206
 30
0.0
  0
SEQEND
  5
F8
100
AcDbEntity
  8
0
390
0
  0
LINE
  5
F9
100
AcDbEntity
  8
1
390
0
  6
Continuous
 62
     7
100
AcDbLine
 10
186.883259
 20
187.524041
 30
0.0
 11
186.883259
 21
189.524041
 31
0.0
  0
LINE
  5
FA
100
AcDbEntity
  8
1
390
0
  6
Continuous
 62
     7
100
AcDbLine
 10
186.883259
 20
189.524041
 30
0.0
 11
186.883259
 21
191.524041
 31
0.0
  0
LINE
  5
FB
100
AcDbEntity
  8
1
390
0
  6
Continuous
 62
     7
100
AcDbLine
 10
163.783259
 20
187.524041
 30
0.0
 11
163.783259
 21
189.524041
 31
0.0
  0
LINE
  5
FC
100
AcDbEntity
  8
1
390
0
  6
Continuous
 62
     7
100
AcDbLine
 10
164.683259
 20
187.524041
 30
0.0
 11
164.683259
 21
189.524041
 31
0.0
  0
LINE
  5
FD
100
AcDbEntity
  8
1
390
0
  6
Continuous
 62
     7
100
AcDbLine
 10
163.783259
 20
189.524041
 30
0.0
 11
163.783259
 21
191.524041
 31
0.0
  0
LINE
  5
FE
100
AcDbEntity
  8
1
390
0
  6
Continuous
 62
     7
100
AcDbLine
 10
164.683259
 20
189.524041
 30
0.0
 11
164.683259
 21
191.524041
 31
0.0
  0
LINE
  5
FF
100
AcDbEntity
  8
1
390
0
  6
Continuous
 62
     7
100
AcDbLine
 10
165.483259
 20
187.524041
 30
0.0
 11
165.483259
 21
189.524041
 31
0.0
  0
LINE
  5
100
100
AcDbEntity
  8
1
390
0
  6
Continuous
 62
     7
100
AcDbLine
 10
166.083259
 20
187.524041
 30
0.0
 11
166.083259
 21
189.524041
 31
0.0
  0
LINE
  5
101
100
AcDbEntity
  8
1
390
0
  6
Continuous
 62
     7
100
AcDbLine
 10
165.483259
 20
189.524041
 30
0.0
 11
165.483259
 21
191.524041
 31
0.0
  0
LINE
  5
102
100
AcDbEntity
  8
1
390
0
  6
Continuous
 62
     7
100
AcDbLine
 10
166.083259
 20
189.524041
 30
0.0
 11
166.083259
 21
191.524041
 31
0.0
  0
LINE
  5
103
100
AcDbEntity
  8
1
390
0
  6
Continuous
 62
     7
100
AcDbLine
 10
170.583259
 20
187.524041
 30
0.0
 11
170.583259
 21
189.524041
 31
0.0
  0
LINE
  5
104
100
AcDbEntity
  8
1
390
0
  6
Continuous
 62
     7
100
AcDbLine
 10
170.583259
 20
189.524041
 30
0.0
 11
170.583259
 21
191.524041
 31
0.0
  0
LINE
  5
105
100
AcDbEntity
  8
1
390
0
  6
Continuous
 62
     7
100
AcDbLine
 10
219.939811
 20
190.424041
 30
0.0
 11
193.783259
 21
190.424041
 31
0.0
  0
LINE
  5
106
100
AcDbEntity
  8
1
390
0
  6
Continuous
 62
     7
100
AcDbLine
 10
193.783259
 20
188.624041
 30
0.0
 11
218.878272
 21
188.624041
 31
0.0
  0
ARC
  5
107
100
AcDbEntity
  8
1
390
0
  6
Continuous
 62
     7
100
AcDbCircle
 10
165.083259
 20
187.704041
 30
0.0
 40
0.32
210
0.0
220
0.0
230
1.0
100
AcDbArc
 50
180.0
 51
360.0
  0
ARC
  5
108
100
AcDbEntity
  8
5
390
0
  6
DOT
 62
     9
100
AcDbCircle
 10
165.083259
 20
187.704041
 30
0.0
 40
0.32
210
0.0
220
0.0
230
1.0
100
AcDbArc
 50
360.0
 51
180.0
  0
ARC
  5
109
100
AcDbEntity
  8
1
390
0
  6
Continuous
 62
     7
100
AcDbCircle
 10
165.083259
 20
191.344041
 30
0.0
 40
0.32
210
0.0
220
0.0
230
1.0
100
AcDbArc
 50
0.0
 51
180.0
  0
ARC
  5
10A
100
AcDbEntity
  8
5
390
0
  6
DOT
 62
     9
100
AcDbCircle
 10
165.083259
 20
191.344041
 30
0.0
 40
0.32
210
0.0
220
0.0
230
1.0
100
AcDbArc
 50
180.0
 51
360.0
  0
LINE
  5
10B
100
AcDbEntity
  8
1
390
0
  6
Continuous
 62
     7
100
AcDbLine
 10
165.403259
 20
187.704041
 30
0.0
 11
165.403259
 21
191.344041
 31
0.0
  0
LINE
  5
10C
100
AcDbEntity
  8
1
390
0
  6
Continuous
 62
     7
100
AcDbLine
 10
164.763259
 20
191.344041
 30
0.0
 11
164.763259
 21
187.704041
 31
0.0
  0
LINE
  5
10D
100
AcDbEntity
  8
1
390
0
  6
Continuous
 62
     7
100
AcDbLine
 10
171.983259
 20
193.024041
 30
0.0
 11
171.783259
 21
192.824041
 31
0.0
  0
LINE
  5
10E
100
AcDbEntity
  8
1
390
0
  6
Continuous
 62
     7
100
AcDbLine
 10
171.783259
 20
186.224041
 30
0.0
 11
171.983259
 21
186.024041
 31
0.0
  0
LINE
  5
10F
100
AcDbEntity
  8
1
390
0
  6
Continuous
 62
     7
100
AcDbLine
 10
171.983259
 20
186.024041
 30
0.0
 11
176.583259
 21
186.024041
 31
0.0
  0
LINE
  5
110
100
AcDbEntity
  8
1
390
0
  6
Continuous
 62
     7
100
AcDbLine
 10
176.583259
 20
193.024041
 30
0.0
 11
171.983259
 21
193.024041
 31
0.0
  0
LINE
  5
111
100
AcDbEntity
  8
1
390
0
  6
Continuous
 62
     7
100
AcDbLine
 10
176.583259
 20
186.024041
 30
0.0
 11
176.783259
 21
186.224041
 31
0.0
  0
LINE
  5
112
100
AcDbEntity
  8
1
390
0
  6
Continuous
 62
     7
100
AcDbLine
 10
176.783259
 20
192.824041
 30
0.0
 11
176.583259
 21
193.024041
 31
0.0
  0
LINE
  5
113
100
AcDbEntity
  8
1
390
0
  6
Continuous
 62
     7
100
AcDbLine
 10
178.983259
 20
187.024041
 30
0.0
 11
186.383259
 21
187.024041
 31
0.0
  0
LINE
  5
114
100
AcDbEntity
  8
1
390
0
  6
Continuous
 62
     7
100
AcDbLine
 10
186.383259
 20
192.024041
 30
0.0
 11
178.983259
 21
192.024041
 31
0.0
  0
LINE
  5
115
100
AcDbEntity
  8
1
390
0
  6
Continuous
 62
     7
100
AcDbLine
 10
191.283259
 20
192.024041
 30
0.0
 11
190.783259
 21
191.524041
 31
0.0
  0
LINE
  5
116
100
AcDbEntity
  8
1
390
0
  6
Continuous
 62
     7
100
AcDbLine
 10
190.783259
 20
187.524041
 30
0.0
 11
191.283259
 21
187.024041
 31
0.0
  0
LINE
  5
117
100
AcDbEntity
  8
1
390
0
  6
Continuous
 62
     7
100
AcDbLine
 10
191.283259
 20
187.024041
 30
0.0
 11
193.783259
 21
187.024041
 31
0.0
  0
LINE
  5
118
100
AcDbEntity
  8
1
390
0
  6
Continuous
 62
     7
100
AcDbLine
 10
193.783259
 20
192.024041
 30
0.0
 11
191.283259
 21
192.024041
 31
0.0
  0
LINE
  5
119
100
AcDbEntity
  8
1
390
0
  6
Continuous
 62
     7
100
AcDbLine
 10
176.783259
 20
187.024041
 30
0.0
 11
178.783259
 21
187.024041
 31
0.0
  0
LINE
  5
11A
100
AcDbEntity
  8
1
390
0
  6
Continuous
 62
     7
100
AcDbLine
 10
178.783259
 20
192.024041
 30
0.0
 11
176.783259
 21
192.024041
 31
0.0
  0
LINE
  5
11B
100
AcDbEntity
  8
1
390
0
  6
Continuous
 62
     7
100
AcDbLine
 10
178.983259
 20
192.024041
 30
0.0
 11
178.883259
 21
191.924041
 31
0.0
  0
LINE
  5
11C
100
AcDbEntity
  8
1
390
0
  6
Continuous
 62
     7
100
AcDbLine
 10
178.883259
 20
187.124041
 30
0.0
 11
178.983259
 21
187.024041
 31
0.0
  0
LINE
  5
11D
100
AcDbEntity
  8
1
390
0
  6
Continuous
 62
     7
100
AcDbLine
 10
178.783259
 20
187.024041
 30
0.0
 11
178.883259
 21
187.124041
 31
0.0
  0
LINE
  5
11E
100
AcDbEntity
  8
1
390
0
  6
Continuous
 62
     7
100
AcDbLine
 10
178.883259
 20
191.924041
 30
0.0
 11
178.783259
 21
192.024041
 31
0.0
  0
LINE
  5
11F
100
AcDbEntity
  8
1
390
0
  6
Continuous
 62
     7
100
AcDbLine
 10
186.383259
 20
187.024041
 30
0.0
 11
186.883259
 21
187.524041
 31
0.0
  0
LINE
  5
120
100
AcDbEntity
  8
1
390
0
  6
Continuous
 62
     7
100
AcDbLine
 10
186.883259
 20
191.524041
 30
0.0
 11
186.383259
 21
192.024041
 31
0.0
  0
ARC
  5
121
100
AcDbEntity
  8
1
390
0
  6
Continuous
 62
     7
100
AcDbCircle
 10
171.683259
 20
187.424041
 30
0.0
 40
0.1
210
0.0
220
0.0
230
1.0
100
AcDbArc
 50
360.0
 51
90.0
  0
ARC
  5
122
100
AcDbEntity
  8
1
390
0
  6
Continuous
 62
     7
100
AcDbCircle
 10
171.683259
 20
191.624041
 30
0.0
 40
0.1
210
0.0
220
0.0
230
1.0
100
AcDbArc
 50
270.0
 51
360.0
  0
LINE
  5
123
100
AcDbEntity
  8
1
390
0
  6
Continuous
 62
     7
100
AcDbLine
 10
163.783259
 20
187.524041
 30
0.0
 11
164.683259
 21
187.524041
 31
0.0
  0
LINE
  5
124
100
AcDbEntity
  8
1
390
0
  6
Continuous
 62
     7
100
AcDbLine
 10
164.683259
 20
191.524041
 30
0.0
 11
163.783259
 21
191.524041
 31
0.0
  0
LINE
  5
125
100
AcDbEntity
  8
1
390
0
  6
Continuous
 62
     7
100
AcDbLine
 10
165.483259
 20
187.524041
 30
0.0
 11
166.083259
 21
187.524041
 31
0.0
  0
LINE
  5
126
100
AcDbEntity
  8
1
390
0
  6
Continuous
 62
     7
100
AcDbLine
 10
166.083259
 20
191.524041
 30
0.0
 11
165.483259
 21
191.524041
 31
0.0
  0
LINE
  5
127
100
AcDbEntity
  8
1
390
0
  6
Continuous
 62
     7
100
AcDbLine
 10
170.583259
 20
187.524041
 30
0.0
 11
171.683259
 21
187.524041
 31
0.0
  0
LINE
  5
128
100
AcDbEntity
  8
1
390
0
  6
Continuous
 62
     7
100
AcDbLine
 10
171.683259
 20
191.524041
 30
0.0
 11
170.583259
 21
191.524041
 31
0.0
  0
LINE
  5
129
100
AcDbEntity
  8
1
390
0
  6
Continuous
 62
     7
100
AcDbLine
 10
190.783259
 20
191.524041
 30
0.0
 11
186.883259
 21
191.524041
 31
0.0
  0
LINE
  5
12A
100
AcDbEntity
  8
1
390
0
  6
Continuous
 62
     7
100
AcDbLine
 10
186.883259
 20
187.524041
 30
0.0
 11
190.783259
 21
187.524041
 31
0.0
  0
LINE
  5
12B
100
AcDbEntity
  8
1
390
0
  6
Continuous
 62
     7
100
AcDbLine
 10
166.083259
 20
187.624041
 30
0.0
 11
170.583259
 21
187.624041
 31
0.0
  0
LINE
  5
12C
100
AcDbEntity
  8
1
390
0
  6
Continuous
 62
     7
100
AcDbLine
 10
170.583259
 20
191.424041
 30
0.0
 11
166.083259
 21
191.424041
 31
0.0
  0
LINE
  5
12D
100
AcDbEntity
  8
1
390
0
  6
Continuous
 62
     7
100
AcDbLine
 10
164.683259
 20
188.024041
 30
0.0
 11
164.763259
 21
188.024041
 31
0.0
  0
LINE
  5
12E
100
AcDbEntity
  8
5
390
0
  6
DOT
 62
     9
100
AcDbLine
 10
164.763259
 20
188.024041
 30
0.0
 11
165.403259
 21
188.024041
 31
0.0
  0
LINE
  5
12F
100
AcDbEntity
  8
1
390
0
  6
Continuous
 62
     7
100
AcDbLine
 10
165.403259
 20
188.024041
 30
0.0
 11
165.483259
 21
188.024041
 31
0.0
  0
LINE
  5
130
100
AcDbEntity
  8
1
390
0
  6
Continuous
 62
     7
100
AcDbLine
 10
165.483259
 20
191.024041
 30
0.0
 11
165.403259
 21
191.024041
 31
0.0
  0
LINE
  5
131
100
AcDbEntity
  8
5
390
0
  6
DOT
 62
     9
100
AcDbLine
 10
165.403259
 20
191.024041
 30
0.0
 11
164.763259
 21
191.024041
 31
0.0
  0
LINE
  5
132
100
AcDbEntity
  8
1
390
0
  6
Continuous
 62
     7
100
AcDbLine
 10
164.763259
 20
191.024041
 30
0.0
 11
164.683259
 21
191.024041
 31
0.0
  0
LINE
  5
133
100
AcDbEntity
  8
1
390
0
  6
Continuous
 62
     7
100
AcDbLine
 10
293.120145
 20
182.284041
 30
0.0
 11
293.120145
 21
196.764041
 31
0.0
  0
LINE
  5
134
100
AcDbEntity
  8
1
390
0
  6
Continuous
 62
     7
100
AcDbLine
 10
288.820145
 20
182.284041
 30
0.0
 11
288.820145
 21
196.764041
 31
0.0
  0
LINE
  5
135
100
AcDbEntity
  8
1
390
0
  6
Continuous
 62
     7
100
AcDbLine
 10
287.120145
 20
183.404041
 30
0.0
 11
287.120145
 21
195.644041
 31
0.0
  0
LINE
  5
136
100
AcDbEntity
  8
1
390
0
  6
Continuous
 62
     7
100
AcDbLine
 10
293.920145
 20
182.604041
 30
0.0
 11
293.920145
 21
196.444041
 31
0.0
  0
LINE
  5
137
100
AcDbEntity
  8
1
390
0
  6
Continuous
 62
     7
100
AcDbLine
 10
299.920145
 20
182.604041
 30
0.0
 11
299.920145
 21
196.444041
 31
0.0
  0
LINE
  5
138
100
AcDbEntity
  8
1
390
0
  6
Continuous
 62
     7
100
AcDbLine
 10
299.720145
 20
182.804041
 30
0.0
 11
299.720145
 21
196.244041
 31
0.0
  0
LINE
  5
139
100
AcDbEntity
  8
1
390
0
  6
Continuous
 62
     7
100
AcDbLine
 10
301.920145
 20
182.604041
 30
0.0
 11
301.920145
 21
196.444041
 31
0.0
  0
LINE
  5
13A
100
AcDbEntity
  8
1
390
0
  6
Continuous
 62
     7
100
AcDbLine
 10
302.120145
 20
182.804041
 30
0.0
 11
302.120145
 21
196.244041
 31
0.0
  0
POLYLINE
  5
13B
100
AcDbEntity
  8
1
390
0
  6
Continuous
 62
     7
100
AcDb2dPolyline
 66
     1
 10
0.0
 20
0.0
 30
0.0
 40
1.0
 41
1.0
  0
VERTEX
  5
13C
100
AcDbEntity
  8
1
390
0
 62
     7
100
AcDbVertex
100
AcDb2dVertex
 10
297.931938
 20
195.124041
 30
0.0
  0
VERTEX
  5
13D
100
AcDbEntity
  8
1
390
0
 62
     7
100
AcDbVertex
100
AcDb2dVertex
 10
298.058673
 20
195.104334
 30
0.0
  0
VERTEX
  5
13E
100
AcDbEntity
  8
1
390
0
 62
     7
100
AcDbVertex
100
AcDb2dVertex
 10
298.19099
 20
195.041858
 30
0.0
  0
VERTEX
  5
13F
100
AcDbEntity
  8
1
390
0
 62
     7
100
AcDbVertex
100
AcDb2dVertex
 10
298.323306
 20
194.937053
 30
0.0
  0
SEQEND
  5
140
100
AcDbEntity
  8
0
390
0
  0
POLYLINE
  5
141
100
AcDbEntity
  8
5
390
0
  6
DOT
 62
     9
100
AcDb2dPolyline
 66
     1
 10
0.0
 20
0.0
 30
0.0
 40
1.0
 41
1.0
  0
VERTEX
  5
142
100
AcDbEntity
  8
5
390
0
 62
     9
100
AcDbVertex
100
AcDb2dVertex
 10
295.550805
 20
195.124041
 30
0.0
  0
VERTEX
  5
143
100
AcDbEntity
  8
5
390
0
 62
     9
100
AcDbVertex
100
AcDb2dVertex
 10
295.421352
 20
195.103481
 30
0.0
  0
VERTEX
  5
144
100
AcDbEntity
  8
5
390
0
 62
     9
100
AcDbVertex
100
AcDb2dVertex
 10
295.272516
 20
195.029235
 30
0.0
 42
0.127848
  0
VERTEX
  5
145
100
AcDbEntity
  8
5
390
0
 62
     9
100
AcDbVertex
100
AcDb2dVertex
 10
294.528334
 20
193.88888
 30
0.0
  0
SEQEND
  5
146
100
AcDbEntity
  8
0
390
0
  0
POLYLINE
  5
147
100
AcDbEntity
  8
5
390
0
  6
DOT
 62
     9
100
AcDb2dPolyline
 66
     1
 10
0.0
 20
0.0
 30
0.0
 40
1.0
 41
1.0
  0
VERTEX
  5
148
100
AcDbEntity
  8
5
390
0
 62
     9
100
AcDbVertex
100
AcDb2dVertex
 10
297.931938
 20
183.924041
 30
0.0
  0
VERTEX
  5
149
100
AcDbEntity
  8
5
390
0
 62
     9
100
AcDbVertex
100
AcDb2dVertex
 10
298.058673
 20
183.943748
 30
0.0
  0
VERTEX
  5
14A
100
AcDbEntity
  8
5
390
0
 62
     9
100
AcDbVertex
100
AcDb2dVertex
 10
298.19099
 20
184.006224
 30
0.0
  0
VERTEX
  5
14B
100
AcDbEntity
  8
5
390
0
 62
     9
100
AcDbVertex
100
AcDb2dVertex
 10
298.323306
 20
184.111029
 30
0.0
  0
SEQEND
  5
14C
100
AcDbEntity
  8
0
390
0
  0
POLYLINE
  5
14D
100
AcDbEntity
  8
1
390
0
  6
Continuous
 62
     7
100
AcDb2dPolyline
 66
     1
 10
0.0
 20
0.0
 30
0.0
 40
1.0
 41
1.0
  0
VERTEX
  5
14E
100
AcDbEntity
  8
1
390
0
 62
     7
100
AcDbVertex
100
AcDb2dVertex
 10
295.550805
 20
183.924041
 30
0.0
  0
VERTEX
  5
14F
100
AcDbEntity
  8
1
390
0
 62
     7
100
AcDbVertex
100
AcDb2dVertex
 10
295.421352
 20
183.944601
 30
0.0
  0
VERTEX
  5
150
100
AcDbEntity
  8
1
390
0
 62
     7
100
AcDbVertex
100
AcDb2dVertex
 10
295.272516
 20
184.018846
 30
0.0
 42
-0.127848
  0
VERTEX
  5
151
100
AcDbEntity
  8
1
390
0
 62
     7
100
AcDbVertex
100
AcDb2dVertex
 10
294.528334
 20
185.159202
 30
0.0
  0
SEQEND
  5
152
100
AcDbEntity
  8
0
390
0
  0
LINE
  5
153
100
AcDbEntity
  8
1
390
0
  6
Continuous
 62
     7
100
AcDbLine
 10
298.323306
 20
194.937053
 30
0.0
 11
299.720145
 21
194.937053
 31
0.0
  0
POLYLINE
  5
154
100
AcDbEntity
  8
1
390
0
  6
Continuous
 62
     7
100
AcDb2dPolyline
 66
     1
 10
0.0
 20
0.0
 30
0.0
 40
1.0
 41
1.0
  0
VERTEX
  5
155
100
AcDbEntity
  8
1
390
0
 62
     7
100
AcDbVertex
100
AcDb2dVertex
 10
297.000145
 20
194.09153
 30
0.0
 42
-0.066493
  0
VERTEX
  5
156
100
AcDbEntity
  8
1
390
0
 62
     7
100
AcDbVertex
100
AcDb2dVertex
 10
297.463251
 20
194.856522
 30
0.0
  0
VERTEX
  5
157
100
AcDbEntity
  8
1
390
0
 62
     7
100
AcDbVertex
100
AcDb2dVertex
 10
297.595567
 20
194.98571
 30
0.0
  0
VERTEX
  5
158
100
AcDbEntity
  8
1
390
0
 62
     7
100
AcDbVertex
100
AcDb2dVertex
 10
297.727883
 20
195.073001
 30
0.0
  0
VERTEX
  5
159
100
AcDbEntity
  8
1
390
0
 62
     7
100
AcDbVertex
100
AcDb2dVertex
 10
297.860199
 20
195.117724
 30
0.0
  0
VERTEX
  5
15A
100
AcDbEntity
  8
1
390
0
 62
     7
100
AcDbVertex
100
AcDb2dVertex
 10
297.931938
 20
195.124041
 30
0.0
  0
SEQEND
  5
15B
100
AcDbEntity
  8
0
390
0
  0
POLYLINE
  5
15C
100
AcDbEntity
  8
5
390
0
  6
DOT
 62
     9
100
AcDb2dPolyline
 66
     1
 10
0.0
 20
0.0
 30
0.0
 40
1.0
 41
1.0
  0
VERTEX
  5
15D
100
AcDbEntity
  8
5
390
0
 62
     9
100
AcDbVertex
100
AcDb2dVertex
 10
294.528334
 20
193.88888
 30
0.0
  0
VERTEX
  5
15E
100
AcDbEntity
  8
5
390
0
 62
     9
100
AcDbVertex
100
AcDb2dVertex
 10
294.491146
 20
193.847919
 30
0.0
  0
VERTEX
  5
15F
100
AcDbEntity
  8
5
390
0
 62
     9
100
AcDbVertex
100
AcDb2dVertex
 10
294.457197
 20
193.805497
 30
0.0
  0
VERTEX
  5
160
100
AcDbEntity
  8
5
390
0
 62
     9
100
AcDbVertex
100
AcDb2dVertex
 10
294.426488
 20
193.761583
 30
0.0
  0
VERTEX
  5
161
100
AcDbEntity
  8
5
390
0
 62
     9
100
AcDbVertex
100
AcDb2dVertex
 10
294.399018
 20
193.716146
 30
0.0
  0
VERTEX
  5
162
100
AcDbEntity
  8
5
390
0
 62
     9
100
AcDbVertex
100
AcDb2dVertex
 10
294.374788
 20
193.669154
 30
0.0
  0
VERTEX
  5
163
100
AcDbEntity
  8
5
390
0
 62
     9
100
AcDbVertex
100
AcDb2dVertex
 10
294.353797
 20
193.620576
 30
0.0
  0
VERTEX
  5
164
100
AcDbEntity
  8
5
390
0
 62
     9
100
AcDbVertex
100
AcDb2dVertex
 10
294.336181
 20
193.57073
 30
0.0
  0
VERTEX
  5
165
100
AcDbEntity
  8
5
390
0
 62
     9
100
AcDbVertex
100
AcDb2dVertex
 10
294.322059
 20
193.519907
 30
0.0
  0
VERTEX
  5
166
100
AcDbEntity
  8
5
390
0
 62
     9
100
AcDbVertex
100
AcDb2dVertex
 10
294.31143
 20
193.468103
 30
0.0
  0
VERTEX
  5
167
100
AcDbEntity
  8
5
390
0
 62
     9
100
AcDbVertex
100
AcDb2dVertex
 10
294.304295
 20
193.415317
 30
0.0
  0
VERTEX
  5
168
100
AcDbEntity
  8
5
390
0
 62
     9
100
AcDbVertex
100
AcDb2dVertex
 10
294.300653
 20
193.361546
 30
0.0
  0
VERTEX
  5
169
100
AcDbEntity
  8
5
390
0
 62
     9
100
AcDbVertex
100
AcDb2dVertex
 10
294.30014
 20
193.331717
 30
0.0
  0
SEQEND
  5
16A
100
AcDbEntity
  8
0
390
0
  0
POLYLINE
  5
16B
100
AcDbEntity
  8
1
390
0
  6
Continuous
 62
     7
100
AcDb2dPolyline
 66
     1
 10
0.0
 20
0.0
 30
0.0
 40
1.0
 41
1.0
  0
VERTEX
  5
16C
100
AcDbEntity
  8
1
390
0
 62
     7
100
AcDbVertex
100
AcDb2dVertex
 10
296.612044
 20
193.797386
 30
0.0
 42
0.091828
  0
VERTEX
  5
16D
100
AcDbEntity
  8
1
390
0
 62
     7
100
AcDbVertex
100
AcDb2dVertex
 10
295.94228
 20
194.93695
 30
0.0
  0
VERTEX
  5
16E
100
AcDbEntity
  8
1
390
0
 62
     7
100
AcDbVertex
100
AcDb2dVertex
 10
295.793443
 20
195.051919
 30
0.0
  0
VERTEX
  5
16F
100
AcDbEntity
  8
1
390
0
 62
     7
100
AcDbVertex
100
AcDb2dVertex
 10
295.644607
 20
195.113242
 30
0.0
  0
VERTEX
  5
170
100
AcDbEntity
  8
1
390
0
 62
     7
100
AcDbVertex
100
AcDb2dVertex
 10
295.550805
 20
195.124041
 30
0.0
  0
SEQEND
  5
171
100
AcDbEntity
  8
0
390
0
  0
LINE
  5
172
100
AcDbEntity
  8
1
390
0
  6
Continuous
 62
     7
100
AcDbLine
 10
299.720145
 20
193.797386
 30
0.0
 11
296.612044
 21
193.797386
 31
0.0
  0
LINE
  5
173
100
AcDbEntity
  8
5
390
0
  6
DOT
 62
     9
100
AcDbLine
 10
298.323306
 20
184.111029
 30
0.0
 11
299.720145
 21
184.111029
 31
0.0
  0
POLYLINE
  5
174
100
AcDbEntity
  8
1
390
0
  6
Continuous
 62
     7
100
AcDb2dPolyline
 66
     1
 10
0.0
 20
0.0
 30
0.0
 40
1.0
 41
1.0
  0
VERTEX
  5
175
100
AcDbEntity
  8
1
390
0
 62
     7
100
AcDbVertex
100
AcDb2dVertex
 10
297.000145
 20
184.956552
 30
0.0
 42
0.066493
  0
VERTEX
  5
176
100
AcDbEntity
  8
1
390
0
 62
     7
100
AcDbVertex
100
AcDb2dVertex
 10
297.463251
 20
184.19156
 30
0.0
  0
VERTEX
  5
177
100
AcDbEntity
  8
1
390
0
 62
     7
100
AcDbVertex
100
AcDb2dVertex
 10
297.595567
 20
184.062371
 30
0.0
  0
VERTEX
  5
178
100
AcDbEntity
  8
1
390
0
 62
     7
100
AcDbVertex
100
AcDb2dVertex
 10
297.727883
 20
183.975081
 30
0.0
  0
VERTEX
  5
179
100
AcDbEntity
  8
1
390
0
 62
     7
100
AcDbVertex
100
AcDb2dVertex
 10
297.860199
 20
183.930358
 30
0.0
  0
VERTEX
  5
17A
100
AcDbEntity
  8
1
390
0
 62
     7
100
AcDbVertex
100
AcDb2dVertex
 10
297.931938
 20
183.924041
 30
0.0
  0
SEQEND
  5
17B
100
AcDbEntity
  8
0
390
0
  0
POLYLINE
  5
17C
100
AcDbEntity
  8
1
390
0
  6
Continuous
 62
     7
100
AcDb2dPolyline
 66
     1
 10
0.0
 20
0.0
 30
0.0
 40
1.0
 41
1.0
  0
VERTEX
  5
17D
100
AcDbEntity
  8
1
390
0
 62
     7
100
AcDbVertex
100
AcDb2dVertex
 10
294.528334
 20
185.159202
 30
0.0
  0
VERTEX
  5
17E
100
AcDbEntity
  8
1
390
0
 62
     7
100
AcDbVertex
100
AcDb2dVertex
 10
294.491149
 20
185.200159
 30
0.0
  0
VERTEX
  5
17F
100
AcDbEntity
  8
1
390
0
 62
     7
100
AcDbVertex
100
AcDb2dVertex
 10
294.457203
 20
185.242578
 30
0.0
  0
VERTEX
  5
180
100
AcDbEntity
  8
1
390
0
 62
     7
100
AcDbVertex
100
AcDb2dVertex
 10
294.426494
 20
185.286491
 30
0.0
  0
VERTEX
  5
181
100
AcDbEntity
  8
1
390
0
 62
     7
100
AcDbVertex
100
AcDb2dVertex
 10
294.399024
 20
185.33193
 30
0.0
  0
VERTEX
  5
182
100
AcDbEntity
  8
1
390
0
 62
     7
100
AcDbVertex
100
AcDb2dVertex
 10
294.374791
 20
185.378924
 30
0.0
  0
VERTEX
  5
183
100
AcDbEntity
  8
1
390
0
 62
     7
100
AcDbVertex
100
AcDb2dVertex
 10
294.353797
 20
185.427506
 30
0.0
  0
VERTEX
  5
184
100
AcDbEntity
  8
1
390
0
 62
     7
100
AcDbVertex
100
AcDb2dVertex
 10
294.336183
 20
185.477343
 30
0.0
  0
VERTEX
  5
185
100
AcDbEntity
  8
1
390
0
 62
     7
100
AcDbVertex
100
AcDb2dVertex
 10
294.322061
 20
185.52816
 30
0.0
  0
VERTEX
  5
186
100
AcDbEntity
  8
1
390
0
 62
     7
100
AcDbVertex
100
AcDb2dVertex
 10
294.311433
 20
185.579961
 30
0.0
  0
VERTEX
  5
187
100
AcDbEntity
  8
1
390
0
 62
     7
100
AcDbVertex
100
AcDb2dVertex
 10
294.304298
 20
185.632749
 30
0.0
  0
VERTEX
  5
188
100
AcDbEntity
  8
1
390
0
 62
     7
100
AcDbVertex
100
AcDb2dVertex
 10
294.300655
 20
185.686526
 30
0.0
  0
VERTEX
  5
189
100
AcDbEntity
  8
1
390
0
 62
     7
100
AcDbVertex
100
AcDb2dVertex
 10
294.30014
 20
185.716365
 30
0.0
  0
SEQEND
  5
18A
100
AcDbEntity
  8
0
390
0
  0
POLYLINE
  5
18B
100
AcDbEntity
  8
1
390
0
  6
Continuous
 62
     7
100
AcDb2dPolyline
 66
     1
 10
0.0
 20
0.0
 30
0.0
 40
1.0
 41
1.0
  0
VERTEX
  5
18C
100
AcDbEntity
  8
1
390
0
 62
     7
100
AcDbVertex
100
AcDb2dVertex
 10
296.612044
 20
185.250696
 30
0.0
 42
-0.091828
  0
VERTEX
  5
18D
100
AcDbEntity
  8
1
390
0
 62
     7
100
AcDbVertex
100
AcDb2dVertex
 10
295.94228
 20
184.111132
 30
0.0
  0
VERTEX
  5
18E
100
AcDbEntity
  8
1
390
0
 62
     7
100
AcDbVertex
100
AcDb2dVertex
 10
295.793443
 20
183.996163
 30
0.0
  0
VERTEX
  5
18F
100
AcDbEntity
  8
1
390
0
 62
     7
100
AcDbVertex
100
AcDb2dVertex
 10
295.644607
 20
183.93484
 30
0.0
  0
VERTEX
  5
190
100
AcDbEntity
  8
1
390
0
 62
     7
100
AcDbVertex
100
AcDb2dVertex
 10
295.550805
 20
183.924041
 30
0.0
  0
SEQEND
  5
191
100
AcDbEntity
  8
0
390
0
  0
LINE
  5
192
100
AcDbEntity
  8
5
390
0
  6
DOT
 62
     9
100
AcDbLine
 10
299.720145
 20
185.250696
 30
0.0
 11
297.000145
 21
185.250696
 31
0.0
  0
LINE
  5
193
100
AcDbEntity
  8
1
390
0
  6
Continuous
 62
     7
100
AcDbLine
 10
297.000145
 20
185.250696
 30
0.0
 11
296.612044
 21
185.250696
 31
0.0
  0
LINE
  5
194
100
AcDbEntity
  8
5
390
0
  6
DOT
 62
     9
100
AcDbLine
 10
301.720145
 20
193.343833
 30
0.0
 11
301.720145
 21
184.524041
 31
0.0
  0
POLYLINE
  5
195
100
AcDbEntity
  8
5
390
0
  6
DOT
 62
     9
100
AcDb2dPolyline
 66
     1
 10
0.0
 20
0.0
 30
0.0
 40
1.0
 41
1.0
  0
VERTEX
  5
196
100
AcDbEntity
  8
5
390
0
 62
     9
100
AcDbVertex
100
AcDb2dVertex
 10
301.720145
 20
184.692707
 30
0.0
  0
VERTEX
  5
197
100
AcDbEntity
  8
5
390
0
 62
     9
100
AcDbVertex
100
AcDb2dVertex
 10
301.854497
 20
184.568953
 30
0.0
  0
VERTEX
  5
198
100
AcDbEntity
  8
5
390
0
 62
     9
100
AcDbVertex
100
AcDb2dVertex
 10
301.988202
 20
184.450624
 30
0.0
  0
VERTEX
  5
199
100
AcDbEntity
  8
5
390
0
 62
     9
100
AcDbVertex
100
AcDb2dVertex
 10
302.120145
 20
184.339447
 30
0.0
  0
SEQEND
  5
19A
100
AcDbEntity
  8
0
390
0
  0
POLYLINE
  5
19B
100
AcDbEntity
  8
5
390
0
  6
DOT
 62
     9
100
AcDb2dPolyline
 66
     1
 10
0.0
 20
0.0
 30
0.0
 40
1.0
 41
1.0
  0
VERTEX
  5
19C
100
AcDbEntity
  8
5
390
0
 62
     9
100
AcDbVertex
100
AcDb2dVertex
 10
302.120145
 20
193.728197
 30
0.0
  0
VERTEX
  5
19D
100
AcDbEntity
  8
5
390
0
 62
     9
100
AcDbVertex
100
AcDb2dVertex
 10
301.99084
 20
193.592445
 30
0.0
  0
VERTEX
  5
19E
100
AcDbEntity
  8
5
390
0
 62
     9
100
AcDbVertex
100
AcDb2dVertex
 10
301.857185
 20
193.463975
 30
0.0
  0
VERTEX
  5
19F
100
AcDbEntity
  8
5
390
0
 62
     9
100
AcDbVertex
100
AcDb2dVertex
 10
301.720145
 20
193.343833
 30
0.0
  0
SEQEND
  5
1A0
100
AcDbEntity
  8
0
390
0
  0
POLYLINE
  5
1A1
100
AcDbEntity
  8
1
390
0
  6
Continuous
 62
     7
100
AcDb2dPolyline
 66
     1
 10
0.0
 20
0.0
 30
0.0
 40
1.0
 41
1.0
  0
VERTEX
  5
1A2
100
AcDbEntity
  8
1
390
0
 62
     7
100
AcDbVertex
100
AcDb2dVertex
 10
297.500158
 20
185.716358
 30
0.0
  0
VERTEX
  5
1A3
100
AcDbEntity
  8
1
390
0
 62
     7
100
AcDbVertex
100
AcDb2dVertex
 10
297.499942
 20
185.696787
 30
0.0
  0
VERTEX
  5
1A4
100
AcDbEntity
  8
1
390
0
 62
     7
100
AcDbVertex
100
AcDb2dVertex
 10
297.496963
 20
185.642886
 30
0.0
  0
VERTEX
  5
1A5
100
AcDbEntity
  8
1
390
0
 62
     7
100
AcDbVertex
100
AcDb2dVertex
 10
297.490485
 20
185.589934
 30
0.0
  0
VERTEX
  5
1A6
100
AcDbEntity
  8
1
390
0
 62
     7
100
AcDbVertex
100
AcDb2dVertex
 10
297.480507
 20
185.537931
 30
0.0
  0
VERTEX
  5
1A7
100
AcDbEntity
  8
1
390
0
 62
     7
100
AcDbVertex
100
AcDb2dVertex
 10
297.467031
 20
185.486875
 30
0.0
  0
VERTEX
  5
1A8
100
AcDbEntity
  8
1
390
0
 62
     7
100
AcDbVertex
100
AcDb2dVertex
 10
297.450055
 20
185.436765
 30
0.0
  0
VERTEX
  5
1A9
100
AcDbEntity
  8
1
390
0
 62
     7
100
AcDbVertex
100
AcDb2dVertex
 10
297.429716
 20
185.387959
 30
0.0
  0
VERTEX
  5
1AA
100
AcDbEntity
  8
1
390
0
 62
     7
100
AcDbVertex
100
AcDb2dVertex
 10
297.406121
 20
185.340716
 30
0.0
  0
VERTEX
  5
1AB
100
AcDbEntity
  8
1
390
0
 62
     7
100
AcDbVertex
100
AcDb2dVertex
 10
297.379267
 20
185.295004
 30
0.0
  0
VERTEX
  5
1AC
100
AcDbEntity
  8
1
390
0
 62
     7
100
AcDbVertex
100
AcDb2dVertex
 10
297.349156
 20
185.250794
 30
0.0
  0
VERTEX
  5
1AD
100
AcDbEntity
  8
1
390
0
 62
     7
100
AcDbVertex
100
AcDb2dVertex
 10
297.315788
 20
185.208057
 30
0.0
  0
VERTEX
  5
1AE
100
AcDbEntity
  8
1
390
0
 62
     7
100
AcDbVertex
100
AcDb2dVertex
 10
297.279162
 20
185.166761
 30
0.0
  0
VERTEX
  5
1AF
100
AcDbEntity
  8
1
390
0
 62
     7
100
AcDbVertex
100
AcDb2dVertex
 10
297.239553
 20
185.127165
 30
0.0
  0
VERTEX
  5
1B0
100
AcDbEntity
  8
1
390
0
 62
     7
100
AcDbVertex
100
AcDb2dVertex
 10
297.197187
 20
185.089462
 30
0.0
  0
VERTEX
  5
1B1
100
AcDbEntity
  8
1
390
0
 62
     7
100
AcDbVertex
100
AcDb2dVertex
 10
297.152063
 20
185.053599
 30
0.0
  0
VERTEX
  5
1B2
100
AcDbEntity
  8
1
390
0
 62
     7
100
AcDbVertex
100
AcDb2dVertex
 10
297.104181
 20
185.019526
 30
0.0
  0
VERTEX
  5
1B3
100
AcDbEntity
  8
1
390
0
 62
     7
100
AcDbVertex
100
AcDb2dVertex
 10
297.053542
 20
184.987193
 30
0.0
  0
VERTEX
  5
1B4
100
AcDbEntity
  8
1
390
0
 62
     7
100
AcDbVertex
100
AcDb2dVertex
 10
297.000145
 20
184.956552
 30
0.0
  0
SEQEND
  5
1B5
100
AcDbEntity
  8
0
390
0
  0
POLYLINE
  5
1B6
100
AcDbEntity
  8
1
390
0
  6
Continuous
 62
     7
100
AcDb2dPolyline
 66
     1
 10
0.0
 20
0.0
 30
0.0
 40
1.0
 41
1.0
  0
VERTEX
  5
1B7
100
AcDbEntity
  8
1
390
0
 62
     7
100
AcDbVertex
100
AcDb2dVertex
 10
294.30014
 20
185.716365
 30
0.0
  0
VERTEX
  5
1B8
100
AcDbEntity
  8
1
390
0
 62
     7
100
AcDbVertex
100
AcDb2dVertex
 10
294.310647
 20
185.852225
 30
0.0
  0
VERTEX
  5
1B9
100
AcDbEntity
  8
1
390
0
 62
     7
100
AcDbVertex
100
AcDb2dVertex
 10
294.334691
 20
185.964039
 30
0.0
  0
VERTEX
  5
1BA
100
AcDbEntity
  8
1
390
0
 62
     7
100
AcDbVertex
100
AcDb2dVertex
 10
294.372638
 20
186.07655
 30
0.0
 42
-0.6426
  0
VERTEX
  5
1BB
100
AcDbEntity
  8
1
390
0
 62
     7
100
AcDbVertex
100
AcDb2dVertex
 10
297.462603
 20
185.974695
 30
0.0
  0
VERTEX
  5
1BC
100
AcDbEntity
  8
1
390
0
 62
     7
100
AcDbVertex
100
AcDb2dVertex
 10
297.487946
 20
185.862812
 30
0.0
  0
VERTEX
  5
1BD
100
AcDbEntity
  8
1
390
0
 62
     7
100
AcDbVertex
100
AcDb2dVertex
 10
297.499422
 20
185.751639
 30
0.0
  0
VERTEX
  5
1BE
100
AcDbEntity
  8
1
390
0
 62
     7
100
AcDbVertex
100
AcDb2dVertex
 10
297.500158
 20
185.716358
 30
0.0
  0
SEQEND
  5
1BF
100
AcDbEntity
  8
0
390
0
  0
POLYLINE
  5
1C0
100
AcDbEntity
  8
5
390
0
  6
DOT
 62
     9
100
AcDb2dPolyline
 66
     1
 10
0.0
 20
0.0
 30
0.0
 40
1.0
 41
1.0
  0
VERTEX
  5
1C1
100
AcDbEntity
  8
5
390
0
 62
     9
100
AcDbVertex
100
AcDb2dVertex
 10
297.500157
 20
186.12414
 30
0.0
  0
VERTEX
  5
1C2
100
AcDbEntity
  8
5
390
0
 62
     9
100
AcDbVertex
100
AcDb2dVertex
 10
297.485047
 20
185.984918
 30
0.0
  0
VERTEX
  5
1C3
100
AcDbEntity
  8
5
390
0
 62
     9
100
AcDbVertex
100
AcDb2dVertex
 10
297.472631
 20
185.936874
 30
0.0
  0
SEQEND
  5
1C4
100
AcDbEntity
  8
0
390
0
  0
POLYLINE
  5
1C5
100
AcDbEntity
  8
1
390
0
  6
Continuous
 62
     7
100
AcDb2dPolyline
 66
     1
 10
0.0
 20
0.0
 30
0.0
 40
1.0
 41
1.0
  0
VERTEX
  5
1C6
100
AcDbEntity
  8
1
390
0
 62
     7
100
AcDbVertex
100
AcDb2dVertex
 10
297.472631
 20
185.936874
 30
0.0
  0
VERTEX
  5
1C7
100
AcDbEntity
  8
1
390
0
 62
     7
100
AcDbVertex
100
AcDb2dVertex
 10
297.461129
 20
185.903
 30
0.0
  0
VERTEX
  5
1C8
100
AcDbEntity
  8
1
390
0
 62
     7
100
AcDbVertex
100
AcDb2dVertex
 10
297.445169
 20
185.863499
 30
0.0
  0
VERTEX
  5
1C9
100
AcDbEntity
  8
1
390
0
 62
     7
100
AcDbVertex
100
AcDb2dVertex
 10
297.426617
 20
185.825143
 30
0.0
  0
VERTEX
  5
1CA
100
AcDbEntity
  8
1
390
0
 62
     7
100
AcDbVertex
100
AcDb2dVertex
 10
297.401753
 20
185.781936
 30
0.0
  0
VERTEX
  5
1CB
100
AcDbEntity
  8
1
390
0
 62
     7
100
AcDbVertex
100
AcDb2dVertex
 10
297.373411
 20
185.740173
 30
0.0
  0
VERTEX
  5
1CC
100
AcDbEntity
  8
1
390
0
 62
     7
100
AcDbVertex
100
AcDb2dVertex
 10
297.341777
 20
185.699951
 30
0.0
  0
VERTEX
  5
1CD
100
AcDbEntity
  8
1
390
0
 62
     7
100
AcDbVertex
100
AcDb2dVertex
 10
297.307037
 20
185.661367
 30
0.0
  0
VERTEX
  5
1CE
100
AcDbEntity
  8
1
390
0
 62
     7
100
AcDbVertex
100
AcDb2dVertex
 10
297.269376
 20
185.624515
 30
0.0
  0
VERTEX
  5
1CF
100
AcDbEntity
  8
1
390
0
 62
     7
100
AcDbVertex
100
AcDb2dVertex
 10
297.228981
 20
185.589494
 30
0.0
  0
VERTEX
  5
1D0
100
AcDbEntity
  8
1
390
0
 62
     7
100
AcDbVertex
100
AcDb2dVertex
 10
297.187725
 20
185.557607
 30
0.0
  0
VERTEX
  5
1D1
100
AcDbEntity
  8
1
390
0
 62
     7
100
AcDbVertex
100
AcDb2dVertex
 10
297.14403
 20
185.527287
 30
0.0
  0
VERTEX
  5
1D2
100
AcDbEntity
  8
1
390
0
 62
     7
100
AcDbVertex
100
AcDb2dVertex
 10
297.09808
 20
185.498554
 30
0.0
  0
VERTEX
  5
1D3
100
AcDbEntity
  8
1
390
0
 62
     7
100
AcDbVertex
100
AcDb2dVertex
 10
297.050057
 20
185.471427
 30
0.0
  0
VERTEX
  5
1D4
100
AcDbEntity
  8
1
390
0
 62
     7
100
AcDbVertex
100
AcDb2dVertex
 10
297.000145
 20
185.445926
 30
0.0
  0
SEQEND
  5
1D5
100
AcDbEntity
  8
0
390
0
  0
POLYLINE
  5
1D6
100
AcDbEntity
  8
5
390
0
  6
DOT
 62
     9
100
AcDb2dPolyline
 66
     1
 10
0.0
 20
0.0
 30
0.0
 40
1.0
 41
1.0
  0
VERTEX
  5
1D7
100
AcDbEntity
  8
5
390
0
 62
     9
100
AcDbVertex
100
AcDb2dVertex
 10
294.30014
 20
186.124205
 30
0.0
  0
VERTEX
  5
1D8
100
AcDbEntity
  8
5
390
0
 62
     9
100
AcDbVertex
100
AcDb2dVertex
 10
294.31302
 20
186.258722
 30
0.0
  0
VERTEX
  5
1D9
100
AcDbEntity
  8
5
390
0
 62
     9
100
AcDbVertex
100
AcDb2dVertex
 10
294.350442
 20
186.391502
 30
0.0
  0
VERTEX
  5
1DA
100
AcDbEntity
  8
5
390
0
 62
     9
100
AcDbVertex
100
AcDb2dVertex
 10
294.411061
 20
186.522894
 30
0.0
  0
VERTEX
  5
1DB
100
AcDbEntity
  8
5
390
0
 62
     9
100
AcDbVertex
100
AcDb2dVertex
 10
294.469173
 20
186.616245
 30
0.0
 42
-0.495756
  0
VERTEX
  5
1DC
100
AcDbEntity
  8
5
390
0
 62
     9
100
AcDbVertex
100
AcDb2dVertex
 10
297.399712
 20
186.503321
 30
0.0
  0
VERTEX
  5
1DD
100
AcDbEntity
  8
5
390
0
 62
     9
100
AcDbVertex
100
AcDb2dVertex
 10
297.457584
 20
186.369574
 30
0.0
  0
VERTEX
  5
1DE
100
AcDbEntity
  8
5
390
0
 62
     9
100
AcDbVertex
100
AcDb2dVertex
 10
297.490273
 20
186.240358
 30
0.0
  0
VERTEX
  5
1DF
100
AcDbEntity
  8
5
390
0
 62
     9
100
AcDbVertex
100
AcDb2dVertex
 10
297.500157
 20
186.12414
 30
0.0
  0
SEQEND
  5
1E0
100
AcDbEntity
  8
0
390
0
  0
LINE
  5
1E1
100
AcDbEntity
  8
1
390
0
  6
Continuous
 62
     7
100
AcDbLine
 10
297.000145
 20
185.445926
 30
0.0
 11
297.000145
 21
184.956552
 31
0.0
  0
POLYLINE
  5
1E2
100
AcDbEntity
  8
1
390
0
  6
Continuous
 62
     7
100
AcDb2dPolyline
 66
     1
 10
0.0
 20
0.0
 30
0.0
 40
1.0
 41
1.0
  0
VERTEX
  5
1E3
100
AcDbEntity
  8
1
390
0
 62
     7
100
AcDbVertex
100
AcDb2dVertex
 10
294.528333
 20
185.626864
 30
0.0
  0
VERTEX
  5
1E4
100
AcDbEntity
  8
1
390
0
 62
     7
100
AcDbVertex
100
AcDb2dVertex
 10
294.431368
 20
185.734464
 30
0.0
  0
VERTEX
  5
1E5
100
AcDbEntity
  8
1
390
0
 62
     7
100
AcDbVertex
100
AcDb2dVertex
 10
294.359173
 20
185.854903
 30
0.0
  0
VERTEX
  5
1E6
100
AcDbEntity
  8
1
390
0
 62
     7
100
AcDbVertex
100
AcDb2dVertex
 10
294.327776
 20
185.936454
 30
0.0
  0
SEQEND
  5
1E7
100
AcDbEntity
  8
0
390
0
  0
POLYLINE
  5
1E8
100
AcDbEntity
  8
5
390
0
  6
DOT
 62
     9
100
AcDb2dPolyline
 66
     1
 10
0.0
 20
0.0
 30
0.0
 40
1.0
 41
1.0
  0
VERTEX
  5
1E9
100
AcDbEntity
  8
5
390
0
 62
     9
100
AcDbVertex
100
AcDb2dVertex
 10
294.327776
 20
185.936454
 30
0.0
  0
VERTEX
  5
1EA
100
AcDbEntity
  8
5
390
0
 62
     9
100
AcDbVertex
100
AcDb2dVertex
 10
294.3022
 20
186.073374
 30
0.0
  0
VERTEX
  5
1EB
100
AcDbEntity
  8
5
390
0
 62
     9
100
AcDbVertex
100
AcDb2dVertex
 10
294.30014
 20
186.124205
 30
0.0
  0
SEQEND
  5
1EC
100
AcDbEntity
  8
0
390
0
  0
LINE
  5
1ED
100
AcDbEntity
  8
1
390
0
  6
Continuous
 62
     7
100
AcDbLine
 10
294.528333
 20
185.626864
 30
0.0
 11
294.528333
 21
185.159203
 31
0.0
  0
LINE
  5
1EE
100
AcDbEntity
  8
5
390
0
  6
DOT
 62
     9
100
AcDbLine
 10
292.120145
 20
194.524041
 30
0.0
 11
292.120145
 21
184.524041
 31
0.0
  0
POLYLINE
  5
1EF
100
AcDbEntity
  8
1
390
0
  6
Continuous
 62
     7
100
AcDb2dPolyline
 66
     1
 10
0.0
 20
0.0
 30
0.0
 40
1.0
 41
1.0
  0
VERTEX
  5
1F0
100
AcDbEntity
  8
1
390
0
 62
     7
100
AcDbVertex
100
AcDb2dVertex
 10
295.550801
 20
184.524041
 30
0.0
  0
VERTEX
  5
1F1
100
AcDbEntity
  8
1
390
0
 62
     7
100
AcDbVertex
100
AcDb2dVertex
 10
295.395591
 20
184.550797
 30
0.0
  0
VERTEX
  5
1F2
100
AcDbEntity
  8
1
390
0
 62
     7
100
AcDbVertex
100
AcDb2dVertex
 10
295.243171
 20
184.627951
 30
0.0
 42
-0.11865
  0
VERTEX
  5
1F3
100
AcDbEntity
  8
1
390
0
 62
     7
100
AcDbVertex
100
AcDb2dVertex
 10
294.528333
 20
185.626864
 30
0.0
  0
SEQEND
  5
1F4
100
AcDbEntity
  8
0
390
0
  0
POLYLINE
  5
1F5
100
AcDbEntity
  8
5
390
0
  6
DOT
 62
     9
100
AcDb2dPolyline
 66
     1
 10
0.0
 20
0.0
 30
0.0
 40
1.0
 41
1.0
  0
VERTEX
  5
1F6
100
AcDbEntity
  8
5
390
0
 62
     9
100
AcDbVertex
100
AcDb2dVertex
 10
297.931937
 20
184.524041
 30
0.0
  0
VERTEX
  5
1F7
100
AcDbEntity
  8
5
390
0
 62
     9
100
AcDbVertex
100
AcDb2dVertex
 10
298.064704
 20
184.543349
 30
0.0
  0
VERTEX
  5
1F8
100
AcDbEntity
  8
5
390
0
 62
     9
100
AcDbVertex
100
AcDb2dVertex
 10
298.19357
 20
184.598884
 30
0.0
  0
VERTEX
  5
1F9
100
AcDbEntity
  8
5
390
0
 62
     9
100
AcDbVertex
100
AcDb2dVertex
 10
298.323306
 20
184.690994
 30
0.0
  0
SEQEND
  5
1FA
100
AcDbEntity
  8
0
390
0
  0
POLYLINE
  5
1FB
100
AcDbEntity
  8
5
390
0
  6
DOT
 62
     9
100
AcDb2dPolyline
 66
     1
 10
0.0
 20
0.0
 30
0.0
 40
1.0
 41
1.0
  0
VERTEX
  5
1FC
100
AcDbEntity
  8
5
390
0
 62
     9
100
AcDbVertex
100
AcDb2dVertex
 10
295.550801
 20
194.524041
 30
0.0
  0
VERTEX
  5
1FD
100
AcDbEntity
  8
5
390
0
 62
     9
100
AcDbVertex
100
AcDb2dVertex
 10
295.395591
 20
194.497285
 30
0.0
  0
VERTEX
  5
1FE
100
AcDbEntity
  8
5
390
0
 62
     9
100
AcDbVertex
100
AcDb2dVertex
 10
295.243171
 20
194.420131
 30
0.0
 42
0.115715
  0
VERTEX
  5
1FF
100
AcDbEntity
  8
5
390
0
 62
     9
100
AcDbVertex
100
AcDb2dVertex
 10
294.554705
 20
193.47532
 30
0.0
  0
SEQEND
  5
200
100
AcDbEntity
  8
0
390
0
  0
LINE
  5
201
100
AcDbEntity
  8
5
390
0
  6
DOT
 62
     9
100
AcDbLine
 10
294.554705
 20
193.47532
 30
0.0
 11
294.528333
 21
193.421218
 31
0.0
  0
POLYLINE
  5
202
100
AcDbEntity
  8
1
390
0
  6
Continuous
 62
     7
100
AcDb2dPolyline
 66
     1
 10
0.0
 20
0.0
 30
0.0
 40
1.0
 41
1.0
  0
VERTEX
  5
203
100
AcDbEntity
  8
1
390
0
 62
     7
100
AcDbVertex
100
AcDb2dVertex
 10
297.931937
 20
194.524041
 30
0.0
  0
VERTEX
  5
204
100
AcDbEntity
  8
1
390
0
 62
     7
100
AcDbVertex
100
AcDb2dVertex
 10
298.064704
 20
194.504732
 30
0.0
  0
VERTEX
  5
205
100
AcDbEntity
  8
1
390
0
 62
     7
100
AcDbVertex
100
AcDb2dVertex
 10
298.19357
 20
194.449198
 30
0.0
  0
VERTEX
  5
206
100
AcDbEntity
  8
1
390
0
 62
     7
100
AcDbVertex
100
AcDb2dVertex
 10
298.323306
 20
194.357088
 30
0.0
  0
SEQEND
  5
207
100
AcDbEntity
  8
0
390
0
  0
LINE
  5
208
100
AcDbEntity
  8
5
390
0
  6
DOT
 62
     9
100
AcDbLine
 10
301.720145
 20
194.524041
 30
0.0
 11
301.720145
 21
194.355375
 31
0.0
  0
LINE
  5
209
100
AcDbEntity
  8
5
390
0
  6
DOT
 62
     9
100
AcDbLine
 10
299.720145
 20
185.708555
 30
0.0
 11
297.499831
 21
185.708555
 31
0.0
  0
LINE
  5
20A
100
AcDbEntity
  8
5
390
0
  6
DOT
 62
     9
100
AcDbLine
 10
297.499831
 20
185.708555
 30
0.0
 11
297.348544
 21
185.708555
 31
0.0
  0
LINE
  5
20B
100
AcDbEntity
  8
5
390
0
  6
DOT
 62
     9
100
AcDbLine
 10
297.348544
 20
185.708555
 30
0.0
 11
296.612044
 21
185.708555
 31
0.0
  0
LINE
  5
20C
100
AcDbEntity
  8
5
390
0
  6
DOT
 62
     9
100
AcDbLine
 10
296.612044
 20
185.708555
 30
0.0
 11
296.547182
 21
185.573334
 31
0.0
  0
POLYLINE
  5
20D
100
AcDbEntity
  8
1
390
0
  6
Continuous
 62
     7
100
AcDb2dPolyline
 66
     1
 10
0.0
 20
0.0
 30
0.0
 40
1.0
 41
1.0
  0
VERTEX
  5
20E
100
AcDbEntity
  8
1
390
0
 62
     7
100
AcDbVertex
100
AcDb2dVertex
 10
296.547182
 20
185.573334
 30
0.0
 42
-0.101021
  0
VERTEX
  5
20F
100
AcDbEntity
  8
1
390
0
 62
     7
100
AcDbVertex
100
AcDb2dVertex
 10
295.927903
 20
184.679475
 30
0.0
  0
VERTEX
  5
210
100
AcDbEntity
  8
1
390
0
 62
     7
100
AcDbVertex
100
AcDb2dVertex
 10
295.775515
 20
184.579824
 30
0.0
  0
VERTEX
  5
211
100
AcDbEntity
  8
1
390
0
 62
     7
100
AcDbVertex
100
AcDb2dVertex
 10
295.623303
 20
184.529936
 30
0.0
  0
VERTEX
  5
212
100
AcDbEntity
  8
1
390
0
 62
     7
100
AcDbVertex
100
AcDb2dVertex
 10
295.550801
 20
184.524041
 30
0.0
  0
SEQEND
  5
213
100
AcDbEntity
  8
0
390
0
  0
POLYLINE
  5
214
100
AcDbEntity
  8
5
390
0
  6
DOT
 62
     9
100
AcDb2dPolyline
 66
     1
 10
0.0
 20
0.0
 30
0.0
 40
1.0
 41
1.0
  0
VERTEX
  5
215
100
AcDbEntity
  8
5
390
0
 62
     9
100
AcDbVertex
100
AcDb2dVertex
 10
297.000145
 20
185.445926
 30
0.0
 42
0.057359
  0
VERTEX
  5
216
100
AcDbEntity
  8
5
390
0
 62
     9
100
AcDbVertex
100
AcDb2dVertex
 10
297.397449
 20
184.83396
 30
0.0
  0
VERTEX
  5
217
100
AcDbEntity
  8
5
390
0
 62
     9
100
AcDbVertex
100
AcDb2dVertex
 10
297.532424
 20
184.697976
 30
0.0
  0
VERTEX
  5
218
100
AcDbEntity
  8
5
390
0
 62
     9
100
AcDbVertex
100
AcDb2dVertex
 10
297.663589
 20
184.6028
 30
0.0
  0
VERTEX
  5
219
100
AcDbEntity
  8
5
390
0
 62
     9
100
AcDbVertex
100
AcDb2dVertex
 10
297.794753
 20
184.544655
 30
0.0
  0
VERTEX
  5
21A
100
AcDbEntity
  8
5
390
0
 62
     9
100
AcDbVertex
100
AcDb2dVertex
 10
297.929729
 20
184.524084
 30
0.0
  0
VERTEX
  5
21B
100
AcDbEntity
  8
5
390
0
 62
     9
100
AcDbVertex
100
AcDb2dVertex
 10
297.931937
 20
184.524041
 30
0.0
  0
SEQEND
  5
21C
100
AcDbEntity
  8
0
390
0
  0
LINE
  5
21D
100
AcDbEntity
  8
5
390
0
  6
DOT
 62
     9
100
AcDbLine
 10
298.323306
 20
184.690994
 30
0.0
 11
299.720145
 21
184.690994
 31
0.0
  0
LINE
  5
21E
100
AcDbEntity
  8
5
390
0
  6
DOT
 62
     9
100
AcDbLine
 10
299.720145
 20
184.692707
 30
0.0
 11
301.720145
 21
184.692707
 31
0.0
  0
LINE
  5
21F
100
AcDbEntity
  8
5
390
0
  6
DOT
 62
     9
100
AcDbLine
 10
301.720145
 20
193.343833
 30
0.0
 11
299.720145
 21
193.343833
 31
0.0
  0
LINE
  5
220
100
AcDbEntity
  8
5
390
0
  6
DOT
 62
     9
100
AcDbLine
 10
299.720145
 20
193.339527
 30
0.0
 11
296.612044
 21
193.339527
 31
0.0
  0
POLYLINE
  5
221
100
AcDbEntity
  8
5
390
0
  6
DOT
 62
     9
100
AcDb2dPolyline
 66
     1
 10
0.0
 20
0.0
 30
0.0
 40
1.0
 41
1.0
  0
VERTEX
  5
222
100
AcDbEntity
  8
5
390
0
 62
     9
100
AcDbVertex
100
AcDb2dVertex
 10
296.612044
 20
193.339527
 30
0.0
 42
0.099899
  0
VERTEX
  5
223
100
AcDbEntity
  8
5
390
0
 62
     9
100
AcDbVertex
100
AcDb2dVertex
 10
295.927903
 20
194.368606
 30
0.0
  0
VERTEX
  5
224
100
AcDbEntity
  8
5
390
0
 62
     9
100
AcDbVertex
100
AcDb2dVertex
 10
295.775515
 20
194.468258
 30
0.0
  0
VERTEX
  5
225
100
AcDbEntity
  8
5
390
0
 62
     9
100
AcDbVertex
100
AcDb2dVertex
 10
295.623303
 20
194.518146
 30
0.0
  0
VERTEX
  5
226
100
AcDbEntity
  8
5
390
0
 62
     9
100
AcDbVertex
100
AcDb2dVertex
 10
295.550801
 20
194.524041
 30
0.0
  0
SEQEND
  5
227
100
AcDbEntity
  8
0
390
0
  0
POLYLINE
  5
228
100
AcDbEntity
  8
5
390
0
  6
DOT
 62
     9
100
AcDb2dPolyline
 66
     1
 10
0.0
 20
0.0
 30
0.0
 40
1.0
 41
1.0
  0
VERTEX
  5
229
100
AcDbEntity
  8
5
390
0
 62
     9
100
AcDbVertex
100
AcDb2dVertex
 10
294.528333
 20
193.421218
 30
0.0
  0
VERTEX
  5
22A
100
AcDbEntity
  8
5
390
0
 62
     9
100
AcDbVertex
100
AcDb2dVertex
 10
294.493463
 20
193.386955
 30
0.0
  0
VERTEX
  5
22B
100
AcDbEntity
  8
5
390
0
 62
     9
100
AcDbVertex
100
AcDb2dVertex
 10
294.4611
 20
193.351053
 30
0.0
  0
VERTEX
  5
22C
100
AcDbEntity
  8
5
390
0
 62
     9
100
AcDbVertex
100
AcDb2dVertex
 10
294.431368
 20
193.313618
 30
0.0
  0
VERTEX
  5
22D
100
AcDbEntity
  8
5
390
0
 62
     9
100
AcDbVertex
100
AcDb2dVertex
 10
294.404388
 20
193.274756
 30
0.0
  0
VERTEX
  5
22E
100
AcDbEntity
  8
5
390
0
 62
     9
100
AcDbVertex
100
AcDb2dVertex
 10
294.380282
 20
193.234574
 30
0.0
  0
VERTEX
  5
22F
100
AcDbEntity
  8
5
390
0
 62
     9
100
AcDbVertex
100
AcDb2dVertex
 10
294.359173
 20
193.193179
 30
0.0
  0
VERTEX
  5
230
100
AcDbEntity
  8
5
390
0
 62
     9
100
AcDbVertex
100
AcDb2dVertex
 10
294.341182
 20
193.150675
 30
0.0
  0
VERTEX
  5
231
100
AcDbEntity
  8
5
390
0
 62
     9
100
AcDbVertex
100
AcDb2dVertex
 10
294.326432
 20
193.10717
 30
0.0
  0
VERTEX
  5
232
100
AcDbEntity
  8
5
390
0
 62
     9
100
AcDbVertex
100
AcDb2dVertex
 10
294.315282
 20
193.063991
 30
0.0
  0
VERTEX
  5
233
100
AcDbEntity
  8
5
390
0
 62
     9
100
AcDbVertex
100
AcDb2dVertex
 10
294.307204
 20
193.019778
 30
0.0
  0
VERTEX
  5
234
100
AcDbEntity
  8
5
390
0
 62
     9
100
AcDbVertex
100
AcDb2dVertex
 10
294.3022
 20
192.974708
 30
0.0
  0
VERTEX
  5
235
100
AcDbEntity
  8
5
390
0
 62
     9
100
AcDbVertex
100
AcDb2dVertex
 10
294.300275
 20
192.928955
 30
0.0
  0
VERTEX
  5
236
100
AcDbEntity
  8
5
390
0
 62
     9
100
AcDbVertex
100
AcDb2dVertex
 10
294.30014
 20
192.923877
 30
0.0
  0
SEQEND
  5
237
100
AcDbEntity
  8
0
390
0
  0
POLYLINE
  5
238
100
AcDbEntity
  8
5
390
0
  6
DOT
 62
     9
100
AcDb2dPolyline
 66
     1
 10
0.0
 20
0.0
 30
0.0
 40
1.0
 41
1.0
  0
VERTEX
  5
239
100
AcDbEntity
  8
5
390
0
 62
     9
100
AcDbVertex
100
AcDb2dVertex
 10
297.000145
 20
193.602156
 30
0.0
  0
VERTEX
  5
23A
100
AcDbEntity
  8
5
390
0
 62
     9
100
AcDbVertex
100
AcDb2dVertex
 10
297.065698
 20
193.723832
 30
0.0
  0
VERTEX
  5
23B
100
AcDbEntity
  8
5
390
0
 62
     9
100
AcDbVertex
100
AcDb2dVertex
 10
297.108084
 20
193.798332
 30
0.0
  0
SEQEND
  5
23C
100
AcDbEntity
  8
0
390
0
  0
POLYLINE
  5
23D
100
AcDbEntity
  8
1
390
0
  6
Continuous
 62
     7
100
AcDb2dPolyline
 66
     1
 10
0.0
 20
0.0
 30
0.0
 40
1.0
 41
1.0
  0
VERTEX
  5
23E
100
AcDbEntity
  8
1
390
0
 62
     7
100
AcDbVertex
100
AcDb2dVertex
 10
297.108084
 20
193.798332
 30
0.0
 42
-0.047293
  0
VERTEX
  5
23F
100
AcDbEntity
  8
1
390
0
 62
     7
100
AcDbVertex
100
AcDb2dVertex
 10
297.397449
 20
194.214122
 30
0.0
  0
VERTEX
  5
240
100
AcDbEntity
  8
1
390
0
 62
     7
100
AcDbVertex
100
AcDb2dVertex
 10
297.532424
 20
194.350106
 30
0.0
  0
VERTEX
  5
241
100
AcDbEntity
  8
1
390
0
 62
     7
100
AcDbVertex
100
AcDb2dVertex
 10
297.663589
 20
194.445282
 30
0.0
  0
VERTEX
  5
242
100
AcDbEntity
  8
1
390
0
 62
     7
100
AcDbVertex
100
AcDb2dVertex
 10
297.794753
 20
194.503426
 30
0.0
  0
VERTEX
  5
243
100
AcDbEntity
  8
1
390
0
 62
     7
100
AcDbVertex
100
AcDb2dVertex
 10
297.929729
 20
194.523998
 30
0.0
  0
VERTEX
  5
244
100
AcDbEntity
  8
1
390
0
 62
     7
100
AcDbVertex
100
AcDb2dVertex
 10
297.931937
 20
194.524041
 30
0.0
  0
SEQEND
  5
245
100
AcDbEntity
  8
0
390
0
  0
LINE
  5
246
100
AcDbEntity
  8
1
390
0
  6
Continuous
 62
     7
100
AcDbLine
 10
298.323306
 20
194.357088
 30
0.0
 11
299.720145
 21
194.357088
 31
0.0
  0
LINE
  5
247
100
AcDbEntity
  8
5
390
0
  6
DOT
 62
     9
100
AcDbLine
 10
299.720145
 20
194.355375
 30
0.0
 11
301.720145
 21
194.355375
 31
0.0
  0
LINE
  5
248
100
AcDbEntity
  8
5
390
0
  6
DOT
 62
     9
100
AcDbLine
 10
301.720145
 20
194.356875
 30
0.0
 11
301.720145
 21
193.343833
 31
0.0
  0
LINE
  5
249
100
AcDbEntity
  8
5
390
0
  6
DOT
 62
     9
100
AcDbLine
 10
301.720145
 20
185.704249
 30
0.0
 11
301.320145
 21
185.704249
 31
0.0
  0
LINE
  5
24A
100
AcDbEntity
  8
5
390
0
  6
DOT
 62
     9
100
AcDbLine
 10
301.320145
 20
185.704249
 30
0.0
 11
299.720145
 21
185.704249
 31
0.0
  0
LINE
  5
24B
100
AcDbEntity
  8
1
390
0
  6
Continuous
 62
     7
100
AcDbLine
 10
286.620145
 20
184.774041
 30
0.0
 11
286.620145
 21
194.274041
 31
0.0
  0
LINE
  5
24C
100
AcDbEntity
  8
1
390
0
  6
Continuous
 62
     7
100
AcDbLine
 10
286.320145
 20
185.074041
 30
0.0
 11
286.320145
 21
193.974041
 31
0.0
  0
LINE
  5
24D
100
AcDbEntity
  8
5
390
0
  6
DOT
 62
     9
100
AcDbLine
 10
301.320145
 20
193.474041
 30
0.0
 11
301.320145
 21
185.574041
 31
0.0
  0
LINE
  5
24E
100
AcDbEntity
  8
5
390
0
  6
DOT
 62
     9
100
AcDbLine
 10
301.120145
 20
193.174041
 30
0.0
 11
301.120145
 21
185.874041
 31
0.0
  0
LINE
  5
24F
100
AcDbEntity
  8
5
390
0
  6
DOT
 62
     9
100
AcDbLine
 10
296.612044
 20
193.339527
 30
0.0
 11
296.612044
 21
193.797386
 31
0.0
  0
LINE
  5
250
100
AcDbEntity
  8
5
390
0
  6
DOT
 62
     9
100
AcDbLine
 10
296.612044
 20
185.708555
 30
0.0
 11
296.612044
 21
185.574041
 31
0.0
  0
LINE
  5
251
100
AcDbEntity
  8
1
390
0
  6
Continuous
 62
     7
100
AcDbLine
 10
296.612044
 20
185.574041
 30
0.0
 11
296.612044
 21
185.250696
 31
0.0
  0
POLYLINE
  5
252
100
AcDbEntity
  8
5
390
0
  6
DOT
 62
     9
100
AcDb2dPolyline
 66
     1
 10
0.0
 20
0.0
 30
0.0
 40
1.0
 41
1.0
  0
VERTEX
  5
253
100
AcDbEntity
  8
5
390
0
 62
     9
100
AcDbVertex
100
AcDb2dVertex
 10
301.720145
 20
194.355375
 30
0.0
  0
VERTEX
  5
254
100
AcDbEntity
  8
5
390
0
 62
     9
100
AcDbVertex
100
AcDb2dVertex
 10
301.854497
 20
194.479128
 30
0.0
  0
VERTEX
  5
255
100
AcDbEntity
  8
5
390
0
 62
     9
100
AcDbVertex
100
AcDb2dVertex
 10
301.988202
 20
194.597458
 30
0.0
  0
VERTEX
  5
256
100
AcDbEntity
  8
5
390
0
 62
     9
100
AcDbVertex
100
AcDb2dVertex
 10
302.120145
 20
194.708635
 30
0.0
  0
SEQEND
  5
257
100
AcDbEntity
  8
0
390
0
  0
LINE
  5
258
100
AcDbEntity
  8
5
390
0
  6
DOT
 62
     9
100
AcDbLine
 10
293.320145
 20
191.974041
 30
0.0
 11
293.320145
 21
187.074041
 31
0.0
  0
POLYLINE
  5
259
100
AcDbEntity
  8
5
390
0
  6
DOT
 62
     9
100
AcDb2dPolyline
 66
     1
 10
0.0
 20
0.0
 30
0.0
 40
1.0
 41
1.0
  0
VERTEX
  5
25A
100
AcDbEntity
  8
5
390
0
 62
     9
100
AcDbVertex
100
AcDb2dVertex
 10
302.120145
 20
185.319885
 30
0.0
  0
VERTEX
  5
25B
100
AcDbEntity
  8
5
390
0
 62
     9
100
AcDbVertex
100
AcDb2dVertex
 10
301.99084
 20
185.455637
 30
0.0
  0
VERTEX
  5
25C
100
AcDbEntity
  8
5
390
0
 62
     9
100
AcDbVertex
100
AcDb2dVertex
 10
301.857185
 20
185.584107
 30
0.0
  0
VERTEX
  5
25D
100
AcDbEntity
  8
5
390
0
 62
     9
100
AcDbVertex
100
AcDb2dVertex
 10
301.720145
 20
185.704249
 30
0.0
  0
SEQEND
  5
25E
100
AcDbEntity
  8
0
390
0
  0
LINE
  5
25F
100
AcDbEntity
  8
1
390
0
  6
Continuous
 62
     7
100
AcDbLine
 10
298.323306
 20
194.357088
 30
0.0
 11
298.323306
 21
194.937053
 31
0.0
  0
LINE
  5
260
100
AcDbEntity
  8
5
390
0
  6
DOT
 62
     9
100
AcDbLine
 10
297.000145
 20
193.602156
 30
0.0
 11
297.000145
 21
193.797386
 31
0.0
  0
LINE
  5
261
100
AcDbEntity
  8
1
390
0
  6
Continuous
 62
     7
100
AcDbLine
 10
297.000145
 20
193.797386
 30
0.0
 11
297.000145
 21
194.09153
 31
0.0
  0
LINE
  5
262
100
AcDbEntity
  8
5
390
0
  6
DOT
 62
     9
100
AcDbLine
 10
300.620145
 20
189.668568
 30
0.0
 11
300.620145
 21
189.379514
 31
0.0
  0
LINE
  5
263
100
AcDbEntity
  8
5
390
0
  6
DOT
 62
     9
100
AcDbLine
 10
298.323306
 20
184.690994
 30
0.0
 11
298.323306
 21
184.111029
 31
0.0
  0
POLYLINE
  5
264
100
AcDbEntity
  8
5
390
0
  6
DOT
 62
     9
100
AcDb2dPolyline
 66
     1
 10
0.0
 20
0.0
 30
0.0
 40
1.0
 41
1.0
  0
VERTEX
  5
265
100
AcDbEntity
  8
5
390
0
 62
     9
100
AcDbVertex
100
AcDb2dVertex
 10
297.500157
 20
193.331724
 30
0.0
  0
VERTEX
  5
266
100
AcDbEntity
  8
5
390
0
 62
     9
100
AcDbVertex
100
AcDb2dVertex
 10
297.499941
 20
193.351305
 30
0.0
  0
VERTEX
  5
267
100
AcDbEntity
  8
5
390
0
 62
     9
100
AcDbVertex
100
AcDb2dVertex
 10
297.496961
 20
193.405212
 30
0.0
  0
VERTEX
  5
268
100
AcDbEntity
  8
5
390
0
 62
     9
100
AcDbVertex
100
AcDb2dVertex
 10
297.490482
 20
193.458165
 30
0.0
  0
VERTEX
  5
269
100
AcDbEntity
  8
5
390
0
 62
     9
100
AcDbVertex
100
AcDb2dVertex
 10
297.480505
 20
193.510166
 30
0.0
  0
VERTEX
  5
26A
100
AcDbEntity
  8
5
390
0
 62
     9
100
AcDbVertex
100
AcDb2dVertex
 10
297.467029
 20
193.561216
 30
0.0
  0
VERTEX
  5
26B
100
AcDbEntity
  8
5
390
0
 62
     9
100
AcDbVertex
100
AcDb2dVertex
 10
297.450055
 20
193.611317
 30
0.0
  0
VERTEX
  5
26C
100
AcDbEntity
  8
5
390
0
 62
     9
100
AcDbVertex
100
AcDb2dVertex
 10
297.429711
 20
193.660131
 30
0.0
  0
VERTEX
  5
26D
100
AcDbEntity
  8
5
390
0
 62
     9
100
AcDbVertex
100
AcDb2dVertex
 10
297.406112
 20
193.70738
 30
0.0
  0
VERTEX
  5
26E
100
AcDbEntity
  8
5
390
0
 62
     9
100
AcDbVertex
100
AcDb2dVertex
 10
297.379258
 20
193.753093
 30
0.0
  0
VERTEX
  5
26F
100
AcDbEntity
  8
5
390
0
 62
     9
100
AcDbVertex
100
AcDb2dVertex
 10
297.349148
 20
193.797301
 30
0.0
  0
VERTEX
  5
270
100
AcDbEntity
  8
5
390
0
 62
     9
100
AcDbVertex
100
AcDb2dVertex
 10
297.315783
 20
193.840033
 30
0.0
  0
VERTEX
  5
271
100
AcDbEntity
  8
5
390
0
 62
     9
100
AcDbVertex
100
AcDb2dVertex
 10
297.279162
 20
193.881321
 30
0.0
  0
VERTEX
  5
272
100
AcDbEntity
  8
5
390
0
 62
     9
100
AcDbVertex
100
AcDb2dVertex
 10
297.239548
 20
193.92092
 30
0.0
  0
VERTEX
  5
273
100
AcDbEntity
  8
5
390
0
 62
     9
100
AcDbVertex
100
AcDb2dVertex
 10
297.197179
 20
193.958625
 30
0.0
  0
VERTEX
  5
274
100
AcDbEntity
  8
5
390
0
 62
     9
100
AcDbVertex
100
AcDb2dVertex
 10
297.152054
 20
193.994488
 30
0.0
  0
VERTEX
  5
275
100
AcDbEntity
  8
5
390
0
 62
     9
100
AcDbVertex
100
AcDb2dVertex
 10
297.104173
 20
194.02856
 30
0.0
  0
VERTEX
  5
276
100
AcDbEntity
  8
5
390
0
 62
     9
100
AcDbVertex
100
AcDb2dVertex
 10
297.053537
 20
194.060892
 30
0.0
  0
VERTEX
  5
277
100
AcDbEntity
  8
5
390
0
 62
     9
100
AcDbVertex
100
AcDb2dVertex
 10
297.000145
 20
194.09153
 30
0.0
  0
SEQEND
  5
278
100
AcDbEntity
  8
0
390
0
  0
POLYLINE
  5
279
100
AcDbEntity
  8
5
390
0
  6
DOT
 62
     9
100
AcDb2dPolyline
 66
     1
 10
0.0
 20
0.0
 30
0.0
 40
1.0
 41
1.0
  0
VERTEX
  5
27A
100
AcDbEntity
  8
5
390
0
 62
     9
100
AcDbVertex
100
AcDb2dVertex
 10
294.30014
 20
193.331717
 30
0.0
  0
VERTEX
  5
27B
100
AcDbEntity
  8
5
390
0
 62
     9
100
AcDbVertex
100
AcDb2dVertex
 10
294.310651
 20
193.195841
 30
0.0
  0
VERTEX
  5
27C
100
AcDbEntity
  8
5
390
0
 62
     9
100
AcDbVertex
100
AcDb2dVertex
 10
294.327491
 20
193.1116
 30
0.0
  0
SEQEND
  5
27D
100
AcDbEntity
  8
0
390
0
  0
POLYLINE
  5
27E
100
AcDbEntity
  8
5
390
0
  6
DOT
 62
     9
100
AcDb2dPolyline
 66
     1
 10
0.0
 20
0.0
 30
0.0
 40
1.0
 41
1.0
  0
VERTEX
  5
27F
100
AcDbEntity
  8
5
390
0
 62
     9
100
AcDbVertex
100
AcDb2dVertex
 10
294.327491
 20
193.1116
 30
0.0
  0
VERTEX
  5
280
100
AcDbEntity
  8
5
390
0
 62
     9
100
AcDbVertex
100
AcDb2dVertex
 10
294.372638
 20
192.971532
 30
0.0
 42
0.652239
  0
VERTEX
  5
281
100
AcDbEntity
  8
5
390
0
 62
     9
100
AcDbVertex
100
AcDb2dVertex
 10
297.472679
 20
193.111106
 30
0.0
  0
SEQEND
  5
282
100
AcDbEntity
  8
0
390
0
  0
POLYLINE
  5
283
100
AcDbEntity
  8
5
390
0
  6
DOT
 62
     9
100
AcDb2dPolyline
 66
     1
 10
0.0
 20
0.0
 30
0.0
 40
1.0
 41
1.0
  0
VERTEX
  5
284
100
AcDbEntity
  8
5
390
0
 62
     9
100
AcDbVertex
100
AcDb2dVertex
 10
297.472679
 20
193.111106
 30
0.0
  0
VERTEX
  5
285
100
AcDbEntity
  8
5
390
0
 62
     9
100
AcDbVertex
100
AcDb2dVertex
 10
297.495419
 20
193.240968
 30
0.0
  0
VERTEX
  5
286
100
AcDbEntity
  8
5
390
0
 62
     9
100
AcDbVertex
100
AcDb2dVertex
 10
297.500157
 20
193.331724
 30
0.0
  0
SEQEND
  5
287
100
AcDbEntity
  8
0
390
0
  0
POLYLINE
  5
288
100
AcDbEntity
  8
5
390
0
  6
DOT
 62
     9
100
AcDb2dPolyline
 66
     1
 10
0.0
 20
0.0
 30
0.0
 40
1.0
 41
1.0
  0
VERTEX
  5
289
100
AcDbEntity
  8
5
390
0
 62
     9
100
AcDbVertex
100
AcDb2dVertex
 10
297.500157
 20
192.923942
 30
0.0
  0
VERTEX
  5
28A
100
AcDbEntity
  8
5
390
0
 62
     9
100
AcDbVertex
100
AcDb2dVertex
 10
297.50007
 20
192.934922
 30
0.0
  0
VERTEX
  5
28B
100
AcDbEntity
  8
5
390
0
 62
     9
100
AcDbVertex
100
AcDb2dVertex
 10
297.497919
 20
192.978213
 30
0.0
  0
VERTEX
  5
28C
100
AcDbEntity
  8
5
390
0
 62
     9
100
AcDbVertex
100
AcDb2dVertex
 10
297.492892
 20
193.021003
 30
0.0
  0
VERTEX
  5
28D
100
AcDbEntity
  8
5
390
0
 62
     9
100
AcDbVertex
100
AcDb2dVertex
 10
297.485047
 20
193.063163
 30
0.0
  0
VERTEX
  5
28E
100
AcDbEntity
  8
5
390
0
 62
     9
100
AcDbVertex
100
AcDb2dVertex
 10
297.474441
 20
193.104566
 30
0.0
  0
VERTEX
  5
28F
100
AcDbEntity
  8
5
390
0
 62
     9
100
AcDbVertex
100
AcDb2dVertex
 10
297.461129
 20
193.145082
 30
0.0
  0
VERTEX
  5
290
100
AcDbEntity
  8
5
390
0
 62
     9
100
AcDbVertex
100
AcDb2dVertex
 10
297.445169
 20
193.184583
 30
0.0
  0
VERTEX
  5
291
100
AcDbEntity
  8
5
390
0
 62
     9
100
AcDbVertex
100
AcDb2dVertex
 10
297.426617
 20
193.222939
 30
0.0
  0
VERTEX
  5
292
100
AcDbEntity
  8
5
390
0
 62
     9
100
AcDbVertex
100
AcDb2dVertex
 10
297.401753
 20
193.266146
 30
0.0
  0
VERTEX
  5
293
100
AcDbEntity
  8
5
390
0
 62
     9
100
AcDbVertex
100
AcDb2dVertex
 10
297.373411
 20
193.307909
 30
0.0
  0
VERTEX
  5
294
100
AcDbEntity
  8
5
390
0
 62
     9
100
AcDbVertex
100
AcDb2dVertex
 10
297.341777
 20
193.34813
 30
0.0
  0
VERTEX
  5
295
100
AcDbEntity
  8
5
390
0
 62
     9
100
AcDbVertex
100
AcDb2dVertex
 10
297.307037
 20
193.386715
 30
0.0
  0
VERTEX
  5
296
100
AcDbEntity
  8
5
390
0
 62
     9
100
AcDbVertex
100
AcDb2dVertex
 10
297.269376
 20
193.423566
 30
0.0
  0
VERTEX
  5
297
100
AcDbEntity
  8
5
390
0
 62
     9
100
AcDbVertex
100
AcDb2dVertex
 10
297.228981
 20
193.458588
 30
0.0
  0
VERTEX
  5
298
100
AcDbEntity
  8
5
390
0
 62
     9
100
AcDbVertex
100
AcDb2dVertex
 10
297.2093
 20
193.474246
 30
0.0
  0
SEQEND
  5
299
100
AcDbEntity
  8
0
390
0
  0
POLYLINE
  5
29A
100
AcDbEntity
  8
5
390
0
  6
DOT
 62
     9
100
AcDb2dPolyline
 66
     1
 10
0.0
 20
0.0
 30
0.0
 40
1.0
 41
1.0
  0
VERTEX
  5
29B
100
AcDbEntity
  8
5
390
0
 62
     9
100
AcDbVertex
100
AcDb2dVertex
 10
297.2093
 20
193.474246
 30
0.0
  0
VERTEX
  5
29C
100
AcDbEntity
  8
5
390
0
 62
     9
100
AcDbVertex
100
AcDb2dVertex
 10
297.09808
 20
193.549528
 30
0.0
  0
VERTEX
  5
29D
100
AcDbEntity
  8
5
390
0
 62
     9
100
AcDbVertex
100
AcDb2dVertex
 10
297.000145
 20
193.602156
 30
0.0
  0
SEQEND
  5
29E
100
AcDbEntity
  8
0
390
0
  0
POLYLINE
  5
29F
100
AcDbEntity
  8
5
390
0
  6
DOT
 62
     9
100
AcDb2dPolyline
 66
     1
 10
0.0
 20
0.0
 30
0.0
 40
1.0
 41
1.0
  0
VERTEX
  5
2A0
100
AcDbEntity
  8
5
390
0
 62
     9
100
AcDbVertex
100
AcDb2dVertex
 10
294.30014
 20
192.923877
 30
0.0
  0
VERTEX
  5
2A1
100
AcDbEntity
  8
5
390
0
 62
     9
100
AcDbVertex
100
AcDb2dVertex
 10
294.31302
 20
192.78936
 30
0.0
  0
VERTEX
  5
2A2
100
AcDbEntity
  8
5
390
0
 62
     9
100
AcDbVertex
100
AcDb2dVertex
 10
294.350442
 20
192.65658
 30
0.0
  0
VERTEX
  5
2A3
100
AcDbEntity
  8
5
390
0
 62
     9
100
AcDbVertex
100
AcDb2dVertex
 10
294.411061
 20
192.525188
 30
0.0
  0
VERTEX
  5
2A4
100
AcDbEntity
  8
5
390
0
 62
     9
100
AcDbVertex
100
AcDb2dVertex
 10
294.469173
 20
192.431837
 30
0.0
 42
0.495756
  0
VERTEX
  5
2A5
100
AcDbEntity
  8
5
390
0
 62
     9
100
AcDbVertex
100
AcDb2dVertex
 10
297.399712
 20
192.54476
 30
0.0
  0
VERTEX
  5
2A6
100
AcDbEntity
  8
5
390
0
 62
     9
100
AcDbVertex
100
AcDb2dVertex
 10
297.457584
 20
192.678508
 30
0.0
  0
VERTEX
  5
2A7
100
AcDbEntity
  8
5
390
0
 62
     9
100
AcDbVertex
100
AcDb2dVertex
 10
297.490273
 20
192.807724
 30
0.0
  0
VERTEX
  5
2A8
100
AcDbEntity
  8
5
390
0
 62
     9
100
AcDbVertex
100
AcDb2dVertex
 10
297.500157
 20
192.923942
 30
0.0
  0
SEQEND
  5
2A9
100
AcDbEntity
  8
0
390
0
  0
LINE
  5
2AA
100
AcDbEntity
  8
5
390
0
  6
DOT
 62
     9
100
AcDbLine
 10
294.528333
 20
193.421218
 30
0.0
 11
294.528333
 21
193.888879
 31
0.0
  0
LINE
  5
2AB
100
AcDbEntity
  8
1
390
0
  6
Continuous
 62
     7
100
AcDbLine
 10
288.820145
 20
182.284041
 30
0.0
 11
293.120145
 21
182.284041
 31
0.0
  0
LINE
  5
2AC
100
AcDbEntity
  8
1
390
0
  6
Continuous
 62
     7
100
AcDbLine
 10
293.120145
 20
196.764041
 30
0.0
 11
288.820145
 21
196.764041
 31
0.0
  0
ARC
  5
2AD
100
AcDbEntity
  8
1
390
0
  6
Continuous
 62
     7
100
AcDbCircle
 10
287.920145
 20
183.404041
 30
0.0
 40
0.8
210
0.0
220
0.0
230
1.0
100
AcDbArc
 50
180.0
 51
270.0
  0
ARC
  5
2AE
100
AcDbEntity
  8
1
390
0
  6
Continuous
 62
     7
100
AcDbCircle
 10
287.920145
 20
195.644041
 30
0.0
 40
0.8
210
0.0
220
0.0
230
1.0
100
AcDbArc
 50
90.0
 51
180.0
  0
LINE
  5
2AF
100
AcDbEntity
  8
1
390
0
  6
Continuous
 62
     7
100
AcDbLine
 10
293.120145
 20
182.604041
 30
0.0
 11
293.920145
 21
182.604041
 31
0.0
  0
LINE
  5
2B0
100
AcDbEntity
  8
1
390
0
  6
Continuous
 62
     7
100
AcDbLine
 10
293.920145
 20
196.444041
 30
0.0
 11
293.120145
 21
196.444041
 31
0.0
  0
LINE
  5
2B1
100
AcDbEntity
  8
1
390
0
  6
Continuous
 62
     7
100
AcDbLine
 10
299.920145
 20
196.444041
 30
0.0
 11
299.720145
 21
196.244041
 31
0.0
  0
LINE
  5
2B2
100
AcDbEntity
  8
1
390
0
  6
Continuous
 62
     7
100
AcDbLine
 10
299.720145
 20
182.804041
 30
0.0
 11
299.920145
 21
182.604041
 31
0.0
  0
LINE
  5
2B3
100
AcDbEntity
  8
1
390
0
  6
Continuous
 62
     7
100
AcDbLine
 10
299.920145
 20
182.604041
 30
0.0
 11
301.920145
 21
182.604041
 31
0.0
  0
LINE
  5
2B4
100
AcDbEntity
  8
1
390
0
  6
Continuous
 62
     7
100
AcDbLine
 10
301.920145
 20
196.444041
 30
0.0
 11
299.920145
 21
196.444041
 31
0.0
  0
LINE
  5
2B5
100
AcDbEntity
  8
1
390
0
  6
Continuous
 62
     7
100
AcDbLine
 10
301.920145
 20
182.604041
 30
0.0
 11
302.120145
 21
182.804041
 31
0.0
  0
LINE
  5
2B6
100
AcDbEntity
  8
1
390
0
  6
Continuous
 62
     7
100
AcDbLine
 10
302.120145
 20
196.244041
 30
0.0
 11
301.920145
 21
196.444041
 31
0.0
  0
LINE
  5
2B7
100
AcDbEntity
  8
1
390
0
  6
Continuous
 62
     7
100
AcDbLine
 10
287.920145
 20
182.604041
 30
0.0
 11
288.820145
 21
182.604041
 31
0.0
  0
LINE
  5
2B8
100
AcDbEntity
  8
1
390
0
  6
Continuous
 62
     7
100
AcDbLine
 10
288.820145
 20
196.444041
 30
0.0
 11
287.920145
 21
196.444041
 31
0.0
  0
LINE
  5
2B9
100
AcDbEntity
  8
1
390
0
  6
Continuous
 62
     7
100
AcDbLine
 10
297.931938
 20
183.924041
 30
0.0
 11
299.720145
 21
183.924041
 31
0.0
  0
LINE
  5
2BA
100
AcDbEntity
  8
1
390
0
  6
Continuous
 62
     7
100
AcDbLine
 10
293.920145
 20
183.924041
 30
0.0
 11
295.550805
 21
183.924041
 31
0.0
  0
LINE
  5
2BB
100
AcDbEntity
  8
1
390
0
  6
Continuous
 62
     7
100
AcDbLine
 10
295.550805
 20
195.124041
 30
0.0
 11
293.920145
 21
195.124041
 31
0.0
  0
LINE
  5
2BC
100
AcDbEntity
  8
1
390
0
  6
Continuous
 62
     7
100
AcDbLine
 10
299.720145
 20
195.124041
 30
0.0
 11
297.931938
 21
195.124041
 31
0.0
  0
LINE
  5
2BD
100
AcDbEntity
  8
5
390
0
  6
DOT
 62
     9
100
AcDbLine
 10
301.720145
 20
184.524041
 30
0.0
 11
302.120145
 21
184.124041
 31
0.0
  0
POLYLINE
  5
2BE
100
AcDbEntity
  8
5
390
0
  6
DOT
 62
     9
100
AcDb3dPolyline
 66
     1
 10
0.0
 20
0.0
 30
0.0
 70
     8
 40
1.0
 41
1.0
  0
VERTEX
  5
2BF
100
AcDbEntity
  8
5
390
0
 62
     9
100
AcDbVertex
100
AcDb3dPolylineVertex
 10
297.500157
 20
185.716392
 30
0.0
 70
    32
  0
VERTEX
  5
2C0
100
AcDbEntity
  8
5
390
0
 62
     9
100
AcDbVertex
100
AcDb3dPolylineVertex
 10
297.500157
 20
185.921495
 30
0.0
 70
    32
  0
VERTEX
  5
2C1
100
AcDbEntity
  8
5
390
0
 62
     9
100
AcDbVertex
100
AcDb3dPolylineVertex
 10
297.500157
 20
186.12661
 30
0.0
 70
    32
  0
SEQEND
  5
2C2
100
AcDbEntity
  8
0
390
0
  0
POLYLINE
  5
2C3
100
AcDbEntity
  8
5
390
0
  6
DOT
 62
     9
100
AcDb3dPolyline
 66
     1
 10
0.0
 20
0.0
 30
0.0
 70
     8
 40
1.0
 41
1.0
  0
VERTEX
  5
2C4
100
AcDbEntity
  8
5
390
0
 62
     9
100
AcDbVertex
100
AcDb3dPolylineVertex
 10
294.30014
 20
186.126677
 30
0.0
 70
    32
  0
VERTEX
  5
2C5
100
AcDbEntity
  8
5
390
0
 62
     9
100
AcDbVertex
100
AcDb3dPolylineVertex
 10
294.30014
 20
185.921535
 30
0.0
 70
    32
  0
VERTEX
  5
2C6
100
AcDbEntity
  8
5
390
0
 62
     9
100
AcDbVertex
100
AcDb3dPolylineVertex
 10
294.30014
 20
185.716403
 30
0.0
 70
    32
  0
SEQEND
  5
2C7
100
AcDbEntity
  8
0
390
0
  0
LINE
  5
2C8
100
AcDbEntity
  8
5
390
0
  6
DOT
 62
     9
100
AcDbLine
 10
297.931938
 20
184.524041
 30
0.0
 11
301.720145
 21
184.524041
 31
0.0
  0
LINE
  5
2C9
100
AcDbEntity
  8
5
390
0
  6
DOT
 62
     9
100
AcDbLine
 10
292.120145
 20
184.524041
 30
0.0
 11
295.550803
 21
184.524041
 31
0.0
  0
LINE
  5
2CA
100
AcDbEntity
  8
5
390
0
  6
DOT
 62
     9
100
AcDbLine
 10
295.550803
 20
194.524041
 30
0.0
 11
292.120145
 21
194.524041
 31
0.0
  0
LINE
  5
2CB
100
AcDbEntity
  8
5
390
0
  6
DOT
 62
     9
100
AcDbLine
 10
301.720145
 20
194.524041
 30
0.0
 11
297.931938
 21
194.524041
 31
0.0
  0
LINE
  5
2CC
100
AcDbEntity
  8
1
390
0
  6
Continuous
 62
     7
100
AcDbLine
 10
286.620145
 20
194.274041
 30
0.0
 11
286.320145
 21
193.974041
 31
0.0
  0
LINE
  5
2CD
100
AcDbEntity
  8
1
390
0
  6
Continuous
 62
     7
100
AcDbLine
 10
286.320145
 20
185.074041
 30
0.0
 11
286.620145
 21
184.774041
 31
0.0
  0
LINE
  5
2CE
100
AcDbEntity
  8
1
390
0
  6
Continuous
 62
     7
100
AcDbLine
 10
286.620145
 20
184.774041
 30
0.0
 11
287.120145
 21
184.774041
 31
0.0
  0
LINE
  5
2CF
100
AcDbEntity
  8
1
390
0
  6
Continuous
 62
     7
100
AcDbLine
 10
287.120145
 20
194.274041
 30
0.0
 11
286.620145
 21
194.274041
 31
0.0
  0
LINE
  5
2D0
100
AcDbEntity
  8
5
390
0
  6
DOT
 62
     9
100
AcDbLine
 10
292.120145
 20
185.574041
 30
0.0
 11
293.120145
 21
185.574041
 31
0.0
  0
LINE
  5
2D1
100
AcDbEntity
  8
5
390
0
  6
DOT
 62
     9
100
AcDbLine
 10
293.120145
 20
185.574041
 30
0.0
 11
293.920145
 21
185.574041
 31
0.0
  0
LINE
  5
2D2
100
AcDbEntity
  8
5
390
0
  6
DOT
 62
     9
100
AcDbLine
 10
293.920145
 20
185.574041
 30
0.0
 11
294.554709
 21
185.574041
 31
0.0
  0
LINE
  5
2D3
100
AcDbEntity
  8
1
390
0
  6
Continuous
 62
     7
100
AcDbLine
 10
294.554709
 20
185.574041
 30
0.0
 11
297.208988
 21
185.574041
 31
0.0
  0
LINE
  5
2D4
100
AcDbEntity
  8
5
390
0
  6
DOT
 62
     9
100
AcDbLine
 10
297.208988
 20
185.574041
 30
0.0
 11
299.720145
 21
185.574041
 31
0.0
  0
LINE
  5
2D5
100
AcDbEntity
  8
5
390
0
  6
DOT
 62
     9
100
AcDbLine
 10
299.720145
 20
185.574041
 30
0.0
 11
301.320145
 21
185.574041
 31
0.0
  0
LINE
  5
2D6
100
AcDbEntity
  8
5
390
0
  6
DOT
 62
     9
100
AcDbLine
 10
301.320145
 20
193.474041
 30
0.0
 11
299.720145
 21
193.474041
 31
0.0
  0
LINE
  5
2D7
100
AcDbEntity
  8
5
390
0
  6
DOT
 62
     9
100
AcDbLine
 10
299.720145
 20
193.474041
 30
0.0
 11
293.920145
 21
193.474041
 31
0.0
  0
LINE
  5
2D8
100
AcDbEntity
  8
5
390
0
  6
DOT
 62
     9
100
AcDbLine
 10
293.920145
 20
193.474041
 30
0.0
 11
293.120145
 21
193.474041
 31
0.0
  0
LINE
  5
2D9
100
AcDbEntity
  8
5
390
0
  6
DOT
 62
     9
100
AcDbLine
 10
293.120145
 20
193.474041
 30
0.0
 11
292.120145
 21
193.474041
 31
0.0
  0
LINE
  5
2DA
100
AcDbEntity
  8
5
390
0
  6
DOT
 62
     9
100
AcDbLine
 10
301.120145
 20
185.874041
 30
0.0
 11
301.320145
 21
185.874041
 31
0.0
  0
LINE
  5
2DB
100
AcDbEntity
  8
5
390
0
  6
DOT
 62
     9
100
AcDbLine
 10
301.320145
 20
193.174041
 30
0.0
 11
301.120145
 21
193.174041
 31
0.0
  0
LINE
  5
2DC
100
AcDbEntity
  8
5
390
0
  6
DOT
 62
     9
100
AcDbLine
 10
302.120145
 20
195.056878
 30
0.0
 11
299.720145
 21
195.056878
 31
0.0
  0
LINE
  5
2DD
100
AcDbEntity
  8
5
390
0
  6
DOT
 62
     9
100
AcDbLine
 10
301.120145
 20
191.974041
 30
0.0
 11
293.320145
 21
191.974041
 31
0.0
  0
LINE
  5
2DE
100
AcDbEntity
  8
5
390
0
  6
DOT
 62
     9
100
AcDbLine
 10
293.320145
 20
187.074041
 30
0.0
 11
301.120145
 21
187.074041
 31
0.0
  0
LINE
  5
2DF
100
AcDbEntity
  8
5
390
0
  6
DOT
 62
     9
100
AcDbLine
 10
302.120145
 20
194.924041
 30
0.0
 11
301.720145
 21
194.524041
 31
0.0
  0
LINE
  5
2E0
100
AcDbEntity
  8
5
390
0
  6
DOT
 62
     9
100
AcDbLine
 10
293.320145
 20
188.55758
 30
0.0
 11
293.920145
 21
188.610073
 31
0.0
  0
LINE
  5
2E1
100
AcDbEntity
  8
5
390
0
  6
DOT
 62
     9
100
AcDbLine
 10
293.920145
 20
188.610073
 30
0.0
 11
299.720145
 21
189.117507
 31
0.0
  0
LINE
  5
2E2
100
AcDbEntity
  8
5
390
0
  6
DOT
 62
     9
100
AcDbLine
 10
299.720145
 20
189.117507
 30
0.0
 11
300.437576
 21
189.180275
 31
0.0
  0
LINE
  5
2E3
100
AcDbEntity
  8
5
390
0
  6
DOT
 62
     9
100
AcDbLine
 10
300.437576
 20
189.867807
 30
0.0
 11
299.720145
 21
189.930574
 31
0.0
  0
LINE
  5
2E4
100
AcDbEntity
  8
5
390
0
  6
DOT
 62
     9
100
AcDbLine
 10
299.720145
 20
189.930574
 30
0.0
 11
293.920145
 21
190.438009
 31
0.0
  0
LINE
  5
2E5
100
AcDbEntity
  8
5
390
0
  6
DOT
 62
     9
100
AcDbLine
 10
293.920145
 20
190.438009
 30
0.0
 11
293.320145
 21
190.490502
 31
0.0
  0
LINE
  5
2E6
100
AcDbEntity
  8
1
390
0
  6
Continuous
 62
     7
100
AcDbLine
 10
286.320145
 20
190.424041
 30
0.0
 11
224.939811
 21
190.424041
 31
0.0
  0
LINE
  5
2E7
100
AcDbEntity
  8
1
390
0
  6
Continuous
 62
     7
100
AcDbLine
 10
223.878272
 20
188.624041
 30
0.0
 11
286.320145
 21
188.624041
 31
0.0
  0
ARC
  5
2E8
100
AcDbEntity
  8
5
390
0
  6
DOT
 62
     9
100
AcDbCircle
 10
300.420145
 20
189.379514
 30
0.0
 40
0.2
210
0.0
220
0.0
230
1.0
100
AcDbArc
 50
275.0
 51
0.0
  0
ARC
  5
2E9
100
AcDbEntity
  8
5
390
0
  6
DOT
 62
     9
100
AcDbCircle
 10
300.420145
 20
189.668568
 30
0.0
 40
0.2
210
0.0
220
0.0
230
1.0
100
AcDbArc
 50
0.0
 51
85.0
  0
LINE
  5
2EA
100
AcDbEntity
  8
5
390
0
  6
DOT
 62
     9
100
AcDbLine
 10
299.720145
 20
183.991203
 30
0.0
 11
302.120145
 21
183.991203
 31
0.0
  0
POLYLINE
  5
2EB
100
AcDbEntity
  8
5
390
0
  6
DOT
 62
     9
100
AcDb3dPolyline
 66
     1
 10
0.0
 20
0.0
 30
0.0
 70
     8
 40
1.0
 41
1.0
  0
VERTEX
  5
2EC
100
AcDbEntity
  8
5
390
0
 62
     9
100
AcDbVertex
100
AcDb3dPolylineVertex
 10
294.30014
 20
193.331679
 30
0.0
 70
    32
  0
VERTEX
  5
2ED
100
AcDbEntity
  8
5
390
0
 62
     9
100
AcDbVertex
100
AcDb3dPolylineVertex
 10
294.30014
 20
193.126546
 30
0.0
 70
    32
  0
VERTEX
  5
2EE
100
AcDbEntity
  8
5
390
0
 62
     9
100
AcDbVertex
100
AcDb3dPolylineVertex
 10
294.30014
 20
192.921405
 30
0.0
 70
    32
  0
SEQEND
  5
2EF
100
AcDbEntity
  8
0
390
0
  0
POLYLINE
  5
2F0
100
AcDbEntity
  8
5
390
0
  6
DOT
 62
     9
100
AcDb3dPolyline
 66
     1
 10
0.0
 20
0.0
 30
0.0
 70
     8
 40
1.0
 41
1.0
  0
VERTEX
  5
2F1
100
AcDbEntity
  8
5
390
0
 62
     9
100
AcDbVertex
100
AcDb3dPolylineVertex
 10
297.500157
 20
192.921471
 30
0.0
 70
    32
  0
VERTEX
  5
2F2
100
AcDbEntity
  8
5
390
0
 62
     9
100
AcDbVertex
100
AcDb3dPolylineVertex
 10
297.500157
 20
193.126587
 30
0.0
 70
    32
  0
VERTEX
  5
2F3
100
AcDbEntity
  8
5
390
0
 62
     9
100
AcDbVertex
100
AcDb3dPolylineVertex
 10
297.500157
 20
193.33169
 30
0.0
 70
    32
  0
SEQEND
  5
2F4
100
AcDbEntity
  8
0
390
0
  0
LINE
  5
2F5
100
AcDbEntity
  8
1
390
0
  6
Continuous
 62
     9
100
AcDbLine
 10
216.258151
 20
184.181226
 30
0.0
 11
221.857414
 21
193.675629
 31
0.0
  0
LINE
  5
2F6
100
AcDbEntity
  8
1
390
0
  6
Continuous
 62
     9
100
AcDbLine
 10
221.258151
 20
184.181226
 30
0.0
 11
226.857414
 21
193.675629
 31
0.0
  0
LINE
  5
2F8
100
AcDbEntity
  8
1
390
0
  6
CENTER
 62
     1
100
AcDbLine
 10
304.337611
 20
189.524041
 30
0.0
 11
161.569488
 21
189.524041
 31
0.0
  0
POINT
  5
2F9
100
AcDbEntity
  8
5
390
0
 62
     9
100
AcDbPoint
 10
161.569488
 20
206.514898
 30
0.0
  0
POINT
  5
2FA
100
AcDbEntity
  8
5
390
0
 62
     9
100
AcDbPoint
 10
304.337611
 20
202.863817
 30
0.0
  0
CIRCLE
  5
2FB
100
AcDbEntity
  8
1
390
0
  6
Continuous
 62
     7
100
AcDbCircle
 10
114.285322
 20
189.524041
 30
0.0
 40
4.75
210
0.0
220
0.0
230
1.0
  0
CIRCLE
  5
2FC
100
AcDbEntity
  8
1
390
0
  6
Continuous
 62
     7
100
AcDbCircle
 10
114.285322
 20
189.524041
 30
0.0
 40
4.45
210
0.0
220
0.0
230
1.0
  0
ARC
  5
2FD
100
AcDbEntity
  8
1
390
0
  6
Continuous
 62
     7
100
AcDbCircle
 10
114.285322
 20
189.524041
 30
0.0
 40
6.92
210
0.0
220
0.0
230
1.0
100
AcDbArc
 50
0.0
 51
270.0
  0
ARC
  5
2FE
100
AcDbEntity
  8
1
390
0
  6
Continuous
 62
     7
100
AcDbCircle
 10
114.285322
 20
189.524041
 30
0.0
 40
6.92
210
0.0
220
0.0
230
1.0
100
AcDbArc
 50
270.0
 51
360.0
  0
CIRCLE
  5
2FF
100
AcDbEntity
  8
1
390
0
  6
Continuous
 62
     7
100
AcDbCircle
 10
114.285322
 20
189.524041
 30
0.0
 40
7.24
210
0.0
220
0.0
230
1.0
  0
CIRCLE
  5
300
100
AcDbEntity
  8
1
390
0
  6
Continuous
 62
     7
100
AcDbCircle
 10
114.285322
 20
189.524041
 30
0.0
 40
2.0
210
0.0
220
0.0
230
1.0
  0
CIRCLE
  5
301
100
AcDbEntity
  8
1
390
0
  6
Continuous
 62
     7
100
AcDbCircle
 10
114.285322
 20
189.524041
 30
0.0
 40
3.3
210
0.0
220
0.0
230
1.0
  0
CIRCLE
  5
302
100
AcDbEntity
  8
1
390
0
  6
Continuous
 62
     7
100
AcDbCircle
 10
114.285322
 20
189.524041
 30
0.0
 40
3.5
210
0.0
220
0.0
230
1.0
  0
CIRCLE
  5
303
100
AcDbEntity
  8
1
390
0
  6
Continuous
 62
     7
100
AcDbCircle
 10
114.285322
 20
189.524041
 30
0.0
 40
2.14
210
0.0
220
0.0
230
1.0
  0
LINE
  5
304
100
AcDbEntity
  8
1
390
0
  6
Continuous
 62
     7
100
AcDbLine
 10
171.783259
 20
112.63331
 30
0.0
 11
171.783259
 21
119.23331
 31
0.0
  0
LINE
  5
305
100
AcDbEntity
  8
1
390
0
  6
Continuous
 62
     7
100
AcDbLine
 10
171.983259
 20
119.43331
 30
0.0
 11
171.983259
 21
112.43331
 31
0.0
  0
LINE
  5
306
100
AcDbEntity
  8
1
390
0
  6
Continuous
 62
     7
100
AcDbLine
 10
176.583259
 20
112.68331
 30
0.0
 11
176.583259
 21
119.18331
 31
0.0
  0
LINE
  5
307
100
AcDbEntity
  8
1
390
0
  6
Continuous
 62
     7
100
AcDbLine
 10
176.583259
 20
119.18331
 30
0.0
 11
176.783259
 21
119.18331
 31
0.0
  0
LINE
  5
308
100
AcDbEntity
  8
1
390
0
  6
Continuous
 62
     7
100
AcDbLine
 10
176.783259
 20
119.18331
 30
0.0
 11
176.783259
 21
112.68331
 31
0.0
  0
LINE
  5
309
100
AcDbEntity
  8
1
390
0
  6
Continuous
 62
     7
100
AcDbLine
 10
176.783259
 20
112.68331
 30
0.0
 11
176.583259
 21
112.68331
 31
0.0
  0
LINE
  5
30A
100
AcDbEntity
  8
1
390
0
  6
Continuous
 62
     7
100
AcDbLine
 10
175.283259
 20
112.43331
 30
0.0
 11
175.283259
 21
112.68331
 31
0.0
  0
LINE
  5
30B
100
AcDbEntity
  8
1
390
0
  6
Continuous
 62
     7
100
AcDbLine
 10
175.283259
 20
119.43331
 30
0.0
 11
175.283259
 21
119.18331
 31
0.0
  0
LINE
  5
30C
100
AcDbEntity
  8
1
390
0
  6
Continuous
 62
     7
100
AcDbLine
 10
175.283259
 20
119.18331
 30
0.0
 11
176.583259
 21
119.18331
 31
0.0
  0
LINE
  5
30D
100
AcDbEntity
  8
1
390
0
  6
Continuous
 62
     7
100
AcDbLine
 10
175.283259
 20
112.68331
 30
0.0
 11
176.583259
 21
112.68331
 31
0.0
  0
LINE
  5
30E
100
AcDbEntity
  8
1
390
0
  6
Continuous
 62
     7
100
AcDbLine
 10
191.283259
 20
118.43331
 30
0.0
 11
191.283259
 21
113.43331
 31
0.0
  0
LINE
  5
30F
100
AcDbEntity
  8
1
390
0
  6
Continuous
 62
     7
100
AcDbLine
 10
190.783259
 20
113.93331
 30
0.0
 11
190.783259
 21
117.93331
 31
0.0
  0
LINE
  5
310
100
AcDbEntity
  8
1
390
0
  6
Continuous
 62
     7
100
AcDbLine
 10
193.783259
 20
113.43331
 30
0.0
 11
193.783259
 21
118.43331
 31
0.0
  0
LINE
  5
311
100
AcDbEntity
  8
1
390
0
  6
Continuous
 62
     7
100
AcDbLine
 10
177.383259
 20
118.18331
 30
0.0
 11
177.383259
 21
118.43331
 31
0.0
  0
LINE
  5
312
100
AcDbEntity
  8
1
390
0
  6
Continuous
 62
     7
100
AcDbLine
 10
177.383259
 20
118.18331
 30
0.0
 11
178.783259
 21
118.18331
 31
0.0
  0
LINE
  5
313
100
AcDbEntity
  8
1
390
0
  6
Continuous
 62
     7
100
AcDbLine
 10
178.783259
 20
113.68331
 30
0.0
 11
178.783259
 21
118.18331
 31
0.0
  0
LINE
  5
314
100
AcDbEntity
  8
1
390
0
  6
Continuous
 62
     7
100
AcDbLine
 10
177.383259
 20
113.68331
 30
0.0
 11
178.783259
 21
113.68331
 31
0.0
  0
LINE
  5
315
100
AcDbEntity
  8
1
390
0
  6
Continuous
 62
     7
100
AcDbLine
 10
177.383259
 20
113.68331
 30
0.0
 11
177.383259
 21
113.43331
 31
0.0
  0
LINE
  5
316
100
AcDbEntity
  8
1
390
0
  6
Continuous
 62
     7
100
AcDbLine
 10
178.983259
 20
113.43331
 30
0.0
 11
178.983259
 21
118.43331
 31
0.0
  0
LINE
  5
317
100
AcDbEntity
  8
1
390
0
  6
Continuous
 62
     7
100
AcDbLine
 10
184.383259
 20
118.18331
 30
0.0
 11
184.383259
 21
118.43331
 31
0.0
  0
LINE
  5
318
100
AcDbEntity
  8
1
390
0
  6
Continuous
 62
     7
100
AcDbLine
 10
184.383259
 20
118.18331
 30
0.0
 11
186.383259
 21
118.18331
 31
0.0
  0
LINE
  5
319
100
AcDbEntity
  8
1
390
0
  6
Continuous
 62
     7
100
AcDbLine
 10
186.383259
 20
113.68331
 30
0.0
 11
186.383259
 21
118.18331
 31
0.0
  0
LINE
  5
31A
100
AcDbEntity
  8
1
390
0
  6
Continuous
 62
     7
100
AcDbLine
 10
184.383259
 20
113.68331
 30
0.0
 11
186.383259
 21
113.68331
 31
0.0
  0
LINE
  5
31B
100
AcDbEntity
  8
1
390
0
  6
Continuous
 62
     7
100
AcDbLine
 10
184.383259
 20
113.68331
 30
0.0
 11
184.383259
 21
113.43331
 31
0.0
  0
LINE
  5
31C
100
AcDbEntity
  8
1
390
0
  6
Continuous
 62
     7
100
AcDbLine
 10
186.633259
 20
118.18331
 30
0.0
 11
186.383259
 21
118.18331
 31
0.0
  0
LINE
  5
31D
100
AcDbEntity
  8
1
390
0
  6
Continuous
 62
     7
100
AcDbLine
 10
186.883259
 20
113.93331
 30
0.0
 11
186.883259
 21
117.93331
 31
0.0
  0
LINE
  5
31E
100
AcDbEntity
  8
1
390
0
  6
Continuous
 62
     7
100
AcDbLine
 10
186.383259
 20
113.68331
 30
0.0
 11
186.633259
 21
113.68331
 31
0.0
  0
LINE
  5
31F
100
AcDbEntity
  8
1
390
0
  6
Continuous
 62
     7
100
AcDbLine
 10
178.783259
 20
118.18331
 30
0.0
 11
178.883259
 21
118.18331
 31
0.0
  0
LINE
  5
320
100
AcDbEntity
  8
1
390
0
  6
Continuous
 62
     7
100
AcDbLine
 10
178.883259
 20
113.68331
 30
0.0
 11
178.883259
 21
118.18331
 31
0.0
  0
LINE
  5
321
100
AcDbEntity
  8
1
390
0
  6
Continuous
 62
     7
100
AcDbLine
 10
178.883259
 20
113.68331
 30
0.0
 11
178.783259
 21
113.68331
 31
0.0
  0
LINE
  5
322
100
AcDbEntity
  8
1
390
0
  6
Continuous
 62
     7
100
AcDbLine
 10
178.883259
 20
113.53331
 30
0.0
 11
178.883259
 21
113.68331
 31
0.0
  0
LINE
  5
323
100
AcDbEntity
  8
1
390
0
  6
Continuous
 62
     7
100
AcDbLine
 10
178.883259
 20
118.18331
 30
0.0
 11
178.883259
 21
118.33331
 31
0.0
  0
LINE
  5
324
100
AcDbEntity
  8
1
390
0
  6
Continuous
 62
     7
100
AcDbLine
 10
163.783259
 20
113.93331
 30
0.0
 11
163.783259
 21
117.93331
 31
0.0
  0
LINE
  5
325
100
AcDbEntity
  8
1
390
0
  6
Continuous
 62
     7
100
AcDbLine
 10
164.683259
 20
113.93331
 30
0.0
 11
164.683259
 21
117.93331
 31
0.0
  0
LINE
  5
326
100
AcDbEntity
  8
1
390
0
  6
Continuous
 62
     7
100
AcDbLine
 10
170.583259
 20
113.93331
 30
0.0
 11
170.583259
 21
117.93331
 31
0.0
  0
LINE
  5
327
100
AcDbEntity
  8
1
390
0
  6
Continuous
 62
     7
100
AcDbLine
 10
165.483259
 20
113.93331
 30
0.0
 11
165.483259
 21
117.93331
 31
0.0
  0
LINE
  5
328
100
AcDbEntity
  8
1
390
0
  6
Continuous
 62
     7
100
AcDbLine
 10
166.083259
 20
113.93331
 30
0.0
 11
166.083259
 21
117.93331
 31
0.0
  0
LINE
  5
329
100
AcDbEntity
  8
1
390
0
  6
Continuous
 62
     7
100
AcDbLine
 10
219.939811
 20
116.83331
 30
0.0
 11
193.783259
 21
116.83331
 31
0.0
  0
LINE
  5
32A
100
AcDbEntity
  8
1
390
0
  6
Continuous
 62
     7
100
AcDbLine
 10
193.783259
 20
115.03331
 30
0.0
 11
218.878272
 21
115.03331
 31
0.0
  0
ARC
  5
32B
100
AcDbEntity
  8
1
390
0
  6
Continuous
 62
     7
100
AcDbCircle
 10
165.083259
 20
114.11331
 30
0.0
 40
0.32
210
0.0
220
0.0
230
1.0
100
AcDbArc
 50
180.0
 51
360.0
  0
ARC
  5
32C
100
AcDbEntity
  8
1
390
0
  6
Continuous
 62
     7
100
AcDbCircle
 10
165.083259
 20
117.75331
 30
0.0
 40
0.32
210
0.0
220
0.0
230
1.0
100
AcDbArc
 50
0.0
 51
180.0
  0
LINE
  5
32D
100
AcDbEntity
  8
1
390
0
  6
Continuous
 62
     7
100
AcDbLine
 10
165.403259
 20
114.11331
 30
0.0
 11
165.403259
 21
117.75331
 31
0.0
  0
LINE
  5
32E
100
AcDbEntity
  8
1
390
0
  6
Continuous
 62
     7
100
AcDbLine
 10
164.763259
 20
117.75331
 30
0.0
 11
164.763259
 21
114.11331
 31
0.0
  0
LINE
  5
32F
100
AcDbEntity
  8
1
390
0
  6
Continuous
 62
     7
100
AcDbLine
 10
171.983259
 20
119.43331
 30
0.0
 11
171.783259
 21
119.23331
 31
0.0
  0
LINE
  5
330
100
AcDbEntity
  8
1
390
0
  6
Continuous
 62
     7
100
AcDbLine
 10
171.783259
 20
112.63331
 30
0.0
 11
171.983259
 21
112.43331
 31
0.0
  0
LINE
  5
331
100
AcDbEntity
  8
1
390
0
  6
Continuous
 62
     7
100
AcDbLine
 10
171.983259
 20
112.43331
 30
0.0
 11
175.283259
 21
112.43331
 31
0.0
  0
LINE
  5
332
100
AcDbEntity
  8
1
390
0
  6
Continuous
 62
     7
100
AcDbLine
 10
175.283259
 20
119.43331
 30
0.0
 11
171.983259
 21
119.43331
 31
0.0
  0
LINE
  5
333
100
AcDbEntity
  8
1
390
0
  6
Continuous
 62
     7
100
AcDbLine
 10
191.283259
 20
118.43331
 30
0.0
 11
190.783259
 21
117.93331
 31
0.0
  0
LINE
  5
334
100
AcDbEntity
  8
1
390
0
  6
Continuous
 62
     7
100
AcDbLine
 10
190.783259
 20
113.93331
 30
0.0
 11
191.283259
 21
113.43331
 31
0.0
  0
LINE
  5
335
100
AcDbEntity
  8
1
390
0
  6
Continuous
 62
     7
100
AcDbLine
 10
191.283259
 20
113.43331
 30
0.0
 11
193.783259
 21
113.43331
 31
0.0
  0
LINE
  5
336
100
AcDbEntity
  8
1
390
0
  6
Continuous
 62
     7
100
AcDbLine
 10
193.783259
 20
118.43331
 30
0.0
 11
191.283259
 21
118.43331
 31
0.0
  0
LINE
  5
337
100
AcDbEntity
  8
1
390
0
  6
Continuous
 62
     7
100
AcDbLine
 10
176.783259
 20
113.43331
 30
0.0
 11
177.383259
 21
113.43331
 31
0.0
  0
LINE
  5
338
100
AcDbEntity
  8
1
390
0
  6
Continuous
 62
     7
100
AcDbLine
 10
177.383259
 20
118.43331
 30
0.0
 11
176.783259
 21
118.43331
 31
0.0
  0
LINE
  5
339
100
AcDbEntity
  8
1
390
0
  6
Continuous
 62
     7
100
AcDbLine
 10
178.983259
 20
113.43331
 30
0.0
 11
184.383259
 21
113.43331
 31
0.0
  0
LINE
  5
33A
100
AcDbEntity
  8
1
390
0
  6
Continuous
 62
     7
100
AcDbLine
 10
184.383259
 20
118.43331
 30
0.0
 11
178.983259
 21
118.43331
 31
0.0
  0
LINE
  5
33B
100
AcDbEntity
  8
1
390
0
  6
Continuous
 62
     7
100
AcDbLine
 10
186.633259
 20
113.68331
 30
0.0
 11
186.883259
 21
113.93331
 31
0.0
  0
LINE
  5
33C
100
AcDbEntity
  8
1
390
0
  6
Continuous
 62
     7
100
AcDbLine
 10
186.883259
 20
117.93331
 30
0.0
 11
186.633259
 21
118.18331
 31
0.0
  0
LINE
  5
33D
100
AcDbEntity
  8
1
390
0
  6
Continuous
 62
     7
100
AcDbLine
 10
178.983259
 20
118.43331
 30
0.0
 11
178.883259
 21
118.33331
 31
0.0
  0
LINE
  5
33E
100
AcDbEntity
  8
1
390
0
  6
Continuous
 62
     7
100
AcDbLine
 10
178.883259
 20
113.53331
 30
0.0
 11
178.983259
 21
113.43331
 31
0.0
  0
ARC
  5
33F
100
AcDbEntity
  8
1
390
0
  6
Continuous
 62
     7
100
AcDbCircle
 10
171.683259
 20
113.83331
 30
0.0
 40
0.1
210
0.0
220
0.0
230
1.0
100
AcDbArc
 50
360.0
 51
90.0
  0
ARC
  5
340
100
AcDbEntity
  8
1
390
0
  6
Continuous
 62
     7
100
AcDbCircle
 10
171.683259
 20
118.03331
 30
0.0
 40
0.1
210
0.0
220
0.0
230
1.0
100
AcDbArc
 50
270.0
 51
360.0
  0
LINE
  5
341
100
AcDbEntity
  8
1
390
0
  6
Continuous
 62
     7
100
AcDbLine
 10
163.783259
 20
113.93331
 30
0.0
 11
164.683259
 21
113.93331
 31
0.0
  0
LINE
  5
342
100
AcDbEntity
  8
1
390
0
  6
Continuous
 62
     7
100
AcDbLine
 10
164.683259
 20
117.93331
 30
0.0
 11
163.783259
 21
117.93331
 31
0.0
  0
LINE
  5
343
100
AcDbEntity
  8
1
390
0
  6
Continuous
 62
     7
100
AcDbLine
 10
170.583259
 20
113.93331
 30
0.0
 11
171.683259
 21
113.93331
 31
0.0
  0
LINE
  5
344
100
AcDbEntity
  8
1
390
0
  6
Continuous
 62
     7
100
AcDbLine
 10
171.683259
 20
117.93331
 30
0.0
 11
170.583259
 21
117.93331
 31
0.0
  0
LINE
  5
345
100
AcDbEntity
  8
1
390
0
  6
Continuous
 62
     7
100
AcDbLine
 10
165.483259
 20
113.93331
 30
0.0
 11
166.083259
 21
113.93331
 31
0.0
  0
LINE
  5
346
100
AcDbEntity
  8
1
390
0
  6
Continuous
 62
     7
100
AcDbLine
 10
166.083259
 20
117.93331
 30
0.0
 11
165.483259
 21
117.93331
 31
0.0
  0
LINE
  5
347
100
AcDbEntity
  8
1
390
0
  6
Continuous
 62
     7
100
AcDbLine
 10
190.783259
 20
117.93331
 30
0.0
 11
186.883259
 21
117.93331
 31
0.0
  0
LINE
  5
348
100
AcDbEntity
  8
1
390
0
  6
Continuous
 62
     7
100
AcDbLine
 10
186.883259
 20
113.93331
 30
0.0
 11
190.783259
 21
113.93331
 31
0.0
  0
LINE
  5
349
100
AcDbEntity
  8
1
390
0
  6
Continuous
 62
     7
100
AcDbLine
 10
166.083259
 20
114.03331
 30
0.0
 11
170.583259
 21
114.03331
 31
0.0
  0
LINE
  5
34A
100
AcDbEntity
  8
1
390
0
  6
Continuous
 62
     7
100
AcDbLine
 10
170.583259
 20
117.83331
 30
0.0
 11
166.083259
 21
117.83331
 31
0.0
  0
LINE
  5
34B
100
AcDbEntity
  8
1
390
0
  6
Continuous
 62
     7
100
AcDbLine
 10
164.683259
 20
114.43331
 30
0.0
 11
164.763259
 21
114.43331
 31
0.0
  0
LINE
  5
34C
100
AcDbEntity
  8
1
390
0
  6
Continuous
 62
     7
100
AcDbLine
 10
165.403259
 20
114.43331
 30
0.0
 11
165.483259
 21
114.43331
 31
0.0
  0
LINE
  5
34D
100
AcDbEntity
  8
1
390
0
  6
Continuous
 62
     7
100
AcDbLine
 10
165.483259
 20
117.43331
 30
0.0
 11
165.403259
 21
117.43331
 31
0.0
  0
LINE
  5
34E
100
AcDbEntity
  8
1
390
0
  6
Continuous
 62
     7
100
AcDbLine
 10
164.763259
 20
117.43331
 30
0.0
 11
164.683259
 21
117.43331
 31
0.0
  0
LINE
  5
34F
100
AcDbEntity
  8
1
390
0
  6
Continuous
 62
     7
100
AcDbLine
 10
293.120145
 20
108.69331
 30
0.0
 11
293.120145
 21
115.93331
 31
0.0
  0
LINE
  5
350
100
AcDbEntity
  8
1
390
0
  6
Continuous
 62
     7
100
AcDbLine
 10
288.820145
 20
108.69331
 30
0.0
 11
288.820145
 21
115.93331
 31
0.0
  0
LINE
  5
351
100
AcDbEntity
  8
1
390
0
  6
Continuous
 62
     7
100
AcDbLine
 10
293.120145
 20
115.93331
 30
0.0
 11
293.120145
 21
123.17331
 31
0.0
  0
LINE
  5
352
100
AcDbEntity
  8
1
390
0
  6
Continuous
 62
     7
100
AcDbLine
 10
288.820145
 20
115.93331
 30
0.0
 11
288.820145
 21
123.17331
 31
0.0
  0
LINE
  5
353
100
AcDbEntity
  8
1
390
0
  6
Continuous
 62
     7
100
AcDbLine
 10
287.120145
 20
109.81331
 30
0.0
 11
287.120145
 21
115.93331
 31
0.0
  0
LINE
  5
354
100
AcDbEntity
  8
1
390
0
  6
Continuous
 62
     7
100
AcDbLine
 10
287.120145
 20
115.93331
 30
0.0
 11
287.120145
 21
122.05331
 31
0.0
  0
LINE
  5
355
100
AcDbEntity
  8
1
390
0
  6
Continuous
 62
     7
100
AcDbLine
 10
293.920145
 20
109.01331
 30
0.0
 11
293.920145
 21
115.93331
 31
0.0
  0
LINE
  5
356
100
AcDbEntity
  8
1
390
0
  6
Continuous
 62
     7
100
AcDbLine
 10
293.920145
 20
115.93331
 30
0.0
 11
293.920145
 21
122.85331
 31
0.0
  0
LINE
  5
357
100
AcDbEntity
  8
1
390
0
  6
Continuous
 62
     7
100
AcDbLine
 10
301.920145
 20
109.01331
 30
0.0
 11
301.920145
 21
115.93331
 31
0.0
  0
LINE
  5
358
100
AcDbEntity
  8
1
390
0
  6
Continuous
 62
     7
100
AcDbLine
 10
299.920145
 20
109.01331
 30
0.0
 11
299.920145
 21
115.93331
 31
0.0
  0
LINE
  5
359
100
AcDbEntity
  8
1
390
0
  6
Continuous
 62
     7
100
AcDbLine
 10
301.920145
 20
115.93331
 30
0.0
 11
301.920145
 21
122.85331
 31
0.0
  0
LINE
  5
35A
100
AcDbEntity
  8
1
390
0
  6
Continuous
 62
     7
100
AcDbLine
 10
299.920145
 20
115.93331
 30
0.0
 11
299.920145
 21
122.85331
 31
0.0
  0
LINE
  5
35B
100
AcDbEntity
  8
1
390
0
  6
Continuous
 62
     7
100
AcDbLine
 10
299.720145
 20
109.21331
 30
0.0
 11
299.720145
 21
115.93331
 31
0.0
  0
LINE
  5
35C
100
AcDbEntity
  8
1
390
0
  6
Continuous
 62
     7
100
AcDbLine
 10
299.720145
 20
115.93331
 30
0.0
 11
299.720145
 21
122.65331
 31
0.0
  0
LINE
  5
35D
100
AcDbEntity
  8
1
390
0
  6
Continuous
 62
     7
100
AcDbLine
 10
302.120145
 20
109.21331
 30
0.0
 11
302.120145
 21
115.93331
 31
0.0
  0
LINE
  5
35E
100
AcDbEntity
  8
1
390
0
  6
Continuous
 62
     7
100
AcDbLine
 10
302.120145
 20
115.93331
 30
0.0
 11
302.120145
 21
122.65331
 31
0.0
  0
LINE
  5
35F
100
AcDbEntity
  8
1
390
0
  6
Continuous
 62
     7
100
AcDbLine
 10
298.323306
 20
114.498285
 30
0.0
 11
299.720145
 21
114.498285
 31
0.0
  0
ARC
  5
360
100
AcDbEntity
  8
1
390
0
  6
Continuous
 62
     7
100
AcDbCircle
 10
235.913287
 20
99.847224
 30
0.0
 40
64.071088
210
0.0
220
0.0
230
1.0
100
AcDbArc
 50
14.51997
 51
17.555899
  0
POLYLINE
  5
361
100
AcDbEntity
  8
1
390
0
  6
Continuous
 62
     7
100
AcDb2dPolyline
 66
     1
 10
0.0
 20
0.0
 30
0.0
 40
1.0
 41
1.0
  0
VERTEX
  5
362
100
AcDbEntity
  8
1
390
0
 62
     7
100
AcDbVertex
100
AcDb2dVertex
 10
294.528334
 20
119.441612
 30
0.0
  0
VERTEX
  5
363
100
AcDbEntity
  8
1
390
0
 62
     7
100
AcDbVertex
100
AcDb2dVertex
 10
294.491149
 20
119.491968
 30
0.0
  0
VERTEX
  5
364
100
AcDbEntity
  8
1
390
0
 62
     7
100
AcDbVertex
100
AcDb2dVertex
 10
294.457203
 20
119.542891
 30
0.0
  0
VERTEX
  5
365
100
AcDbEntity
  8
1
390
0
 62
     7
100
AcDbVertex
100
AcDb2dVertex
 10
294.426494
 20
119.594344
 30
0.0
  0
VERTEX
  5
366
100
AcDbEntity
  8
1
390
0
 62
     7
100
AcDbVertex
100
AcDb2dVertex
 10
294.399024
 20
119.646287
 30
0.0
  0
VERTEX
  5
367
100
AcDbEntity
  8
1
390
0
 62
     7
100
AcDbVertex
100
AcDb2dVertex
 10
294.374791
 20
119.698679
 30
0.0
  0
VERTEX
  5
368
100
AcDbEntity
  8
1
390
0
 62
     7
100
AcDbVertex
100
AcDb2dVertex
 10
294.353797
 20
119.751477
 30
0.0
  0
VERTEX
  5
369
100
AcDbEntity
  8
1
390
0
 62
     7
100
AcDbVertex
100
AcDb2dVertex
 10
294.336183
 20
119.804257
 30
0.0
  0
VERTEX
  5
36A
100
AcDbEntity
  8
1
390
0
 62
     7
100
AcDbVertex
100
AcDb2dVertex
 10
294.322061
 20
119.856693
 30
0.0
  0
VERTEX
  5
36B
100
AcDbEntity
  8
1
390
0
 62
     7
100
AcDbVertex
100
AcDb2dVertex
 10
294.311433
 20
119.908764
 30
0.0
  0
VERTEX
  5
36C
100
AcDbEntity
  8
1
390
0
 62
     7
100
AcDbVertex
100
AcDb2dVertex
 10
294.304298
 20
119.960449
 30
0.0
  0
VERTEX
  5
36D
100
AcDbEntity
  8
1
390
0
 62
     7
100
AcDbVertex
100
AcDb2dVertex
 10
294.300655
 20
120.011726
 30
0.0
  0
VERTEX
  5
36E
100
AcDbEntity
  8
1
390
0
 62
     7
100
AcDbVertex
100
AcDb2dVertex
 10
294.30014
 20
120.0393
 30
0.0
  0
SEQEND
  5
36F
100
AcDbEntity
  8
0
390
0
  0
ARC
  5
370
100
AcDbEntity
  8
1
390
0
  6
Continuous
 62
     7
100
AcDbCircle
 10
346.973699
 20
129.046788
 30
0.0
 40
53.068621
210
0.0
220
0.0
230
1.0
100
AcDbArc
 50
194.305517
 51
198.379074
  0
LINE
  5
371
100
AcDbEntity
  8
1
390
0
  6
Continuous
 62
     7
100
AcDbLine
 10
299.720145
 20
112.314121
 30
0.0
 11
296.612044
 21
112.314121
 31
0.0
  0
ARC
  5
372
100
AcDbEntity
  8
1
390
0
  6
Continuous
 62
     7
100
AcDbCircle
 10
240.511848
 20
101.795871
 30
0.0
 40
56.825636
210
0.0
220
0.0
230
1.0
100
AcDbArc
 50
14.406358
 51
18.09083
  0
ARC
  5
373
100
AcDbEntity
  8
1
390
0
  6
Continuous
 62
     7
100
AcDbCircle
 10
337.866864
 20
128.040606
 30
0.0
 40
44.014047
210
0.0
220
0.0
230
0.9999999999999999
100
AcDbArc
 50
195.965923
 51
200.395345
  0
LINE
  5
374
100
AcDbEntity
  8
1
390
0
  6
Continuous
 62
     7
100
AcDbLine
 10
296.612044
 20
112.701891
 30
0.0
 11
296.612044
 21
112.314121
 31
0.0
  0
ARC
  5
375
100
AcDbEntity
  8
1
390
0
  6
Continuous
 62
     7
100
AcDbCircle
 10
464.377442
 20
160.552272
 30
0.0
 40
172.322215
210
0.0
220
0.0
230
1.0
100
AcDbArc
 50
195.014127
 51
195.500993
  0
ARC
  5
376
100
AcDbEntity
  8
1
390
0
  6
Continuous
 62
     7
100
AcDbCircle
 10
247.688874
 20
101.348285
 30
0.0
 40
52.317109
210
0.0
220
0.0
230
1.0
100
AcDbArc
 50
16.195818
 51
19.516421
  0
LINE
  5
377
100
AcDbEntity
  8
1
390
0
  6
Continuous
 62
     7
100
AcDbLine
 10
297.000145
 20
118.826228
 30
0.0
 11
297.000145
 21
119.173378
 31
0.0
  0
LINE
  5
378
100
AcDbEntity
  8
1
390
0
  6
Continuous
 62
     7
100
AcDbLine
 10
299.720145
 20
112.701891
 30
0.0
 11
296.612044
 21
112.701891
 31
0.0
  0
LINE
  5
379
100
AcDbEntity
  8
1
390
0
  6
Continuous
 62
     7
100
AcDbLine
 10
286.620145
 20
111.18331
 30
0.0
 11
286.620145
 21
115.93331
 31
0.0
  0
LINE
  5
37A
100
AcDbEntity
  8
1
390
0
  6
Continuous
 62
     7
100
AcDbLine
 10
286.320145
 20
111.48331
 30
0.0
 11
286.320145
 21
115.93331
 31
0.0
  0
LINE
  5
37B
100
AcDbEntity
  8
1
390
0
  6
Continuous
 62
     7
100
AcDbLine
 10
286.620145
 20
115.93331
 30
0.0
 11
286.620145
 21
120.68331
 31
0.0
  0
LINE
  5
37C
100
AcDbEntity
  8
1
390
0
  6
Continuous
 62
     7
100
AcDbLine
 10
286.320145
 20
115.93331
 30
0.0
 11
286.320145
 21
120.38331
 31
0.0
  0
POLYLINE
  5
37D
100
AcDbEntity
  8
1
390
0
  6
Continuous
 62
     7
100
AcDb2dPolyline
 66
     1
 10
0.0
 20
0.0
 30
0.0
 40
1.0
 41
1.0
  0
VERTEX
  5
37E
100
AcDbEntity
  8
1
390
0
 62
     7
100
AcDbVertex
100
AcDb2dVertex
 10
297.500158
 20
120.038995
 30
0.0
  0
VERTEX
  5
37F
100
AcDbEntity
  8
1
390
0
 62
     7
100
AcDbVertex
100
AcDb2dVertex
 10
297.490485
 20
119.918633
 30
0.0
  0
VERTEX
  5
380
100
AcDbEntity
  8
1
390
0
 62
     7
100
AcDbVertex
100
AcDb2dVertex
 10
297.467031
 20
119.814198
 30
0.0
  0
VERTEX
  5
381
100
AcDbEntity
  8
1
390
0
 62
     7
100
AcDbVertex
100
AcDb2dVertex
 10
297.429716
 20
119.708602
 30
0.0
  0
VERTEX
  5
382
100
AcDbEntity
  8
1
390
0
 62
     7
100
AcDbVertex
100
AcDb2dVertex
 10
297.379267
 20
119.604174
 30
0.0
 42
-0.103643
  0
VERTEX
  5
383
100
AcDbEntity
  8
1
390
0
 62
     7
100
AcDbVertex
100
AcDb2dVertex
 10
297.000145
 20
119.173378
 30
0.0
  0
SEQEND
  5
384
100
AcDbEntity
  8
0
390
0
  0
POLYLINE
  5
385
100
AcDbEntity
  8
1
390
0
  6
Continuous
 62
     7
100
AcDb2dPolyline
 66
     1
 10
0.0
 20
0.0
 30
0.0
 40
1.0
 41
1.0
  0
VERTEX
  5
386
100
AcDbEntity
  8
1
390
0
 62
     7
100
AcDbVertex
100
AcDb2dVertex
 10
294.30014
 20
120.0393
 30
0.0
  0
VERTEX
  5
387
100
AcDbEntity
  8
1
390
0
 62
     7
100
AcDbVertex
100
AcDb2dVertex
 10
294.310647
 20
120.161521
 30
0.0
  0
VERTEX
  5
388
100
AcDbEntity
  8
1
390
0
 62
     7
100
AcDbVertex
100
AcDb2dVertex
 10
294.351927
 20
120.301746
 30
0.0
  0
VERTEX
  5
389
100
AcDbEntity
  8
1
390
0
 62
     7
100
AcDbVertex
100
AcDb2dVertex
 10
294.423865
 20
120.431155
 30
0.0
  0
VERTEX
  5
38A
100
AcDbEntity
  8
1
390
0
 62
     7
100
AcDbVertex
100
AcDb2dVertex
 10
294.487832
 20
120.509733
 30
0.0
  0
VERTEX
  5
38B
100
AcDbEntity
  8
1
390
0
 62
     7
100
AcDbVertex
100
AcDb2dVertex
 10
294.564538
 20
120.582373
 30
0.0
  0
VERTEX
  5
38C
100
AcDbEntity
  8
1
390
0
 62
     7
100
AcDbVertex
100
AcDb2dVertex
 10
294.652833
 20
120.648431
 30
0.0
 42
-0.2509
  0
VERTEX
  5
38D
100
AcDbEntity
  8
1
390
0
 62
     7
100
AcDbVertex
100
AcDb2dVertex
 10
297.227932
 20
120.588866
 30
0.0
  0
VERTEX
  5
38E
100
AcDbEntity
  8
1
390
0
 62
     7
100
AcDbVertex
100
AcDb2dVertex
 10
297.305734
 20
120.516881
 30
0.0
  0
VERTEX
  5
38F
100
AcDbEntity
  8
1
390
0
 62
     7
100
AcDbVertex
100
AcDb2dVertex
 10
297.370888
 20
120.438879
 30
0.0
  0
VERTEX
  5
390
100
AcDbEntity
  8
1
390
0
 62
     7
100
AcDbVertex
100
AcDb2dVertex
 10
297.444732
 20
120.310244
 30
0.0
  0
VERTEX
  5
391
100
AcDbEntity
  8
1
390
0
 62
     7
100
AcDbVertex
100
AcDb2dVertex
 10
297.487946
 20
120.170691
 30
0.0
  0
VERTEX
  5
392
100
AcDbEntity
  8
1
390
0
 62
     7
100
AcDbVertex
100
AcDb2dVertex
 10
297.500158
 20
120.038995
 30
0.0
  0
SEQEND
  5
393
100
AcDbEntity
  8
0
390
0
  0
POLYLINE
  5
394
100
AcDbEntity
  8
1
390
0
  6
Continuous
 62
     7
100
AcDb2dPolyline
 66
     1
 10
0.0
 20
0.0
 30
0.0
 40
1.0
 41
1.0
  0
VERTEX
  5
395
100
AcDbEntity
  8
1
390
0
 62
     7
100
AcDbVertex
100
AcDb2dVertex
 10
294.33739
 20
119.799961
 30
0.0
  0
VERTEX
  5
396
100
AcDbEntity
  8
1
390
0
 62
     7
100
AcDbVertex
100
AcDb2dVertex
 10
294.393245
 20
119.906975
 30
0.0
  0
VERTEX
  5
397
100
AcDbEntity
  8
1
390
0
 62
     7
100
AcDbVertex
100
AcDb2dVertex
 10
294.469173
 20
120.000822
 30
0.0
  0
VERTEX
  5
398
100
AcDbEntity
  8
1
390
0
 62
     7
100
AcDbVertex
100
AcDb2dVertex
 10
294.545159
 20
120.069265
 30
0.0
  0
VERTEX
  5
399
100
AcDbEntity
  8
1
390
0
 62
     7
100
AcDbVertex
100
AcDb2dVertex
 10
294.632743
 20
120.130947
 30
0.0
 42
-0.221021
  0
VERTEX
  5
39A
100
AcDbEntity
  8
1
390
0
 62
     7
100
AcDbVertex
100
AcDb2dVertex
 10
297.195533
 20
120.112802
 30
0.0
  0
VERTEX
  5
39B
100
AcDbEntity
  8
1
390
0
 62
     7
100
AcDbVertex
100
AcDb2dVertex
 10
297.307578
 20
120.024046
 30
0.0
  0
VERTEX
  5
39C
100
AcDbEntity
  8
1
390
0
 62
     7
100
AcDbVertex
100
AcDb2dVertex
 10
297.399185
 20
119.91852
 30
0.0
  0
VERTEX
  5
39D
100
AcDbEntity
  8
1
390
0
 62
     7
100
AcDbVertex
100
AcDb2dVertex
 10
297.457287
 20
119.813708
 30
0.0
  0
VERTEX
  5
39E
100
AcDbEntity
  8
1
390
0
 62
     7
100
AcDbVertex
100
AcDb2dVertex
 10
297.462806
 20
119.800219
 30
0.0
  0
SEQEND
  5
39F
100
AcDbEntity
  8
0
390
0
  0
LINE
  5
3A0
100
AcDbEntity
  8
1
390
0
  6
Continuous
 62
     7
100
AcDbLine
 10
288.820145
 20
108.69331
 30
0.0
 11
293.120145
 21
108.69331
 31
0.0
  0
LINE
  5
3A1
100
AcDbEntity
  8
1
390
0
  6
Continuous
 62
     7
100
AcDbLine
 10
293.120145
 20
123.17331
 30
0.0
 11
288.820145
 21
123.17331
 31
0.0
  0
ARC
  5
3A2
100
AcDbEntity
  8
1
390
0
  6
Continuous
 62
     7
100
AcDbCircle
 10
287.920145
 20
109.81331
 30
0.0
 40
0.8
210
0.0
220
0.0
230
1.0
100
AcDbArc
 50
180.0
 51
270.0
  0
ARC
  5
3A3
100
AcDbEntity
  8
1
390
0
  6
Continuous
 62
     7
100
AcDbCircle
 10
287.920145
 20
122.05331
 30
0.0
 40
0.8
210
0.0
220
0.0
230
1.0
100
AcDbArc
 50
90.0
 51
180.0
  0
LINE
  5
3A4
100
AcDbEntity
  8
1
390
0
  6
Continuous
 62
     7
100
AcDbLine
 10
287.920145
 20
109.01331
 30
0.0
 11
288.820145
 21
109.01331
 31
0.0
  0
LINE
  5
3A5
100
AcDbEntity
  8
1
390
0
  6
Continuous
 62
     7
100
AcDbLine
 10
288.820145
 20
122.85331
 30
0.0
 11
287.920145
 21
122.85331
 31
0.0
  0
LINE
  5
3A6
100
AcDbEntity
  8
1
390
0
  6
Continuous
 62
     7
100
AcDbLine
 10
293.120145
 20
109.01331
 30
0.0
 11
293.920145
 21
109.01331
 31
0.0
  0
LINE
  5
3A7
100
AcDbEntity
  8
1
390
0
  6
Continuous
 62
     7
100
AcDbLine
 10
293.920145
 20
122.85331
 30
0.0
 11
293.120145
 21
122.85331
 31
0.0
  0
LINE
  5
3A8
100
AcDbEntity
  8
1
390
0
  6
Continuous
 62
     7
100
AcDbLine
 10
299.920145
 20
109.01331
 30
0.0
 11
301.920145
 21
109.01331
 31
0.0
  0
LINE
  5
3A9
100
AcDbEntity
  8
1
390
0
  6
Continuous
 62
     7
100
AcDbLine
 10
301.920145
 20
122.85331
 30
0.0
 11
299.920145
 21
122.85331
 31
0.0
  0
LINE
  5
3AA
100
AcDbEntity
  8
1
390
0
  6
Continuous
 62
     7
100
AcDbLine
 10
299.920145
 20
122.85331
 30
0.0
 11
299.720145
 21
122.65331
 31
0.0
  0
LINE
  5
3AB
100
AcDbEntity
  8
1
390
0
  6
Continuous
 62
     7
100
AcDbLine
 10
299.720145
 20
109.21331
 30
0.0
 11
299.920145
 21
109.01331
 31
0.0
  0
LINE
  5
3AC
100
AcDbEntity
  8
1
390
0
  6
Continuous
 62
     7
100
AcDbLine
 10
301.920145
 20
109.01331
 30
0.0
 11
302.120145
 21
109.21331
 31
0.0
  0
LINE
  5
3AD
100
AcDbEntity
  8
1
390
0
  6
Continuous
 62
     7
100
AcDbLine
 10
302.120145
 20
122.65331
 30
0.0
 11
301.920145
 21
122.85331
 31
0.0
  0
LINE
  5
3AE
100
AcDbEntity
  8
1
390
0
  6
Continuous
 62
     7
100
AcDbLine
 10
293.920145
 20
110.33331
 30
0.0
 11
299.720145
 21
110.33331
 31
0.0
  0
LINE
  5
3AF
100
AcDbEntity
  8
1
390
0
  6
Continuous
 62
     7
100
AcDbLine
 10
299.720145
 20
121.53331
 30
0.0
 11
293.920145
 21
121.53331
 31
0.0
  0
LINE
  5
3B0
100
AcDbEntity
  8
1
390
0
  6
Continuous
 62
     7
100
AcDbLine
 10
286.620145
 20
120.68331
 30
0.0
 11
286.320145
 21
120.38331
 31
0.0
  0
LINE
  5
3B1
100
AcDbEntity
  8
1
390
0
  6
Continuous
 62
     7
100
AcDbLine
 10
286.320145
 20
111.48331
 30
0.0
 11
286.620145
 21
111.18331
 31
0.0
  0
LINE
  5
3B2
100
AcDbEntity
  8
1
390
0
  6
Continuous
 62
     7
100
AcDbLine
 10
286.620145
 20
111.18331
 30
0.0
 11
287.120145
 21
111.18331
 31
0.0
  0
LINE
  5
3B3
100
AcDbEntity
  8
1
390
0
  6
Continuous
 62
     7
100
AcDbLine
 10
287.120145
 20
120.68331
 30
0.0
 11
286.620145
 21
120.68331
 31
0.0
  0
LINE
  5
3B4
100
AcDbEntity
  8
1
390
0
  6
Continuous
 62
     7
100
AcDbLine
 10
297.421795
 20
119.88331
 30
0.0
 11
294.378558
 21
119.88331
 31
0.0
  0
LINE
  5
3B5
100
AcDbEntity
  8
1
390
0
  6
Continuous
 62
     7
100
AcDbLine
 10
286.320145
 20
116.83331
 30
0.0
 11
224.939811
 21
116.83331
 31
0.0
  0
LINE
  5
3B6
100
AcDbEntity
  8
1
390
0
  6
Continuous
 62
     7
100
AcDbLine
 10
223.878272
 20
115.03331
 30
0.0
 11
286.320145
 21
115.03331
 31
0.0
  0
LINE
  5
3B7
100
AcDbEntity
  8
1
390
0
  6
Continuous
 62
     9
100
AcDbLine
 10
216.258151
 20
110.590495
 30
0.0
 11
221.857414
 21
120.084897
 31
0.0
  0
LINE
  5
3B8
100
AcDbEntity
  8
1
390
0
  6
Continuous
 62
     9
100
AcDbLine
 10
221.258151
 20
110.590495
 30
0.0
 11
226.857414
 21
120.084897
 31
0.0
  0
LINE
  5
3B9
100
AcDbEntity
  8
1
390
0
  6
CENTER
 62
     1
100
AcDbLine
 10
304.337611
 20
115.93331
 30
0.0
 11
161.569488
 21
115.93331
 31
0.0
  0
POINT
  5
3BA
100
AcDbEntity
  8
5
390
0
 62
     9
100
AcDbPoint
 10
304.337611
 20
189.524041
 30
0.0
  0
POINT
  5
3BB
100
AcDbEntity
  8
5
390
0
 62
     9
100
AcDbPoint
 10
161.569488
 20
189.524041
 30
0.0
  0
LINE
  5
3BC
100
AcDbEntity
  8
1
390
0
  6
CENTER
 62
     1
100
AcDbLine
 10
106.845322
 20
189.524041
 30
0.0
 11
121.725322
 21
189.524041
 31
0.0
  0
LINE
  5
3BD
100
AcDbEntity
  8
1
390
0
  6
CENTER
 62
     1
100
AcDbLine
 10
114.285322
 20
182.084041
 30
0.0
 11
114.285322
 21
196.964041
 31
0.0
  0
INSERT
  5
3D0
100
AcDbEntity
  8
1
390
0
100
AcDbBlockReference
  2
AID1851
 10
0.0
 20
0.0
 30
0.0
  0
INSERT
  5
3E1
100
AcDbEntity
  8
1
390
0
100
AcDbBlockReference
  2
AID1860
 10
0.0
 20
0.0
 30
0.0
  0
INSERT
  5
3F5
100
AcDbEntity
  8
1
390
0
100
AcDbBlockReference
  2
AID1867
 10
0.0
 20
0.0
 30
0.0
  0
INSERT
  5
407
100
AcDbEntity
  8
1
390
0
100
AcDbBlockReference
  2
AID1877
 10
0.0
 20
0.0
 30
0.0
  0
INSERT
  5
417
100
AcDbEntity
  8
1
390
0
100
AcDbBlockReference
  2
AID1885
 10
0.0
 20
0.0
 30
0.0
  0
INSERT
  5
425
100
AcDbEntity
  8
1
390
0
100
AcDbBlockReference
  2
AID1895
 10
0.0
 20
0.0
 30
0.0
  0
INSERT
  5
439
100
AcDbEntity
  8
1
390
0
100
AcDbBlockReference
  2
AID1903
 10
0.0
 20
0.0
 30
0.0
  0
INSERT
  5
44C
100
AcDbEntity
  8
1
390
0
100
AcDbBlockReference
  2
AID1913
 10
0.0
 20
0.0
 30
0.0
  0
INSERT
  5
461
100
AcDbEntity
  8
1
390
0
100
AcDbBlockReference
  2
AID1922
 10
0.0
 20
0.0
 30
0.0
  0
INSERT
  5
474
100
AcDbEntity
  8
1
390
0
100
AcDbBlockReference
  2
AID1933
 10
0.0
 20
0.0
 30
0.0
  0
LINE
  5
475
100
AcDbEntity
  8
1
390
0
  6
Continuous
 62
     9
100
AcDbLine
 10
193.783259
 20
191.774041
 30
0.0
 11
191.283259
 21
191.774041
 31
0.0
  0
LINE
  5
476
100
AcDbEntity
  8
1
390
0
  6
Continuous
 62
     9
100
AcDbLine
 10
191.283259
 20
187.274041
 30
0.0
 11
193.783259
 21
187.274041
 31
0.0
  0
POINT
  5
477
100
AcDbEntity
  8
5
390
0
 62
     9
100
AcDbPoint
 10
175.283259
 20
190.823079
 30
0.0
  0
POINT
  5
478
100
AcDbEntity
  8
5
390
0
 62
     9
100
AcDbPoint
 10
176.583259
 20
188.225003
 30
0.0
  0
LINE
  5
479
100
AcDbEntity
  8
1
390
0
  6
Continuous
 62
     9
100
AcDbLine
 10
175.283259
 20
190.823079
 30
0.0
 11
176.583259
 21
188.225003
 31
0.0
  0
POLYLINE
  5
47A
100
AcDbEntity
  8
1
390
0
  6
Continuous
 62
     9
100
AcDb3dPolyline
 66
     1
 10
0.0
 20
0.0
 30
0.0
 70
     8
 40
1.0
 41
1.0
  0
VERTEX
  5
47B
100
AcDbEntity
  8
1
390
0
 62
     9
100
AcDbVertex
100
AcDb3dPolylineVertex
 10
175.283259
 20
190.823079
 30
0.0
 70
    32
  0
VERTEX
  5
47C
100
AcDbEntity
  8
1
390
0
 62
     9
100
AcDbVertex
100
AcDb3dPolylineVertex
 10
176.583259
 20
188.225003
 30
0.0
 70
    32
  0
SEQEND
  5
47D
100
AcDbEntity
  8
0
390
0
  0
POINT
  5
47E
100
AcDbEntity
  8
5
390
0
 62
     9
100
AcDbPoint
 10
175.283259
 20
188.225003
 30
0.0
  0
POINT
  5
47F
100
AcDbEntity
  8
5
390
0
 62
     9
100
AcDbPoint
 10
176.583259
 20
190.823079
 30
0.0
  0
LINE
  5
480
100
AcDbEntity
  8
1
390
0
  6
Continuous
 62
     9
100
AcDbLine
 10
175.283259
 20
188.225003
 30
0.0
 11
176.583259
 21
190.823079
 31
0.0
  0
POLYLINE
  5
481
100
AcDbEntity
  8
1
390
0
  6
Continuous
 62
     9
100
AcDb3dPolyline
 66
     1
 10
0.0
 20
0.0
 30
0.0
 70
     8
 40
1.0
 41
1.0
  0
VERTEX
  5
482
100
AcDbEntity
  8
1
390
0
 62
     9
100
AcDbVertex
100
AcDb3dPolylineVertex
 10
175.283259
 20
188.225003
 30
0.0
 70
    32
  0
VERTEX
  5
483
100
AcDbEntity
  8
1
390
0
 62
     9
100
AcDbVertex
100
AcDb3dPolylineVertex
 10
176.583259
 20
190.823079
 30
0.0
 70
    32
  0
SEQEND
  5
484
100
AcDbEntity
  8
0
390
0
  0
POINT
  5
485
100
AcDbEntity
  8
5
390
0
 62
     9
100
AcDbPoint
 10
177.383259
 20
190.613766
 30
0.0
  0
POINT
  5
486
100
AcDbEntity
  8
5
390
0
 62
     9
100
AcDbPoint
 10
178.783259
 20
188.434316
 30
0.0
  0
LINE
  5
487
100
AcDbEntity
  8
1
390
0
  6
Continuous
 62
     9
100
AcDbLine
 10
177.383259
 20
190.613766
 30
0.0
 11
178.783259
 21
188.434316
 31
0.0
  0
POLYLINE
  5
488
100
AcDbEntity
  8
1
390
0
  6
Continuous
 62
     9
100
AcDb3dPolyline
 66
     1
 10
0.0
 20
0.0
 30
0.0
 70
     8
 40
1.0
 41
1.0
  0
VERTEX
  5
489
100
AcDbEntity
  8
1
390
0
 62
     9
100
AcDbVertex
100
AcDb3dPolylineVertex
 10
177.383259
 20
190.613766
 30
0.0
 70
    32
  0
VERTEX
  5
48A
100
AcDbEntity
  8
1
390
0
 62
     9
100
AcDbVertex
100
AcDb3dPolylineVertex
 10
178.783259
 20
188.434316
 30
0.0
 70
    32
  0
SEQEND
  5
48B
100
AcDbEntity
  8
0
390
0
  0
POINT
  5
48C
100
AcDbEntity
  8
5
390
0
 62
     9
100
AcDbPoint
 10
177.383259
 20
188.434316
 30
0.0
  0
POINT
  5
48D
100
AcDbEntity
  8
5
390
0
 62
     9
100
AcDbPoint
 10
178.783259
 20
190.613766
 30
0.0
  0
LINE
  5
48E
100
AcDbEntity
  8
1
390
0
  6
Continuous
 62
     9
100
AcDbLine
 10
177.383259
 20
188.434316
 30
0.0
 11
178.783259
 21
190.613766
 31
0.0
  0
POLYLINE
  5
48F
100
AcDbEntity
  8
1
390
0
  6
Continuous
 62
     9
100
AcDb3dPolyline
 66
     1
 10
0.0
 20
0.0
 30
0.0
 70
     8
 40
1.0
 41
1.0
  0
VERTEX
  5
490
100
AcDbEntity
  8
1
390
0
 62
     9
100
AcDbVertex
100
AcDb3dPolylineVertex
 10
177.383259
 20
188.434316
 30
0.0
 70
    32
  0
VERTEX
  5
491
100
AcDbEntity
  8
1
390
0
 62
     9
100
AcDbVertex
100
AcDb3dPolylineVertex
 10
178.783259
 20
190.613766
 30
0.0
 70
    32
  0
SEQEND
  5
492
100
AcDbEntity
  8
0
390
0
  0
POINT
  5
493
100
AcDbEntity
  8
5
390
0
 62
     9
100
AcDbPoint
 10
184.383259
 20
190.613766
 30
0.0
  0
POINT
  5
494
100
AcDbEntity
  8
5
390
0
 62
     9
100
AcDbPoint
 10
186.383259
 20
188.434316
 30
0.0
  0
LINE
  5
495
100
AcDbEntity
  8
1
390
0
  6
Continuous
 62
     9
100
AcDbLine
 10
184.383259
 20
190.613766
 30
0.0
 11
186.383259
 21
188.434316
 31
0.0
  0
POLYLINE
  5
496
100
AcDbEntity
  8
1
390
0
  6
Continuous
 62
     9
100
AcDb3dPolyline
 66
     1
 10
0.0
 20
0.0
 30
0.0
 70
     8
 40
1.0
 41
1.0
  0
VERTEX
  5
497
100
AcDbEntity
  8
1
390
0
 62
     9
100
AcDbVertex
100
AcDb3dPolylineVertex
 10
184.383259
 20
190.613766
 30
0.0
 70
    32
  0
VERTEX
  5
498
100
AcDbEntity
  8
1
390
0
 62
     9
100
AcDbVertex
100
AcDb3dPolylineVertex
 10
186.383259
 20
188.434316
 30
0.0
 70
    32
  0
SEQEND
  5
499
100
AcDbEntity
  8
0
390
0
  0
POINT
  5
49A
100
AcDbEntity
  8
5
390
0
 62
     9
100
AcDbPoint
 10
184.383259
 20
188.434316
 30
0.0
  0
POINT
  5
49B
100
AcDbEntity
  8
5
390
0
 62
     9
100
AcDbPoint
 10
186.383259
 20
190.613766
 30
0.0
  0
LINE
  5
49C
100
AcDbEntity
  8
1
390
0
  6
Continuous
 62
     9
100
AcDbLine
 10
184.383259
 20
188.434316
 30
0.0
 11
186.383259
 21
190.613766
 31
0.0
  0
POLYLINE
  5
49D
100
AcDbEntity
  8
1
390
0
  6
Continuous
 62
     9
100
AcDb3dPolyline
 66
     1
 10
0.0
 20
0.0
 30
0.0
 70
     8
 40
1.0
 41
1.0
  0
VERTEX
  5
49E
100
AcDbEntity
  8
1
390
0
 62
     9
100
AcDbVertex
100
AcDb3dPolylineVertex
 10
184.383259
 20
188.434316
 30
0.0
 70
    32
  0
VERTEX
  5
49F
100
AcDbEntity
  8
1
390
0
 62
     9
100
AcDbVertex
100
AcDb3dPolylineVertex
 10
186.383259
 20
190.613766
 30
0.0
 70
    32
  0
SEQEND
  5
4A0
100
AcDbEntity
  8
0
390
0
  0
INSERT
  5
4AC
100
AcDbEntity
  8
1
390
0
100
AcDbBlockReference
  2
AID1986
 10
0.0
 20
0.0
 30
0.0
  0
LINE
  5
4AD
100
AcDbEntity
  8
1
390
0
  6
Continuous
 62
     9
100
AcDbLine
 10
193.783259
 20
118.18331
 30
0.0
 11
191.283259
 21
118.18331
 31
0.0
  0
LINE
  5
4AE
100
AcDbEntity
  8
1
390
0
  6
Continuous
 62
     9
100
AcDbLine
 10
191.283259
 20
113.68331
 30
0.0
 11
193.783259
 21
113.68331
 31
0.0
  0
INSERT
  5
4B3
100
AcDbEntity
  8
1
390
0
100
AcDbBlockReference
  2
AID2004
 10
0.0
 20
0.0
 30
0.0
  0
INSERT
  5
4B8
100
AcDbEntity
  8
1
390
0
100
AcDbBlockReference
  2
AID2008
 10
0.0
 20
0.0
 30
0.0
  0
INSERT
  5
4BD
100
AcDbEntity
  8
1
390
0
100
AcDbBlockReference
  2
AID2012
 10
0.0
 20
0.0
 30
0.0
  0
ENDSEC
  0
SECTION
  2
OBJECTS
  0
DICTIONARY
  5
19
100
AcDbDictionary
280
     0
281
     1
  3
ACAD_GROUP
350
1A
  3
ACAD_MLINESTYLE
350
1B
  3
ACAD_LAYOUT
350
1E
  3
ACAD_PLOTSETTINGS
350
22
  3
ACAD_PLOTSTYLENAME
350
1F
  3
ACAD_WIPEOUT_VARS
350
23
  0
DICTIONARY
  5
1A
102
{ACAD_REACTORS
330
19
102
}
100
AcDbDictionary
280
     0
281
     1
  0
DICTIONARY
  5
1B
102
{ACAD_REACTORS
330
19
102
}
100
AcDbDictionary
280
     0
281
     1
  3
Standard
350
1C
  0
MLINESTYLE
  5
1C
102
{ACAD_REACTORS
330
1B
102
}
100
AcDbMlineStyle
  2
Standard
 70
     0
  3

 62
     0
 51
90.0
 52
90.0
 71
     2
 49
0.5
 62
   256
  6
ByLayer
 49
-0.5
 62
   256
  6
ByLayer
  0
ACDBDICTIONARYWDFLT
  5
1F
102
{ACAD_REACTORS
330
19
102
}
100
AcDbDictionary
281
     1
  3
Normal
350
1D
100
AcDbDictionaryWithDefault
340
1D
  0
ACDBPLACEHOLDER
  5
1D
102
{ACAD_REACTORS
330
1F
102
}
  0
LAYOUT
  5
20
102
{ACAD_REACTORS
330
1E
102
}
100
AcDbPlotSettings
  1

  2

  4

  6

 40
0.0
 41
0.0
 42
0.0
 43
0.0
 44
0.0
 45
0.0
 46
0.0
 47
0.0
 48
0.0
 49
0.0
140
0.0
141
0.0
142
1.0
143
1.0
 70
  1024
 72
     0
 73
     0
 74
     0
  7

 75
     0
147
1.0
148
0.0
149
0.0
100
AcDbLayout
  1
Model
 70
     0
 71
     0
 10
0.0
 20
0.0
 11
0.0
 21
0.0
 12
0.0
 22
0.0
 32
0.0
 14
0.0
 24
0.0
 34
0.0
 15
0.0
 25
0.0
 35
0.0
146
0.0
 13
0.0
 23
0.0
 33
0.0
 16
0.0
 26
0.0
 36
0.0
 17
0.0
 27
0.0
 37
0.0
 76
     0
330
A
331
0
345
0
346
0
  0
LAYOUT
  5
21
102
{ACAD_REACTORS
330
1E
102
}
100
AcDbPlotSettings
  1

  2

  4

  6

 40
0.0
 41
0.0
 42
0.0
 43
0.0
 44
0.0
 45
0.0
 46
0.0
 47
0.0
 48
0.0
 49
0.0
140
0.0
141
0.0
142
1.0
143
1.0
 70
     0
 72
     0
 73
     0
 74
     0
  7

 75
     0
147
1.0
148
0.0
149
0.0
100
AcDbLayout
  1
Layout1
 70
     0
 71
     0
 10
0.0
 20
0.0
 11
0.0
 21
0.0
 12
0.0
 22
0.0
 32
0.0
 14
0.0
 24
0.0
 34
0.0
 15
0.0
 25
0.0
 35
0.0
146
0.0
 13
0.0
 23
0.0
 33
0.0
 16
0.0
 26
0.0
 36
0.0
 17
0.0
 27
0.0
 37
0.0
 76
     0
330
B
331
0
345
0
346
0
  0
DICTIONARY
  5
1E
102
{ACAD_REACTORS
330
19
102
}
100
AcDbDictionary
280
     0
281
     1
  3
Layout1
350
21
  3
Model
350
20
  0
DICTIONARY
  5
22
102
{ACAD_REACTORS
330
19
102
}
100
AcDbDictionary
280
     0
281
     1
  0
WIPEOUTVARIABLES
  5
23
100
AcDbWipeoutVariables
 70
     1
  0
ENDSEC
  0
EOF
