  0
SECTION
  2
HEADER
  9
$ACADVER
  1
AC1015
  9
$ACADMAINTVER
 70
     6
  9
$DWGCODEPAGE
  3
DOS932
  9
$INSBASE
 10
0.0
 20
0.0
 30
0.0
  9
$EXTMIN
 10
-836.698904
 20
0.0
 30
0.0
  9
$EXTMAX
 10
1282.701096
 20
297.0
 30
5.0
  9
$LIMMIN
 10
-836.698904
 20
0.0
  9
$LIMMAX
 10
1282.701096
 20
297.0
  9
$ORTHOMODE
 70
     0
  9
$REGENMODE
 70
     1
  9
$FILLMODE
 70
     1
  9
$QTEXTMODE
 70
     0
  9
$MIRRTEXT
 70
     1
  9
$LTSCALE
 40
10.0
  9
$ATTMODE
 70
     1
  9
$TEXTSIZE
 40
0.2
  9
$TRACEWID
 40
0.05
  9
$TEXTSTYLE
  7
Standard
  9
$CLAYER
  8
0
  9
$CELTYPE
  6
Continuous
  9
$CECOLOR
 62
   256
  9
$CELTSCALE
 40
1.0
  9
$DISPSILH
 70
     0
  9
$DIMSCALE
 40
1.0
  9
$DIMASZ
 40
1.8
  9
$DIMEXO
 40
1.8
  9
$DIMDLI
 40
0.38
  9
$DIMRND
 40
0.0
  9
$DIMDLE
 40
0.0
  9
$DIMEXE
 40
1.8
  9
$DIMTP
 40
0.0
  9
$DIMTM
 40
0.0
  9
$DIMTXT
 40
6.0
  9
$DIMCEN
 40
0.09
  9
$DIMTSZ
 40
0.0
  9
$DIMTOL
 70
     0
  9
$DIMLIM
 70
     0
  9
$DIMTIH
 70
     0
  9
$DIMTOH
 70
     0
  9
$DIMSE1
 70
     0
  9
$DIMSE2
 70
     0
  9
$DIMTAD
 70
     1
  9
$DIMZIN
 70
     0
  9
$DIMBLK
  1

  9
$DIMASO
 70
     1
  9
$DIMSHO
 70
     1
  9
$DIMPOST
  1

  9
$DIMAPOST
  1

  9
$DIMALT
 70
     0
  9
$DIMALTD
 70
     2
  9
$DIMALTF
 40
25.4
  9
$DIMLFAC
 40
1.0
  9
$DIMTOFL
 70
     0
  9
$DIMTVP
 40
0.0
  9
$DIMTIX
 70
     0
  9
$DIMSOXD
 70
     0
  9
$DIMSAH
 70
     0
  9
$DIMBLK1
  1

  9
$DIMBLK2
  1

  9
$DIMSTYLE
  2
Standard
  9
$DIMCLRD
 70
     7
  9
$DIMCLRE
 70
     7
  9
$DIMCLRT
 70
     7
  9
$DIMTFAC
 40
0.7
  9
$DIMGAP
 40
1.2
  9
$DIMJUST
 70
     0
  9
$DIMSD1
 70
     0
  9
$DIMSD2
 70
     0
  9
$DIMTOLJ
 70
     1
  9
$DIMTZIN
 70
     0
  9
$DIMALTZ
 70
     0
  9
$DIMALTTZ
 70
     0
  9
$DIMUPT
 70
     0
  9
$DIMDEC
 70
     7
  9
$DIMTDEC
 70
     4
  9
$DIMALTU
 70
     2
  9
$DIMALTTD
 70
     2
  9
$DIMTXSTY
  7
Standard
  9
$DIMAUNIT
 70
     0
  9
$DIMADEC
 70
     0
  9
$DIMALTRND
 40
0.0
  9
$DIMAZIN
 70
     0
  9
$DIMDSEP
 70
     0
  9
$DIMATFIT
 70
     3
  9
$DIMFRAC
 70
     0
  9
$DIMLDRBLK
  1

  9
$DIMLUNIT
 70
     2
  9
$DIMLWD
 70
     0
  9
$DIMLWE
 70
     0
  9
$DIMTMOVE
 70
     0
  9
$LUNITS
 70
     2
  9
$LUPREC
 70
     4
  9
$SKETCHINC
 40
0.1
  9
$FILLETRAD
 40
0.0
  9
$AUNITS
 70
     0
  9
$AUPREC
 70
     0
  9
$MENU
  1
acad
  9
$ELEVATION
 40
0.0
  9
$PELEVATION
 40
0.0
  9
$THICKNESS
 40
0.0
  9
$LIMCHECK
 70
     0
  9
$CHAMFERA
 40
0.0
  9
$CHAMFERB
 40
0.0
  9
$CHAMFERC
 40
0.0
  9
$CHAMFERD
 40
0.0
  9
$SKPOLY
 70
     0
  9
$TDCREATE
 40
2459178.878252315
  9
$TDUCREATE
 40
0.000000000
  9
$TDUPDATE
 40
2459178.502662037
  9
$TDUUPDATE
 40
0.000000000
  9
$TDINDWG
 40
0.0000000000
  9
$TDUSRTIMER
 40
0.0000000000
  9
$USRTIMER
 70
     1
  9
$ANGBASE
 50
0.0
  9
$ANGDIR
 70
     0
  9
$PDMODE
 70
     0
  9
$PDSIZE
 40
0.0
  9
$PLINEWID
 40
0.0
  9
$SPLFRAME
 70
     0
  9
$SPLINETYPE
 70
     6
  9
$SPLINESEGS
 70
     8
  9
$HANDSEED
  5
477
  9
$SURFTAB1
 70
     6
  9
$SURFTAB2
 70
     6
  9
$SURFTYPE
 70
     6
  9
$SURFU
 70
     6
  9
$SURFV
 70
     6
  9
$UCSBASE
  2

  9
$UCSNAME
  2

  9
$UCSORG
 10
0.0
 20
0.0
 30
0.0
  9
$UCSXDIR
 10
1.0
 20
0.0
 30
0.0
  9
$UCSYDIR
 10
0.0
 20
1.0
 30
0.0
  9
$UCSORTHOREF
  2

  9
$UCSORTHOVIEW
 70
     0
  9
$UCSORGTOP
 10
0.0
 20
0.0
 30
0.0
  9
$UCSORGBOTTOM
 10
0.0
 20
0.0
 30
0.0
  9
$UCSORGLEFT
 10
0.0
 20
0.0
 30
0.0
  9
$UCSORGRIGHT
 10
0.0
 20
0.0
 30
0.0
  9
$UCSORGFRONT
 10
0.0
 20
0.0
 30
0.0
  9
$UCSORGBACK
 10
0.0
 20
0.0
 30
0.0
  9
$PUCSBASE
  2

  9
$PUCSNAME
  2

  9
$PUCSORG
 10
0.0
 20
0.0
 30
0.0
  9
$PUCSXDIR
 10
1.0
 20
0.0
 30
0.0
  9
$PUCSYDIR
 10
0.0
 20
1.0
 30
0.0
  9
$PUCSORTHOREF
  2

  9
$PUCSORTHOVIEW
 70
     0
  9
$PUCSORGTOP
 10
0.0
 20
0.0
 30
0.0
  9
$PUCSORGBOTTOM
 10
0.0
 20
0.0
 30
0.0
  9
$PUCSORGLEFT
 10
0.0
 20
0.0
 30
0.0
  9
$PUCSORGRIGHT
 10
0.0
 20
0.0
 30
0.0
  9
$PUCSORGFRONT
 10
0.0
 20
0.0
 30
0.0
  9
$PUCSORGBACK
 10
0.0
 20
0.0
 30
0.0
  9
$USERI1
 70
     0
  9
$USERI2
 70
     0
  9
$USERI3
 70
     0
  9
$USERI4
 70
     0
  9
$USERI5
 70
     0
  9
$USERR1
 40
0.0
  9
$USERR2
 40
0.0
  9
$USERR3
 40
0.0
  9
$USERR4
 40
0.0
  9
$USERR5
 40
0.0
  9
$WORLDVIEW
 70
     1
  9
$SHADEDGE
 70
     3
  9
$SHADEDIF
 70
    70
  9
$TILEMODE
 70
     1
  9
$MAXACTVP
 70
    16
  9
$PINSBASE
 10
0.0
 20
0.0
 30
0.0
  9
$PLIMCHECK
 70
     0
  9
$PEXTMIN
 10
1.000000E+20
 20
1.000000E+20
 30
1.000000E+20
  9
$PEXTMAX
 10
-1.000000E+20
 20
-1.000000E+20
 30
-1.000000E+20
  9
$PLIMMIN
 10
0.0
 20
0.0
  9
$PLIMMAX
 10
12.0
 20
9.0
  9
$UNITMODE
 70
     0
  9
$VISRETAIN
 70
     0
  9
$PLINEGEN
 70
     1
  9
$PSLTSCALE
 70
     0
  9
$TREEDEPTH
 70
  3020
  9
$CMLSTYLE
  2
Standard
  9
$CMLJUST
 70
     0
  9
$CMLSCALE
 40
1.0
  9
$PROXYGRAPHICS
 70
     0
  9
$MEASUREMENT
 70
     0
  9
$CELWEIGHT
370
     0
  9
$ENDCAPS
280
     0
  9
$JOINSTYLE
280
     0
  9
$LWDISPLAY
290
     0
  9
$INSUNITS
 70
     0
  9
$HYPERLINKBASE
  1

  9
$STYLESHEET
  1

  9
$XEDIT
290
     1
  9
$CEPSNTYPE
380
     0
  9
$PSTYLEMODE
290
     1
  9
$FINGERPRINTGUID
  2

  9
$VERSIONGUID
  2

  9
$EXTNAMES
290
     1
  9
$PSVPSCALE
 40
0.0
  0
ENDSEC
  0
SECTION
  2
CLASSES
  0
CLASS
  1
LWPOLYLINE
  2
AcDbPolyline
  3
AutoCAD 2000
 90
        0
280
     0
281
     1
  0
CLASS
  1
IMAGE
  2
AcDbRasterImage
  3
ISM
 90
      127
280
     0
281
     1
  0
CLASS
  1
OLE2FRAME
  2
AcDbOle2Frame
  3
AutoCAD 2000
 90
        0
280
     0
281
     1
  0
CLASS
  1
HATCH
  2
AcDbHatch
  3
AutoCAD 2000
 90
        0
280
     0
281
     1
  0
CLASS
  1
DICTIONARYVAR
  2
AcDbDictionaryVar
  3
AutoCAD 2000
 90
        0
280
     0
281
     0
  0
CLASS
  1
RASTERVARIABLES
  2
AcDbRasterVariables
  3
ISM
 90
        0
280
     0
281
     0
  0
CLASS
  1
IMAGEDEF
  2
AcDbRasterImageDef
  3
ISM
 90
        0
280
     0
281
     0
  0
CLASS
  1
IMAGEDEF_REACTOR
  2
AcDbRasterImageDefReactor
  3
ISM
 90
        1
280
     0
281
     0
  0
CLASS
  1
IDBUFFER
  2
AcDbIdBuffer
  3
AutoCAD 2000
 90
        0
280
     0
281
     0
  0
CLASS
  1
SPATIAL_FILTER
  2
AcDbSpatialFilter
  3
AutoCAD 2000
 90
        0
280
     0
281
     0
  0
CLASS
  1
XRECORD
  2
AcDbXrecord
  3
AutoCAD 2000
 90
        0
280
     0
281
     0
  0
CLASS
  1
SORTENTSTABLE
  2
AcDbSortentsTable
  3
AutoCAD 2000
 90
        0
280
     0
281
     0
  0
CLASS
  1
LAYER_INDEX
  2
AcDbLayerIndex
  3
AutoCAD 2000
 90
        0
280
     0
281
     0
  0
CLASS
  1
SPATIAL_INDEX
  2
AcDbSpatialIndex
  3
AutoCAD 2000
 90
        0
280
     0
281
     0
  0
CLASS
  1
OBJECT_PTR
  2
CAseDLPNTableRecord
  3
"ASE-LPNTableRecord"
 90
        1
280
     0
281
     0
  0
CLASS
  1
LAYOUT
  2
AcDbLayout
  3
AutoCAD 2000
 90
        0
280
     0
281
     0
  0
CLASS
  1
PLOTSETTINGS
  2
AcDbPlotSettings
  3
AutoCAD 2000
 90
        0
280
     0
281
     0
  0
CLASS
  1
ACDBDICTIONARYWDFLT
  2
AcDbDictionaryWithDefault
  3
AutoCAD 2000
 90
        0
280
     0
281
     0
  0
CLASS
  1
ACDBPLACEHOLDER
  2
AcDbPlaceHolder
  3
AutoCAD 2000
 90
        0
280
     0
281
     0
  0
CLASS
  1
VBA_PROJECT
  2
AcDbVbaProject
  3
acadvba
 90
        0
280
     0
281
     0
  0
CLASS
  1
WIPEOUT
  2
AcDbWipeout
  3
WipeOut|AutoCAD Express Tool|expresstools@autodesk.com
 90
      127
280
     0
281
     1
  0
CLASS
  1
WIPEOUTVARIABLES
  2
AcDbWipeoutVariables
  3
WipeOut|AutoCAD Express Tool|expresstools@autodesk.com
 90
        0
280
     0
281
     0
  0
CLASS
  1
RTEXT
  2
RText
  3
RText|AutoCAD Express Tool|expresstools@autodesk.com
 90
        0
280
     0
281
     1
  0
CLASS
  1
ARCALIGNEDTEXT
  2
AcDbArcAlignedText
  3
ATEXT|AutoCAD Express Tool|expresstools@autodesk.com
 90
        0
280
     0
281
     1
  0
ENDSEC
  0
SECTION
  2
TABLES
  0
TABLE
  2
VPORT
  5
7
100
AcDbSymbolTable
 70
     1
  0
VPORT
  5
15
100
AcDbSymbolTableRecord
100
AcDbViewportTableRecord
  2
*ACTIVE
 70
     0
 10
0.0
 20
0.0
 11
1.0
 21
1.0
 12
6.591288
 22
4.579184
 13
0.0
 23
0.0
 14
1.0
 24
1.0
 15
0.0
 25
0.0
 16
0.0
 26
0.0
 36
1.0
 17
0.0
 27
0.0
 37
0.0
 40
9.158369
 41
0.688564
 42
50.0
 43
0.0
 44
0.0
 50
0.0
 51
0.0
 71
     0
 72
   100
 73
     1
 74
     1
 75
     0
 76
     0
 77
     0
 78
     0
281
     0
 65
     0
110
0.0
120
0.0
130
0.0
111
1.0
121
0.0
131
0.0
112
0.0
122
1.0
132
0.0
345
0
346
0
 79
     0
146
0.0
  0
ENDTAB
  0
TABLE
  2
LTYPE
  5
4
100
AcDbSymbolTable
 70
     5
  0
LTYPE
  5
11
100
AcDbSymbolTableRecord
100
AcDbLinetypeTableRecord
  2
ByBlock
 70
    64
  3

 72
    65
 73
     0
 40
0.0
  0
LTYPE
  5
12
100
AcDbSymbolTableRecord
100
AcDbLinetypeTableRecord
  2
ByLayer
 70
    64
  3

 72
    65
 73
     0
 40
0.0
  0
LTYPE
  5
13
100
AcDbSymbolTableRecord
100
AcDbLinetypeTableRecord
  2
Continuous
 70
    64
  3
Solid line
 72
    65
 73
     0
 40
0.0
  0
LTYPE
  5
ED
100
AcDbSymbolTableRecord
100
AcDbLinetypeTableRecord
  2
DOT
 70
    64
  3
..............................................
 72
    65
 73
     2
 40
0.5
 49
0.25
 74
     0
 49
-0.25
 74
     0
  0
LTYPE
  5
111
100
AcDbSymbolTableRecord
100
AcDbLinetypeTableRecord
  2
CENTER
 70
    64
  3
____ _ ____ _ ____ _ ____ _ ____ _ ____ _ ____
 72
    65
 73
     4
 40
2.0
 49
1.25
 74
     0
 49
-0.25
 74
     0
 49
0.25
 74
     0
 49
-0.25
 74
     0
  0
ENDTAB
  0
TABLE
  2
LAYER
  5
2
100
AcDbSymbolTable
 70
     4
  0
LAYER
  5
14
100
AcDbSymbolTableRecord
100
AcDbLayerTableRecord
  2
0
 70
     0
 62
     7
  6
Continuous
290
     1
370
    -3
390
1D
  0
LAYER
  5
2B
100
AcDbSymbolTableRecord
100
AcDbLayerTableRecord
  2
256
 70
     0
 62
     7
  6
Continuous
290
     1
370
    -3
390
1D
  0
LAYER
  5
BC
100
AcDbSymbolTableRecord
100
AcDbLayerTableRecord
  2
1
 70
     0
 62
     7
  6
Continuous
290
     1
370
    -3
390
1D
  0
LAYER
  5
351
100
AcDbSymbolTableRecord
100
AcDbLayerTableRecord
  2
5
 70
     0
 62
    -7
  6
Continuous
290
     1
370
    -3
390
1D
  0
ENDTAB
  0
TABLE
  2
STYLE
  5
3
100
AcDbSymbolTable
 70
     1
  0
STYLE
  5
17
100
AcDbSymbolTableRecord
100
AcDbTextStyleTableRecord
  2
Standard
 70
     0
 40
0.0
 41
1.0
 50
0.0
 71
     0
 42
0.0
  3
ＭＳ Ｐゴシック
  4

1001
ACAD
1000
ＭＳ Ｐゴシック
1071
        0
  0
ENDTAB
  0
TABLE
  2
VIEW
  5
5
100
AcDbSymbolTable
 70
     0
  0
ENDTAB
  0
TABLE
  2
UCS
  5
6
100
AcDbSymbolTable
 70
     0
  0
ENDTAB
  0
TABLE
  2
APPID
  5
8
100
AcDbSymbolTable
 70
     2
  0
APPID
  5
16
100
AcDbSymbolTableRecord
100
AcDbRegAppTableRecord
  2
ACAD
 70
     0
  0
APPID
  5
26
100
AcDbSymbolTableRecord
100
AcDbRegAppTableRecord
  2
TOPsolid_Draft
 70
     0
  0
ENDTAB
  0
TABLE
  2
DIMSTYLE
  5
9
100
AcDbSymbolTable
 70
     1
100
AcDbDimStyleTable
 71
     0
  0
DIMSTYLE
105
18
100
AcDbSymbolTableRecord
100
AcDbDimStyleTableRecord
  2
Standard
 70
     0
  3

  4

 40
1.0
 41
1.8
 42
1.8
 43
0.38
 44
1.8
 45
0.0
 46
0.0
 47
0.0
 48
0.0
 71
     0
 72
     0
 73
     0
 74
     0
 75
     0
 76
     0
 77
     1
 78
     0
 79
     0
140
6.0
141
0.09
142
0.0
143
25.4
144
1.0
145
0.0
146
0.7
147
1.2
148
0.0
170
     0
171
     2
172
     0
173
     0
174
     0
175
     0
176
     7
177
     7
178
     7
179
     0
271
     7
272
     4
273
     2
274
     2
275
     0
276
     0
277
     2
278
    46
279
     0
280
     0
281
     0
282
     0
283
     1
284
     0
285
     0
286
     0
288
     0
289
     3
340
17
341
0
342
0
343
0
344
0
371
    -2
372
    -2
  0
ENDTAB
  0
TABLE
  2
BLOCK_RECORD
  5
1
100
AcDbSymbolTable
 70
    13
  0
BLOCK_RECORD
  5
A
100
AcDbSymbolTableRecord
100
AcDbBlockTableRecord
  2
*MODEL_SPACE
340
20
  0
BLOCK_RECORD
  5
B
100
AcDbSymbolTableRecord
100
AcDbBlockTableRecord
  2
*PAPER_SPACE
340
21
  0
BLOCK_RECORD
  5
B7
100
AcDbSymbolTableRecord
100
AcDbBlockTableRecord
  2
AID287
340
0
102
{BLKREFS
331
BB
102
}
  0
BLOCK_RECORD
  5
3C4
100
AcDbSymbolTableRecord
100
AcDbBlockTableRecord
  2
AID2329
340
0
102
{BLKREFS
331
3D5
102
}
  0
BLOCK_RECORD
  5
3D6
100
AcDbSymbolTableRecord
100
AcDbBlockTableRecord
  2
AID2337
340
0
102
{BLKREFS
331
3E7
102
}
  0
BLOCK_RECORD
  5
3E8
100
AcDbSymbolTableRecord
100
AcDbBlockTableRecord
  2
AID2345
340
0
102
{BLKREFS
331
3FA
102
}
  0
BLOCK_RECORD
  5
3FB
100
AcDbSymbolTableRecord
100
AcDbBlockTableRecord
  2
AID2354
340
0
102
{BLKREFS
331
40C
102
}
  0
BLOCK_RECORD
  5
40D
100
AcDbSymbolTableRecord
100
AcDbBlockTableRecord
  2
AID2362
340
0
102
{BLKREFS
331
41F
102
}
  0
BLOCK_RECORD
  5
420
100
AcDbSymbolTableRecord
100
AcDbBlockTableRecord
  2
AID2371
340
0
102
{BLKREFS
331
431
102
}
  0
BLOCK_RECORD
  5
432
100
AcDbSymbolTableRecord
100
AcDbBlockTableRecord
  2
AID2379
340
0
102
{BLKREFS
331
443
102
}
  0
BLOCK_RECORD
  5
444
100
AcDbSymbolTableRecord
100
AcDbBlockTableRecord
  2
AID2387
340
0
102
{BLKREFS
331
455
102
}
  0
BLOCK_RECORD
  5
456
100
AcDbSymbolTableRecord
100
AcDbBlockTableRecord
  2
AID2395
340
0
102
{BLKREFS
331
466
102
}
  0
BLOCK_RECORD
  5
467
100
AcDbSymbolTableRecord
100
AcDbBlockTableRecord
  2
AID2402
340
0
102
{BLKREFS
331
46C
102
}
  0
BLOCK_RECORD
  5
46D
100
AcDbSymbolTableRecord
100
AcDbBlockTableRecord
  2
AID2408
340
0
102
{BLKREFS
331
471
102
}
  0
BLOCK_RECORD
  5
472
100
AcDbSymbolTableRecord
100
AcDbBlockTableRecord
  2
AID2412
340
0
102
{BLKREFS
331
476
102
}
  0
ENDTAB
  0
ENDSEC
  0
SECTION
  2
BLOCKS
  0
BLOCK
  5
D
100
AcDbEntity
  8
0
390
0
100
AcDbBlockBegin
  2
*MODEL_SPACE
 70
     0
 10
0.0
 20
0.0
 30
0.0
  3
*MODEL_SPACE
  1

  0
ENDBLK
  5
E
100
AcDbEntity
  8
0
390
0
100
AcDbBlockEnd
  0
BLOCK
  5
F
100
AcDbEntity
 67
     1
  8
0
390
0
100
AcDbBlockBegin
  2
*PAPER_SPACE
 70
     0
 10
0.0
 20
0.0
 30
0.0
  3
*PAPER_SPACE
  1

  0
ENDBLK
  5
10
100
AcDbEntity
 67
     1
  8
0
390
0
100
AcDbBlockEnd
  0
BLOCK
  5
B8
100
AcDbEntity
  8
0
390
0
100
AcDbBlockBegin
  2
AID287
 70
     0
 10
0.0
 20
0.0
 30
0.0
  3
DNote#note referencing elements
  1

  0
MTEXT
  5
B9
100
AcDbEntity
  8
256
390
0
 62
     2
100
AcDbMText
 10
406.171318
 20
6.951938
 30
0.0
 40
3.0
 41
7.472727
 71
     7
 72
     1
  1
A3
210
0.0
220
0.0
230
1.0
 73
     1
 44
1.0
  0
ENDBLK
  5
BA
100
AcDbEntity
  8
0
390
0
100
AcDbBlockEnd
  0
BLOCK
  5
3C5
100
AcDbEntity
  8
0
390
0
100
AcDbBlockBegin
  2
AID2329
 70
     0
 10
0.0
 20
0.0
 30
0.0
  3
DIMENS
  1

  0
MTEXT
  5
3C6
100
AcDbEntity
  8
1
390
0
 62
     2
100
AcDbMText
 10
156.946725
 20
237.133436
 30
0.0
 40
6.0
 41
12.872727
 71
     7
 72
     1
  1
84
210
0.0
220
0.0
230
1.0
 73
     1
 44
1.0
  0
LINE
  5
3C7
100
AcDbEntity
  8
1
390
0
  6
Continuous
 62
    11
100
AcDbLine
 10
118.492179
 20
235.960709
 30
0.0
 11
202.492179
 21
235.960709
 31
0.0
  0
LINE
  5
3C8
100
AcDbEntity
  8
1
390
0
  6
Continuous
 62
    11
100
AcDbLine
 10
118.492179
 20
221.081783
 30
0.0
 11
118.492179
 21
237.760709
 31
0.0
  0
LINE
  5
3C9
100
AcDbEntity
  8
1
390
0
  6
Continuous
 62
    11
100
AcDbLine
 10
202.492179
 20
220.081783
 30
0.0
 11
202.492179
 21
237.760709
 31
0.0
  0
POLYLINE
  5
3CA
100
AcDbEntity
  8
1
390
0
  6
Continuous
 62
    11
100
AcDb2dPolyline
 66
     1
 10
0.0
 20
0.0
 30
0.0
 40
1.0
 41
1.0
  0
VERTEX
  5
3CB
100
AcDbEntity
  8
1
390
0
 62
    11
100
AcDbVertex
100
AcDb2dVertex
 10
122.992179
 20
235.060709
 30
0.0
  0
VERTEX
  5
3CC
100
AcDbEntity
  8
1
390
0
 62
    11
100
AcDbVertex
100
AcDb2dVertex
 10
118.492179
 20
235.960709
 30
0.0
  0
VERTEX
  5
3CD
100
AcDbEntity
  8
1
390
0
 62
    11
100
AcDbVertex
100
AcDb2dVertex
 10
122.992179
 20
236.860709
 30
0.0
  0
SEQEND
  5
3CE
100
AcDbEntity
  8
0
390
0
  0
POLYLINE
  5
3CF
100
AcDbEntity
  8
1
390
0
  6
Continuous
 62
    11
100
AcDb2dPolyline
 66
     1
 10
0.0
 20
0.0
 30
0.0
 40
1.0
 41
1.0
  0
VERTEX
  5
3D0
100
AcDbEntity
  8
1
390
0
 62
    11
100
AcDbVertex
100
AcDb2dVertex
 10
197.992179
 20
236.860709
 30
0.0
  0
VERTEX
  5
3D1
100
AcDbEntity
  8
1
390
0
 62
    11
100
AcDbVertex
100
AcDb2dVertex
 10
202.492179
 20
235.960709
 30
0.0
  0
VERTEX
  5
3D2
100
AcDbEntity
  8
1
390
0
 62
    11
100
AcDbVertex
100
AcDb2dVertex
 10
197.992179
 20
235.060709
 30
0.0
  0
SEQEND
  5
3D3
100
AcDbEntity
  8
0
390
0
  0
ENDBLK
  5
3D4
100
AcDbEntity
  8
0
390
0
100
AcDbBlockEnd
  0
BLOCK
  5
3D7
100
AcDbEntity
  8
0
390
0
100
AcDbBlockBegin
  2
AID2337
 70
     0
 10
0.0
 20
0.0
 30
0.0
  3
DIMENS
  1

  0
MTEXT
  5
3D8
100
AcDbEntity
  8
1
390
0
 62
     2
100
AcDbMText
 10
96.758722
 20
188.290874
 30
0.0
 40
6.0
 41
12.545455
 71
     7
 72
     1
  1
55
210
0.0
220
0.0
230
1.0
 11
0.0
 21
1.0
 31
0.0
 73
     1
 44
1.0
  0
LINE
  5
3D9
100
AcDbEntity
  8
1
390
0
  6
Continuous
 62
    11
100
AcDbLine
 10
97.931449
 20
219.281783
 30
0.0
 11
97.931449
 21
164.281783
 31
0.0
  0
LINE
  5
3DA
100
AcDbEntity
  8
1
390
0
  6
Continuous
 62
    11
100
AcDbLine
 10
116.692179
 20
219.281783
 30
0.0
 11
96.131449
 21
219.281783
 31
0.0
  0
LINE
  5
3DB
100
AcDbEntity
  8
1
390
0
  6
Continuous
 62
    11
100
AcDbLine
 10
116.692179
 20
164.281783
 30
0.0
 11
96.131449
 21
164.281783
 31
0.0
  0
POLYLINE
  5
3DC
100
AcDbEntity
  8
1
390
0
  6
Continuous
 62
    11
100
AcDb2dPolyline
 66
     1
 10
0.0
 20
0.0
 30
0.0
 40
1.0
 41
1.0
  0
VERTEX
  5
3DD
100
AcDbEntity
  8
1
390
0
 62
    11
100
AcDbVertex
100
AcDb2dVertex
 10
97.031449
 20
214.781783
 30
0.0
  0
VERTEX
  5
3DE
100
AcDbEntity
  8
1
390
0
 62
    11
100
AcDbVertex
100
AcDb2dVertex
 10
97.931449
 20
219.281783
 30
0.0
  0
VERTEX
  5
3DF
100
AcDbEntity
  8
1
390
0
 62
    11
100
AcDbVertex
100
AcDb2dVertex
 10
98.831449
 20
214.781783
 30
0.0
  0
SEQEND
  5
3E0
100
AcDbEntity
  8
0
390
0
  0
POLYLINE
  5
3E1
100
AcDbEntity
  8
1
390
0
  6
Continuous
 62
    11
100
AcDb2dPolyline
 66
     1
 10
0.0
 20
0.0
 30
0.0
 40
1.0
 41
1.0
  0
VERTEX
  5
3E2
100
AcDbEntity
  8
1
390
0
 62
    11
100
AcDbVertex
100
AcDb2dVertex
 10
98.831449
 20
168.781783
 30
0.0
  0
VERTEX
  5
3E3
100
AcDbEntity
  8
1
390
0
 62
    11
100
AcDbVertex
100
AcDb2dVertex
 10
97.931449
 20
164.281783
 30
0.0
  0
VERTEX
  5
3E4
100
AcDbEntity
  8
1
390
0
 62
    11
100
AcDbVertex
100
AcDb2dVertex
 10
97.031449
 20
168.781783
 30
0.0
  0
SEQEND
  5
3E5
100
AcDbEntity
  8
0
390
0
  0
ENDBLK
  5
3E6
100
AcDbEntity
  8
0
390
0
100
AcDbBlockEnd
  0
BLOCK
  5
3E9
100
AcDbEntity
  8
0
390
0
100
AcDbBlockBegin
  2
AID2345
 70
     0
 10
0.0
 20
0.0
 30
0.0
  3
DIMENS
  1

  0
MTEXT
  5
3EA
100
AcDbEntity
  8
1
390
0
 62
     2
100
AcDbMText
 10
234.163369
 20
237.106163
 30
0.0
 40
6.0
 41
26.727273
 71
     7
 72
     1
  1
2000
210
0.0
220
0.0
230
1.0
 73
     1
 44
1.0
  0
MTEXT
  5
3EB
100
AcDbEntity
  8
1
390
0
 62
     2
100
AcDbMText
 10
250.88155
 20
240.793436
 30
0.0
 40
4.2
 41
17.907273
 71
     7
 72
     1
  1
%%p20
210
0.0
220
0.0
230
1.0
 73
     1
 44
1.0
  0
LINE
  5
3EC
100
AcDbEntity
  8
1
390
0
  6
Continuous
 62
    11
100
AcDbLine
 10
202.492179
 20
235.960709
 30
0.0
 11
292.510012
 21
235.960709
 31
0.0
  0
LINE
  5
3ED
100
AcDbEntity
  8
1
390
0
  6
Continuous
 62
    11
100
AcDbLine
 10
202.492179
 20
220.081783
 30
0.0
 11
202.492179
 21
237.760709
 31
0.0
  0
LINE
  5
3EE
100
AcDbEntity
  8
1
390
0
  6
Continuous
 62
    11
100
AcDbLine
 10
292.510012
 20
210.138196
 30
0.0
 11
292.510012
 21
237.760709
 31
0.0
  0
POLYLINE
  5
3EF
100
AcDbEntity
  8
1
390
0
  6
Continuous
 62
    11
100
AcDb2dPolyline
 66
     1
 10
0.0
 20
0.0
 30
0.0
 40
1.0
 41
1.0
  0
VERTEX
  5
3F0
100
AcDbEntity
  8
1
390
0
 62
    11
100
AcDbVertex
100
AcDb2dVertex
 10
206.992179
 20
235.060709
 30
0.0
  0
VERTEX
  5
3F1
100
AcDbEntity
  8
1
390
0
 62
    11
100
AcDbVertex
100
AcDb2dVertex
 10
202.492179
 20
235.960709
 30
0.0
  0
VERTEX
  5
3F2
100
AcDbEntity
  8
1
390
0
 62
    11
100
AcDbVertex
100
AcDb2dVertex
 10
206.992179
 20
236.860709
 30
0.0
  0
SEQEND
  5
3F3
100
AcDbEntity
  8
0
390
0
  0
POLYLINE
  5
3F4
100
AcDbEntity
  8
1
390
0
  6
Continuous
 62
    11
100
AcDb2dPolyline
 66
     1
 10
0.0
 20
0.0
 30
0.0
 40
1.0
 41
1.0
  0
VERTEX
  5
3F5
100
AcDbEntity
  8
1
390
0
 62
    11
100
AcDbVertex
100
AcDb2dVertex
 10
288.010012
 20
236.860709
 30
0.0
  0
VERTEX
  5
3F6
100
AcDbEntity
  8
1
390
0
 62
    11
100
AcDbVertex
100
AcDb2dVertex
 10
292.510012
 20
235.960709
 30
0.0
  0
VERTEX
  5
3F7
100
AcDbEntity
  8
1
390
0
 62
    11
100
AcDbVertex
100
AcDb2dVertex
 10
288.010012
 20
235.060709
 30
0.0
  0
SEQEND
  5
3F8
100
AcDbEntity
  8
0
390
0
  0
ENDBLK
  5
3F9
100
AcDbEntity
  8
0
390
0
100
AcDbBlockEnd
  0
BLOCK
  5
3FC
100
AcDbEntity
  8
0
390
0
100
AcDbBlockBegin
  2
AID2354
 70
     0
 10
0.0
 20
0.0
 30
0.0
  3
DIMENS
  1

  0
MTEXT
  5
3FD
100
AcDbEntity
  8
1
390
0
 62
     2
100
AcDbMText
 10
303.814558
 20
237.133436
 30
0.0
 40
6.0
 41
22.363636
 71
     7
 72
     1
  1
34.5
210
0.0
220
0.0
230
1.0
 73
     1
 44
1.0
  0
LINE
  5
3FE
100
AcDbEntity
  8
1
390
0
  6
Continuous
 62
    11
100
AcDbLine
 10
292.510012
 20
235.960709
 30
0.0
 11
327.010012
 21
235.960709
 31
0.0
  0
LINE
  5
3FF
100
AcDbEntity
  8
1
390
0
  6
Continuous
 62
    11
100
AcDbLine
 10
292.510012
 20
210.138196
 30
0.0
 11
292.510012
 21
237.760709
 31
0.0
  0
LINE
  5
400
100
AcDbEntity
  8
1
390
0
  6
Continuous
 62
    11
100
AcDbLine
 10
327.010012
 20
212.381783
 30
0.0
 11
327.010012
 21
237.760709
 31
0.0
  0
POLYLINE
  5
401
100
AcDbEntity
  8
1
390
0
  6
Continuous
 62
    11
100
AcDb2dPolyline
 66
     1
 10
0.0
 20
0.0
 30
0.0
 40
1.0
 41
1.0
  0
VERTEX
  5
402
100
AcDbEntity
  8
1
390
0
 62
    11
100
AcDbVertex
100
AcDb2dVertex
 10
297.010012
 20
235.060709
 30
0.0
  0
VERTEX
  5
403
100
AcDbEntity
  8
1
390
0
 62
    11
100
AcDbVertex
100
AcDb2dVertex
 10
292.510012
 20
235.960709
 30
0.0
  0
VERTEX
  5
404
100
AcDbEntity
  8
1
390
0
 62
    11
100
AcDbVertex
100
AcDb2dVertex
 10
297.010012
 20
236.860709
 30
0.0
  0
SEQEND
  5
405
100
AcDbEntity
  8
0
390
0
  0
POLYLINE
  5
406
100
AcDbEntity
  8
1
390
0
  6
Continuous
 62
    11
100
AcDb2dPolyline
 66
     1
 10
0.0
 20
0.0
 30
0.0
 40
1.0
 41
1.0
  0
VERTEX
  5
407
100
AcDbEntity
  8
1
390
0
 62
    11
100
AcDbVertex
100
AcDb2dVertex
 10
322.510012
 20
236.860709
 30
0.0
  0
VERTEX
  5
408
100
AcDbEntity
  8
1
390
0
 62
    11
100
AcDbVertex
100
AcDb2dVertex
 10
327.010012
 20
235.960709
 30
0.0
  0
VERTEX
  5
409
100
AcDbEntity
  8
1
390
0
 62
    11
100
AcDbVertex
100
AcDb2dVertex
 10
322.510012
 20
235.060709
 30
0.0
  0
SEQEND
  5
40A
100
AcDbEntity
  8
0
390
0
  0
ENDBLK
  5
40B
100
AcDbEntity
  8
0
390
0
100
AcDbBlockEnd
  0
BLOCK
  5
40E
100
AcDbEntity
  8
0
390
0
100
AcDbBlockBegin
  2
AID2362
 70
     0
 10
0.0
 20
0.0
 30
0.0
  3
DIMENS
  1

  0
MTEXT
  5
40F
100
AcDbEntity
  8
1
390
0
 62
     2
100
AcDbMText
 10
343.023034
 20
216.240874
 30
0.0
 40
6.0
 41
9.490909
 71
     7
 72
     1
  1
Φ
210
0.0
220
0.0
230
0.9999999999999999
 11
0.0
 21
1.0
 31
0.0
 73
     1
 44
1.0
  0
MTEXT
  5
410
100
AcDbEntity
  8
1
390
0
 62
     2
100
AcDbMText
 10
343.023034
 20
222.186328
 30
0.0
 40
6.0
 41
21.6
 71
     7
 72
     1
  1
11.5
210
0.0
220
0.0
230
0.9999999999999999
 11
0.0
 21
1.0
 31
0.0
 73
     1
 44
1.0
  0
LINE
  5
411
100
AcDbEntity
  8
1
390
0
  6
Continuous
 62
    11
100
AcDbLine
 10
344.195761
 20
234.322692
 30
0.0
 11
344.195761
 21
190.531783
 31
0.0
  0
LINE
  5
412
100
AcDbEntity
  8
1
390
0
  6
Continuous
 62
    11
100
AcDbLine
 10
323.360012
 20
211.031783
 30
0.0
 11
345.995761
 21
211.031783
 31
0.0
  0
LINE
  5
413
100
AcDbEntity
  8
1
390
0
  6
Continuous
 62
    11
100
AcDbLine
 10
323.360012
 20
199.531783
 30
0.0
 11
345.995761
 21
199.531783
 31
0.0
  0
POLYLINE
  5
414
100
AcDbEntity
  8
1
390
0
  6
Continuous
 62
    11
100
AcDb2dPolyline
 66
     1
 10
0.0
 20
0.0
 30
0.0
 40
1.0
 41
1.0
  0
VERTEX
  5
415
100
AcDbEntity
  8
1
390
0
 62
    11
100
AcDbVertex
100
AcDb2dVertex
 10
343.295761
 20
215.531783
 30
0.0
  0
VERTEX
  5
416
100
AcDbEntity
  8
1
390
0
 62
    11
100
AcDbVertex
100
AcDb2dVertex
 10
344.195761
 20
211.031783
 30
0.0
  0
VERTEX
  5
417
100
AcDbEntity
  8
1
390
0
 62
    11
100
AcDbVertex
100
AcDb2dVertex
 10
345.095761
 20
215.531783
 30
0.0
  0
SEQEND
  5
418
100
AcDbEntity
  8
0
390
0
  0
POLYLINE
  5
419
100
AcDbEntity
  8
1
390
0
  6
Continuous
 62
    11
100
AcDb2dPolyline
 66
     1
 10
0.0
 20
0.0
 30
0.0
 40
1.0
 41
1.0
  0
VERTEX
  5
41A
100
AcDbEntity
  8
1
390
0
 62
    11
100
AcDbVertex
100
AcDb2dVertex
 10
345.095761
 20
195.031783
 30
0.0
  0
VERTEX
  5
41B
100
AcDbEntity
  8
1
390
0
 62
    11
100
AcDbVertex
100
AcDb2dVertex
 10
344.195761
 20
199.531783
 30
0.0
  0
VERTEX
  5
41C
100
AcDbEntity
  8
1
390
0
 62
    11
100
AcDbVertex
100
AcDb2dVertex
 10
343.295761
 20
195.031783
 30
0.0
  0
SEQEND
  5
41D
100
AcDbEntity
  8
0
390
0
  0
ENDBLK
  5
41E
100
AcDbEntity
  8
0
390
0
100
AcDbBlockEnd
  0
BLOCK
  5
421
100
AcDbEntity
  8
0
390
0
100
AcDbBlockBegin
  2
AID2371
 70
     0
 10
0.0
 20
0.0
 30
0.0
  3
DIMENS
  1

  0
MTEXT
  5
422
100
AcDbEntity
  8
1
390
0
 62
     2
100
AcDbMText
 10
105.517693
 20
96.599522
 30
0.0
 40
6.0
 41
22.363636
 71
     7
 72
     1
  1
27.5
210
0.0
220
0.0
230
1.0
 11
0.0
 21
1.0
 31
0.0
 73
     1
 44
1.0
  0
LINE
  5
423
100
AcDbEntity
  8
1
390
0
  6
Continuous
 62
    11
100
AcDbLine
 10
106.69042
 20
116.294977
 30
0.0
 11
106.69042
 21
88.794977
 31
0.0
  0
LINE
  5
424
100
AcDbEntity
  8
1
390
0
  6
Continuous
 62
    11
100
AcDbLine
 10
116.692179
 20
116.294977
 30
0.0
 11
104.89042
 21
116.294977
 31
0.0
  0
LINE
  5
425
100
AcDbEntity
  8
1
390
0
  6
Continuous
 62
    11
100
AcDbLine
 10
118.692179
 20
88.794977
 30
0.0
 11
104.89042
 21
88.794977
 31
0.0
  0
POLYLINE
  5
426
100
AcDbEntity
  8
1
390
0
  6
Continuous
 62
    11
100
AcDb2dPolyline
 66
     1
 10
0.0
 20
0.0
 30
0.0
 40
1.0
 41
1.0
  0
VERTEX
  5
427
100
AcDbEntity
  8
1
390
0
 62
    11
100
AcDbVertex
100
AcDb2dVertex
 10
105.79042
 20
111.794977
 30
0.0
  0
VERTEX
  5
428
100
AcDbEntity
  8
1
390
0
 62
    11
100
AcDbVertex
100
AcDb2dVertex
 10
106.69042
 20
116.294977
 30
0.0
  0
VERTEX
  5
429
100
AcDbEntity
  8
1
390
0
 62
    11
100
AcDbVertex
100
AcDb2dVertex
 10
107.59042
 20
111.794977
 30
0.0
  0
SEQEND
  5
42A
100
AcDbEntity
  8
0
390
0
  0
POLYLINE
  5
42B
100
AcDbEntity
  8
1
390
0
  6
Continuous
 62
    11
100
AcDb2dPolyline
 66
     1
 10
0.0
 20
0.0
 30
0.0
 40
1.0
 41
1.0
  0
VERTEX
  5
42C
100
AcDbEntity
  8
1
390
0
 62
    11
100
AcDbVertex
100
AcDb2dVertex
 10
107.59042
 20
93.294977
 30
0.0
  0
VERTEX
  5
42D
100
AcDbEntity
  8
1
390
0
 62
    11
100
AcDbVertex
100
AcDb2dVertex
 10
106.69042
 20
88.794977
 30
0.0
  0
VERTEX
  5
42E
100
AcDbEntity
  8
1
390
0
 62
    11
100
AcDbVertex
100
AcDb2dVertex
 10
105.79042
 20
93.294977
 30
0.0
  0
SEQEND
  5
42F
100
AcDbEntity
  8
0
390
0
  0
ENDBLK
  5
430
100
AcDbEntity
  8
0
390
0
100
AcDbBlockEnd
  0
BLOCK
  5
433
100
AcDbEntity
  8
0
390
0
100
AcDbBlockBegin
  2
AID2379
 70
     0
 10
0.0
 20
0.0
 30
0.0
  3
DIMENS
  1

  0
MTEXT
  5
434
100
AcDbEntity
  8
1
390
0
 62
     2
100
AcDbMText
 10
94.802717
 20
94.099522
 30
0.0
 40
6.0
 41
22.363636
 71
     7
 72
     1
  1
32.5
210
0.0
220
0.0
230
1.0
 11
0.0
 21
1.0
 31
0.0
 73
     1
 44
1.0
  0
LINE
  5
435
100
AcDbEntity
  8
1
390
0
  6
Continuous
 62
    11
100
AcDbLine
 10
95.975445
 20
116.294977
 30
0.0
 11
95.975445
 21
83.794977
 31
0.0
  0
LINE
  5
436
100
AcDbEntity
  8
1
390
0
  6
Continuous
 62
    11
100
AcDbLine
 10
116.692179
 20
116.294977
 30
0.0
 11
94.175445
 21
116.294977
 31
0.0
  0
LINE
  5
437
100
AcDbEntity
  8
1
390
0
  6
Continuous
 62
    11
100
AcDbLine
 10
116.692179
 20
83.794977
 30
0.0
 11
94.175445
 21
83.794977
 31
0.0
  0
POLYLINE
  5
438
100
AcDbEntity
  8
1
390
0
  6
Continuous
 62
    11
100
AcDb2dPolyline
 66
     1
 10
0.0
 20
0.0
 30
0.0
 40
1.0
 41
1.0
  0
VERTEX
  5
439
100
AcDbEntity
  8
1
390
0
 62
    11
100
AcDbVertex
100
AcDb2dVertex
 10
95.075445
 20
111.794977
 30
0.0
  0
VERTEX
  5
43A
100
AcDbEntity
  8
1
390
0
 62
    11
100
AcDbVertex
100
AcDb2dVertex
 10
95.975445
 20
116.294977
 30
0.0
  0
VERTEX
  5
43B
100
AcDbEntity
  8
1
390
0
 62
    11
100
AcDbVertex
100
AcDb2dVertex
 10
96.875445
 20
111.794977
 30
0.0
  0
SEQEND
  5
43C
100
AcDbEntity
  8
0
390
0
  0
POLYLINE
  5
43D
100
AcDbEntity
  8
1
390
0
  6
Continuous
 62
    11
100
AcDb2dPolyline
 66
     1
 10
0.0
 20
0.0
 30
0.0
 40
1.0
 41
1.0
  0
VERTEX
  5
43E
100
AcDbEntity
  8
1
390
0
 62
    11
100
AcDbVertex
100
AcDb2dVertex
 10
96.875445
 20
88.294977
 30
0.0
  0
VERTEX
  5
43F
100
AcDbEntity
  8
1
390
0
 62
    11
100
AcDbVertex
100
AcDb2dVertex
 10
95.975445
 20
83.794977
 30
0.0
  0
VERTEX
  5
440
100
AcDbEntity
  8
1
390
0
 62
    11
100
AcDbVertex
100
AcDb2dVertex
 10
95.075445
 20
88.294977
 30
0.0
  0
SEQEND
  5
441
100
AcDbEntity
  8
0
390
0
  0
ENDBLK
  5
442
100
AcDbEntity
  8
0
390
0
100
AcDbBlockEnd
  0
BLOCK
  5
445
100
AcDbEntity
  8
0
390
0
100
AcDbBlockBegin
  2
AID2387
 70
     0
 10
0.0
 20
0.0
 30
0.0
  3
DIMENS
  1

  0
MTEXT
  5
446
100
AcDbEntity
  8
1
390
0
 62
     2
100
AcDbMText
 10
83.576792
 20
97.235886
 30
0.0
 40
6.0
 41
12.818182
 71
     7
 72
     1
  1
34
210
0.0
220
0.0
230
1.0
 11
0.0
 21
1.0
 31
0.0
 73
     1
 44
1.0
  0
LINE
  5
447
100
AcDbEntity
  8
1
390
0
  6
Continuous
 62
    11
100
AcDbLine
 10
84.74952
 20
117.794977
 30
0.0
 11
84.74952
 21
83.794977
 31
0.0
  0
LINE
  5
448
100
AcDbEntity
  8
1
390
0
  6
Continuous
 62
    11
100
AcDbLine
 10
124.692179
 20
117.794977
 30
0.0
 11
82.94952
 21
117.794977
 31
0.0
  0
LINE
  5
449
100
AcDbEntity
  8
1
390
0
  6
Continuous
 62
    11
100
AcDbLine
 10
116.692179
 20
83.794977
 30
0.0
 11
82.94952
 21
83.794977
 31
0.0
  0
POLYLINE
  5
44A
100
AcDbEntity
  8
1
390
0
  6
Continuous
 62
    11
100
AcDb2dPolyline
 66
     1
 10
0.0
 20
0.0
 30
0.0
 40
1.0
 41
1.0
  0
VERTEX
  5
44B
100
AcDbEntity
  8
1
390
0
 62
    11
100
AcDbVertex
100
AcDb2dVertex
 10
83.84952
 20
113.294977
 30
0.0
  0
VERTEX
  5
44C
100
AcDbEntity
  8
1
390
0
 62
    11
100
AcDbVertex
100
AcDb2dVertex
 10
84.74952
 20
117.794977
 30
0.0
  0
VERTEX
  5
44D
100
AcDbEntity
  8
1
390
0
 62
    11
100
AcDbVertex
100
AcDb2dVertex
 10
85.64952
 20
113.294977
 30
0.0
  0
SEQEND
  5
44E
100
AcDbEntity
  8
0
390
0
  0
POLYLINE
  5
44F
100
AcDbEntity
  8
1
390
0
  6
Continuous
 62
    11
100
AcDb2dPolyline
 66
     1
 10
0.0
 20
0.0
 30
0.0
 40
1.0
 41
1.0
  0
VERTEX
  5
450
100
AcDbEntity
  8
1
390
0
 62
    11
100
AcDbVertex
100
AcDb2dVertex
 10
85.64952
 20
88.294977
 30
0.0
  0
VERTEX
  5
451
100
AcDbEntity
  8
1
390
0
 62
    11
100
AcDbVertex
100
AcDb2dVertex
 10
84.74952
 20
83.794977
 30
0.0
  0
VERTEX
  5
452
100
AcDbEntity
  8
1
390
0
 62
    11
100
AcDbVertex
100
AcDb2dVertex
 10
83.84952
 20
88.294977
 30
0.0
  0
SEQEND
  5
453
100
AcDbEntity
  8
0
390
0
  0
ENDBLK
  5
454
100
AcDbEntity
  8
0
390
0
100
AcDbBlockEnd
  0
BLOCK
  5
457
100
AcDbEntity
  8
0
390
0
100
AcDbBlockBegin
  2
AID2395
 70
     0
 10
0.0
 20
0.0
 30
0.0
  3
DIMENS
  1

  0
MTEXT
  5
458
100
AcDbEntity
  8
1
390
0
 62
     2
100
AcDbMText
 10
221.620741
 20
173.945419
 30
0.0
 40
6.0
 41
21.6
 71
     7
 72
     1
  1
13.5
210
0.0
220
0.0
230
1.0
 11
0.0
 21
1.0
 31
0.0
 73
     1
 44
1.0
  0
LINE
  5
459
100
AcDbEntity
  8
1
390
0
  6
Continuous
 62
    11
100
AcDbLine
 10
222.793468
 20
214.281783
 30
0.0
 11
222.793468
 21
174.081783
 31
0.0
  0
LINE
  5
45A
100
AcDbEntity
  8
1
390
0
  6
Continuous
 62
    11
100
AcDbLine
 10
204.492179
 20
191.781783
 30
0.0
 11
224.593468
 21
191.781783
 31
0.0
  0
POLYLINE
  5
45B
100
AcDbEntity
  8
1
390
0
  6
Continuous
 62
    11
100
AcDb2dPolyline
 66
     1
 10
0.0
 20
0.0
 30
0.0
 40
1.0
 41
1.0
  0
VERTEX
  5
45C
100
AcDbEntity
  8
1
390
0
 62
    11
100
AcDbVertex
100
AcDb2dVertex
 10
221.893468
 20
209.781783
 30
0.0
  0
VERTEX
  5
45D
100
AcDbEntity
  8
1
390
0
 62
    11
100
AcDbVertex
100
AcDb2dVertex
 10
222.793468
 20
205.281783
 30
0.0
  0
VERTEX
  5
45E
100
AcDbEntity
  8
1
390
0
 62
    11
100
AcDbVertex
100
AcDb2dVertex
 10
223.693468
 20
209.781783
 30
0.0
  0
SEQEND
  5
45F
100
AcDbEntity
  8
0
390
0
  0
POLYLINE
  5
460
100
AcDbEntity
  8
1
390
0
  6
Continuous
 62
    11
100
AcDb2dPolyline
 66
     1
 10
0.0
 20
0.0
 30
0.0
 40
1.0
 41
1.0
  0
VERTEX
  5
461
100
AcDbEntity
  8
1
390
0
 62
    11
100
AcDbVertex
100
AcDb2dVertex
 10
223.693468
 20
187.281783
 30
0.0
  0
VERTEX
  5
462
100
AcDbEntity
  8
1
390
0
 62
    11
100
AcDbVertex
100
AcDb2dVertex
 10
222.793468
 20
191.781783
 30
0.0
  0
VERTEX
  5
463
100
AcDbEntity
  8
1
390
0
 62
    11
100
AcDbVertex
100
AcDb2dVertex
 10
221.893468
 20
187.281783
 30
0.0
  0
SEQEND
  5
464
100
AcDbEntity
  8
0
390
0
  0
ENDBLK
  5
465
100
AcDbEntity
  8
0
390
0
100
AcDbBlockEnd
  0
BLOCK
  5
468
100
AcDbEntity
  8
0
390
0
100
AcDbBlockBegin
  2
AID2402
 70
     0
 10
0.0
 20
0.0
 30
0.0
  3
DNote#note referencing elements
  1

  0
MTEXT
  5
469
100
AcDbEntity
  8
1
390
0
 62
     2
100
AcDbMText
 10
370.600403
 20
42.55386
 30
0.0
 40
4.0
 41
35.309091
 71
     7
 72
     1
  1
MVS08用
210
0.0
220
0.0
230
1.0
 73
     1
 44
1.0
  0
MTEXT
  5
46A
100
AcDbEntity
  8
1
390
0
 62
     2
100
AcDbMText
 10
354.87313
 20
36.55386
 30
0.0
 40
4.0
 41
98.472727
 71
     7
 72
     1
  1
金型表面温度中継アンプ
210
0.0
220
0.0
230
1.0
 73
     1
 44
1.0
  0
ENDBLK
  5
46B
100
AcDbEntity
  8
0
390
0
100
AcDbBlockEnd
  0
BLOCK
  5
46E
100
AcDbEntity
  8
0
390
0
100
AcDbBlockBegin
  2
AID2408
 70
     0
 10
0.0
 20
0.0
 30
0.0
  3
DNote#note referencing elements
  1

  0
MTEXT
  5
46F
100
AcDbEntity
  8
1
390
0
 62
     2
100
AcDbMText
 10
370.967904
 20
29.222378
 30
0.0
 40
4.0
 41
31.636364
 71
     7
 72
     1
  1
UPT01A
210
0.0
220
0.0
230
1.0
 73
     1
 44
1.0
  0
ENDBLK
  5
470
100
AcDbEntity
  8
0
390
0
100
AcDbBlockEnd
  0
BLOCK
  5
473
100
AcDbEntity
  8
0
390
0
100
AcDbBlockBegin
  2
AID2412
 70
     0
 10
0.0
 20
0.0
 30
0.0
  3
DNote#note referencing elements
  1

  0
MTEXT
  5
474
100
AcDbEntity
  8
1
390
0
 62
     2
100
AcDbMText
 10
323.452568
 20
32.042068
 30
0.0
 40
5.0
 41
14.045455
 71
     7
 72
     1
  1
1：1
210
0.0
220
0.0
230
1.0
 73
     1
 44
1.0
  0
ENDBLK
  5
475
100
AcDbEntity
  8
0
390
0
100
AcDbBlockEnd
  0
ENDSEC
  0
SECTION
  2
ENTITIES
  0
LINE
  5
2C
100
AcDbEntity
  8
256
390
0
  6
Continuous
 62
     8
100
AcDbLine
 10
222.0
 20
34.5
 30
0.0
 11
271.0
 21
34.5
 31
0.0
  0
LINE
  5
2D
100
AcDbEntity
  8
256
390
0
  6
Continuous
 62
     8
100
AcDbLine
 10
390.25
 20
277.0
 30
0.0
 11
390.25
 21
287.0
 31
0.0
  0
LINE
  5
2E
100
AcDbEntity
  8
256
390
0
  6
Continuous
 62
     8
100
AcDbLine
 10
229.511017
 20
262.368011
 30
0.0
 11
234.511017
 21
262.368011
 31
0.0
  0
LINE
  5
2F
100
AcDbEntity
  8
256
390
0
  6
Continuous
 62
     8
100
AcDbLine
 10
222.0
 20
38.0
 30
0.0
 11
271.0
 21
38.0
 31
0.0
  0
LINE
  5
30
100
AcDbEntity
  8
256
390
0
  6
Continuous
 62
     8
100
AcDbLine
 10
237.0
 20
287.0
 30
0.0
 11
237.0
 21
257.0
 31
0.0
  0
LINE
  5
31
100
AcDbEntity
  8
256
390
0
  6
Continuous
 62
     8
100
AcDbLine
 10
303.8
 20
48.0
 30
0.0
 11
303.8
 21
10.0
 31
0.0
  0
LINE
  5
32
100
AcDbEntity
  8
256
390
0
  6
Continuous
 62
     8
100
AcDbLine
 10
385.25
 20
277.0
 30
0.0
 11
385.25
 21
287.0
 31
0.0
  0
LINE
  5
33
100
AcDbEntity
  8
256
390
0
  6
Continuous
 62
     8
100
AcDbLine
 10
287.4
 20
31.0
 30
0.0
 11
287.4
 21
10.0
 31
0.0
  0
LINE
  5
34
100
AcDbEntity
  8
256
390
0
  6
Continuous
 62
     8
100
AcDbLine
 10
253.750031
 20
44.0
 30
0.0
 11
253.750031
 21
10.0
 31
0.0
  0
LINE
  5
35
100
AcDbEntity
  8
256
390
0
  6
Continuous
 62
     8
100
AcDbLine
 10
410.0
 20
10.0
 30
0.0
 11
410.0
 21
287.0
 31
0.0
  0
LINE
  5
36
100
AcDbEntity
  8
256
390
0
  6
Continuous
 62
     8
100
AcDbLine
 10
335.25
 20
15.666667
 30
0.0
 11
335.25
 21
48.0
 31
0.0
  0
LINE
  5
37
100
AcDbEntity
  8
256
390
0
  6
Continuous
 62
     8
100
AcDbLine
 10
410.0
 20
287.0
 30
0.0
 11
10.0
 21
287.0
 31
0.0
  0
LINE
  5
38
100
AcDbEntity
  8
256
390
0
  6
Continuous
 62
     8
100
AcDbLine
 10
362.0
 20
287.0
 30
0.0
 11
362.0
 21
257.0
 31
0.0
  0
LINE
  5
39
100
AcDbEntity
  8
256
390
0
  6
Continuous
 62
     8
100
AcDbLine
 10
410.0
 20
267.0
 30
0.0
 11
227.0
 21
267.0
 31
0.0
  0
LINE
  5
3A
100
AcDbEntity
  8
256
390
0
  6
Continuous
 62
     8
100
AcDbLine
 10
410.0
 20
277.0
 30
0.0
 11
227.0
 21
277.0
 31
0.0
  0
LINE
  5
3B
100
AcDbEntity
  8
256
390
0
  6
Continuous
 62
     8
100
AcDbLine
 10
271.0
 20
41.0
 30
0.0
 11
335.25
 21
41.0
 31
0.0
  0
LINE
  5
3C
100
AcDbEntity
  8
256
390
0
  6
Continuous
 62
     8
100
AcDbLine
 10
222.0
 20
44.0
 30
0.0
 11
271.0
 21
44.0
 31
0.0
  0
LINE
  5
3D
100
AcDbEntity
  8
256
390
0
  6
Continuous
 62
     8
100
AcDbLine
 10
232.011017
 20
261.664886
 30
0.0
 11
229.511017
 21
257.368011
 31
0.0
  0
LINE
  5
3E
100
AcDbEntity
  8
256
390
0
  6
Continuous
 62
     8
100
AcDbLine
 10
248.000031
 20
38.0
 30
0.0
 11
222.0
 21
44.0
 31
0.0
  0
LINE
  5
3F
100
AcDbEntity
  8
256
390
0
  6
Continuous
 62
     8
100
AcDbLine
 10
357.0
 20
262.0
 30
0.0
 11
227.0
 21
262.0
 31
0.0
  0
LINE
  5
40
100
AcDbEntity
  8
256
390
0
  6
Continuous
 62
     8
100
AcDbLine
 10
222.0
 20
31.0
 30
0.0
 11
320.25
 21
31.0
 31
0.0
  0
LINE
  5
41
100
AcDbEntity
  8
256
390
0
  6
Continuous
 62
     8
100
AcDbLine
 10
234.511017
 20
267.368011
 30
0.0
 11
232.011017
 21
271.664886
 31
0.0
  0
LINE
  5
42
100
AcDbEntity
  8
256
390
0
  6
Continuous
 62
     8
100
AcDbLine
 10
385.25
 20
282.0
 30
0.0
 11
362.0
 21
282.0
 31
0.0
  0
LINE
  5
43
100
AcDbEntity
  8
256
390
0
  6
Continuous
 62
     8
100
AcDbLine
 10
10.0
 20
10.0
 30
0.0
 11
410.0
 21
10.0
 31
0.0
  0
LINE
  5
44
100
AcDbEntity
  8
256
390
0
  6
Continuous
 62
     8
100
AcDbLine
 10
222.0
 20
48.0
 30
0.0
 11
410.0
 21
48.0
 31
0.0
  0
LINE
  5
45
100
AcDbEntity
  8
256
390
0
  6
Continuous
 62
     8
100
AcDbLine
 10
227.000031
 20
10.0
 30
0.0
 11
410.0
 21
10.0
 31
0.0
  0
LINE
  5
46
100
AcDbEntity
  8
256
390
0
  6
Continuous
 62
     8
100
AcDbLine
 10
342.0
 20
287.0
 30
0.0
 11
342.0
 21
257.0
 31
0.0
  0
LINE
  5
47
100
AcDbEntity
  8
256
390
0
  6
Continuous
 62
     8
100
AcDbLine
 10
222.0
 20
13.5
 30
0.0
 11
271.000031
 21
13.5
 31
0.0
  0
LINE
  5
48
100
AcDbEntity
  8
256
390
0
  6
Continuous
 62
     8
100
AcDbLine
 10
222.0
 20
20.5
 30
0.0
 11
271.0
 21
20.5
 31
0.0
  0
LINE
  5
49
100
AcDbEntity
  8
256
390
0
  6
Continuous
 62
     8
100
AcDbLine
 10
222.0
 20
27.5
 30
0.0
 11
271.0
 21
27.5
 31
0.0
  0
LINE
  5
4A
100
AcDbEntity
  8
256
390
0
  6
Continuous
 62
     8
100
AcDbLine
 10
248.000031
 20
44.0
 30
0.0
 11
248.000031
 21
10.0
 31
0.0
  0
LINE
  5
4B
100
AcDbEntity
  8
256
390
0
  6
Continuous
 62
     8
100
AcDbLine
 10
222.0
 20
48.0
 30
0.0
 11
222.0
 21
10.0
 31
0.0
  0
LINE
  5
4C
100
AcDbEntity
  8
256
390
0
  6
Continuous
 62
     8
100
AcDbLine
 10
232.011017
 20
276.664886
 30
0.0
 11
229.511017
 21
272.368011
 31
0.0
  0
LINE
  5
4D
100
AcDbEntity
  8
256
390
0
  6
Continuous
 62
     8
100
AcDbLine
 10
357.0
 20
282.0
 30
0.0
 11
227.0
 21
282.0
 31
0.0
  0
LINE
  5
4E
100
AcDbEntity
  8
256
390
0
  6
Continuous
 62
     8
100
AcDbLine
 10
229.511017
 20
267.368011
 30
0.0
 11
234.511017
 21
267.368011
 31
0.0
  0
LINE
  5
4F
100
AcDbEntity
  8
256
390
0
  6
Continuous
 62
     8
100
AcDbLine
 10
222.0
 20
24.0
 30
0.0
 11
271.0
 21
24.0
 31
0.0
  0
LINE
  5
50
100
AcDbEntity
  8
256
390
0
  6
Continuous
 62
     8
100
AcDbLine
 10
232.011017
 20
281.664886
 30
0.0
 11
229.511017
 21
277.368011
 31
0.0
  0
LINE
  5
51
100
AcDbEntity
  8
256
390
0
  6
Continuous
 62
     8
100
AcDbLine
 10
265.250031
 20
44.0
 30
0.0
 11
265.250031
 21
10.0
 31
0.0
  0
LINE
  5
52
100
AcDbEntity
  8
256
390
0
  6
Continuous
 62
     8
100
AcDbLine
 10
229.511017
 20
277.368011
 30
0.0
 11
234.511017
 21
277.368011
 31
0.0
  0
LINE
  5
53
100
AcDbEntity
  8
256
390
0
  6
Continuous
 62
     8
100
AcDbLine
 10
320.25
 20
10.0
 30
0.0
 11
320.25
 21
48.0
 31
0.0
  0
LINE
  5
54
100
AcDbEntity
  8
256
390
0
  6
Continuous
 62
     8
100
AcDbLine
 10
232.011017
 20
271.664886
 30
0.0
 11
229.511017
 21
267.368011
 31
0.0
  0
LINE
  5
55
100
AcDbEntity
  8
256
390
0
  6
Continuous
 62
     8
100
AcDbLine
 10
234.511017
 20
277.368011
 30
0.0
 11
232.011017
 21
281.664886
 31
0.0
  0
LINE
  5
56
100
AcDbEntity
  8
256
390
0
  6
Continuous
 62
     8
100
AcDbLine
 10
222.0
 20
17.0
 30
0.0
 11
271.0
 21
17.0
 31
0.0
  0
LINE
  5
57
100
AcDbEntity
  8
256
390
0
  6
Continuous
 62
     8
100
AcDbLine
 10
271.0
 20
48.0
 30
0.0
 11
271.0
 21
10.0
 31
0.0
  0
LINE
  5
58
100
AcDbEntity
  8
256
390
0
  6
Continuous
 62
     8
100
AcDbLine
 10
357.0
 20
287.0
 30
0.0
 11
357.0
 21
257.0
 31
0.0
  0
LINE
  5
59
100
AcDbEntity
  8
256
390
0
  6
Continuous
 62
     8
100
AcDbLine
 10
335.25
 20
35.0
 30
0.0
 11
410.0
 21
35.0
 31
0.0
  0
LINE
  5
5A
100
AcDbEntity
  8
256
390
0
  6
Continuous
 62
     8
100
AcDbLine
 10
227.0
 20
287.0
 30
0.0
 11
227.0
 21
257.0
 31
0.0
  0
LINE
  5
5B
100
AcDbEntity
  8
256
390
0
  6
Continuous
 62
     8
100
AcDbLine
 10
327.0
 20
287.0
 30
0.0
 11
327.0
 21
257.0
 31
0.0
  0
LINE
  5
5C
100
AcDbEntity
  8
256
390
0
  6
Continuous
 62
     8
100
AcDbLine
 10
229.511017
 20
272.368011
 30
0.0
 11
234.511017
 21
272.368011
 31
0.0
  0
LINE
  5
5D
100
AcDbEntity
  8
256
390
0
  6
Continuous
 62
     8
100
AcDbLine
 10
259.500031
 20
44.0
 30
0.0
 11
259.500031
 21
10.0
 31
0.0
  0
LINE
  5
5E
100
AcDbEntity
  8
256
390
0
  6
Continuous
 62
     8
100
AcDbLine
 10
320.25
 20
15.666667
 30
0.0
 11
410.0
 21
15.666667
 31
0.0
  0
LINE
  5
5F
100
AcDbEntity
  8
256
390
0
  6
Continuous
 62
     8
100
AcDbLine
 10
229.511017
 20
257.368011
 30
0.0
 11
234.511017
 21
257.368011
 31
0.0
  0
LINE
  5
60
100
AcDbEntity
  8
256
390
0
  6
Continuous
 62
     8
100
AcDbLine
 10
232.011017
 20
266.664886
 30
0.0
 11
229.511017
 21
262.368011
 31
0.0
  0
LINE
  5
61
100
AcDbEntity
  8
256
390
0
  6
Continuous
 62
     8
100
AcDbLine
 10
410.0
 20
257.0
 30
0.0
 11
227.0
 21
257.0
 31
0.0
  0
LINE
  5
62
100
AcDbEntity
  8
256
390
0
  6
Continuous
 62
     8
100
AcDbLine
 10
234.511017
 20
257.368011
 30
0.0
 11
232.011017
 21
261.664886
 31
0.0
  0
LINE
  5
63
100
AcDbEntity
  8
256
390
0
  6
Continuous
 62
     8
100
AcDbLine
 10
271.0
 20
26.5
 30
0.0
 11
410.0
 21
26.5
 31
0.0
  0
LINE
  5
64
100
AcDbEntity
  8
256
390
0
  6
Continuous
 62
     8
100
AcDbLine
 10
10.0
 20
10.0
 30
0.0
 11
10.0
 21
287.0
 31
0.0
  0
LINE
  5
65
100
AcDbEntity
  8
256
390
0
  6
Continuous
 62
     8
100
AcDbLine
 10
234.511017
 20
262.368011
 30
0.0
 11
232.011017
 21
266.664886
 31
0.0
  0
LINE
  5
66
100
AcDbEntity
  8
256
390
0
  6
Continuous
 62
     8
100
AcDbLine
 10
350.25
 20
15.666667
 30
0.0
 11
350.25
 21
48.0
 31
0.0
  0
LINE
  5
67
100
AcDbEntity
  8
256
390
0
  6
Continuous
 62
     8
100
AcDbLine
 10
307.164695
 20
32.573373
 30
0.0
 11
314.235801
 21
39.644442
 31
0.0
  0
LINE
  5
68
100
AcDbEntity
  8
256
390
0
  6
Continuous
 62
     8
100
AcDbLine
 10
357.0
 20
272.0
 30
0.0
 11
227.0
 21
272.0
 31
0.0
  0
LINE
  5
69
100
AcDbEntity
  8
256
390
0
  6
Continuous
 62
     8
100
AcDbLine
 10
234.511017
 20
272.368011
 30
0.0
 11
232.011017
 21
276.664886
 31
0.0
  0
MTEXT
  5
6A
100
AcDbEntity
  8
256
390
0
 62
     8
100
AcDbMText
 10
262.375031
 20
28.244792
 30
0.0
 40
1.75
 41
4.55
 71
     8
 72
     1
  1
0.5  
210
0.0
220
0.0
230
1.0
 73
     1
 44
1.0
  0
MTEXT
  5
6B
100
AcDbEntity
  8
256
390
0
 62
     8
100
AcDbMText
 10
250.875031
 20
21.244792
 30
0.0
 40
1.75
 41
4.55
 71
     8
 72
     1
  1
0.2  
210
0.0
220
0.0
230
1.0
 73
     1
 44
1.0
  0
MTEXT
  5
6C
100
AcDbEntity
  8
256
390
0
 62
     8
100
AcDbMText
 10
250.875031
 20
28.244792
 30
0.0
 40
1.75
 41
3.993182
 71
     8
 72
     1
  1
0.1  
210
0.0
220
0.0
230
1.0
 73
     1
 44
1.0
  0
MTEXT
  5
6D
100
AcDbEntity
  8
256
390
0
 62
     8
100
AcDbMText
 10
250.875031
 20
17.744792
 30
0.0
 40
1.75
 41
4.55
 71
     8
 72
     1
  1
0.3  
210
0.0
220
0.0
230
1.0
 73
     1
 44
1.0
  0
MTEXT
  5
6E
100
AcDbEntity
  8
256
390
0
 62
     8
100
AcDbMText
 10
287.02719
 20
42.856306
 30
0.0
 40
3.386667
 41
24.56873
 71
     8
 72
     1
  1
材    質  
210
0.0
220
0.0
230
1.0
 73
     1
 44
1.0
  0
MTEXT
  5
6F
100
AcDbEntity
  8
256
390
0
 62
     8
100
AcDbMText
 10
256.625031
 20
35.244792
 30
0.0
 40
1.75
 41
3.993182
 71
     8
 72
     1
  1
0.1  
210
0.0
220
0.0
230
1.0
 73
     1
 44
1.0
  0
MTEXT
  5
70
100
AcDbEntity
  8
256
390
0
 62
     8
100
AcDbMText
 10
268.125015
 20
14.244792
 30
0.0
 40
1.75
 41
1.590909
 71
     8
 72
     1
  1
6  
210
0.0
220
0.0
230
1.0
 73
     1
 44
1.0
  0
MTEXT
  5
71
100
AcDbEntity
  8
256
390
0
 62
     8
100
AcDbMText
 10
268.125015
 20
21.244792
 30
0.0
 40
1.75
 41
4.486364
 71
     8
 72
     1
  1
2.5  
210
0.0
220
0.0
230
1.0
 73
     1
 44
1.0
  0
MTEXT
  5
72
100
AcDbEntity
  8
256
390
0
 62
     8
100
AcDbMText
 10
312.52208
 20
42.980576
 30
0.0
 40
3.386667
 41
17.518305
 71
     8
 72
     1
  1
個 数  
210
0.0
220
0.0
230
1.0
 73
     1
 44
1.0
  0
MTEXT
  5
73
100
AcDbEntity
  8
256
390
0
 62
     8
100
AcDbMText
 10
360.130196
 20
257.742347
 30
0.0
 40
2.822222
 41
5.926666
 71
     8
 72
     1
  1
理  
210
0.0
220
0.0
230
1.0
 73
     1
 44
1.0
  0
MTEXT
  5
74
100
AcDbEntity
  8
256
390
0
 62
     8
100
AcDbMText
 10
257.063488
 20
41.133356
 30
0.0
 40
1.7952
 41
7.6704
 71
     8
 72
     1
  1
中級  
210
0.0
220
0.0
230
1.0
 73
     1
 44
1.0
  0
MTEXT
  5
75
100
AcDbEntity
  8
256
390
0
 62
     8
100
AcDbMText
 10
268.763424
 20
39.076539
 30
0.0
 40
2.0
 41
7.581818
 71
     8
 72
     1
  1
v %%p  
210
0.0
220
0.0
230
1.0
 73
     1
 44
1.0
  0
MTEXT
  5
76
100
AcDbEntity
  8
256
390
0
 62
     8
100
AcDbMText
 10
246.361108
 20
10.744792
 30
0.0
 40
1.75
 41
35.111364
 71
     9
 72
     1
  1
2000を超え4000以下  
210
0.0
220
0.0
230
1.0
 73
     1
 44
1.0
  0
MTEXT
  5
77
100
AcDbEntity
  8
256
390
0
 62
     8
100
AcDbMText
 10
315.229673
 20
32.880846
 30
0.0
 40
3.386667
 41
10.375516
 71
     8
 72
     1
  1
1台  
210
0.0
220
0.0
230
1.0
 73
     1
 44
1.0
  0
MTEXT
  5
78
100
AcDbEntity
  8
256
390
0
 62
     8
100
AcDbMText
 10
246.383663
 20
21.244792
 30
0.0
 40
1.75
 41
32.056818
 71
     9
 72
     1
  1
 120を超え 400以下  
210
0.0
220
0.0
230
1.0
 73
     1
 44
1.0
  0
MTEXT
  5
79
100
AcDbEntity
  8
256
390
0
 62
     8
100
AcDbMText
 10
388.380196
 20
278.047566
 30
0.0
 40
3.386667
 41
6.958061
 71
     8
 72
     1
  1
取  
210
0.0
220
0.0
230
1.0
 73
     1
 44
1.0
  0
MTEXT
  5
7A
100
AcDbEntity
  8
256
390
0
 62
     8
100
AcDbMText
 10
388.380196
 20
282.575181
 30
0.0
 40
3.386667
 41
6.68097
 71
     8
 72
     1
  1
面  
210
0.0
220
0.0
230
1.0
 73
     1
 44
1.0
  0
MTEXT
  5
7B
100
AcDbEntity
  8
256
390
0
 62
     8
100
AcDbMText
 10
230.223858
 20
38.623908
 30
0.0
 40
1.5
 41
24.272727
 71
     8
 72
     1
  1
寸法の区分(mm)  
210
0.0
220
0.0
230
1.0
 73
     1
 44
1.0
  0
MTEXT
  5
7C
100
AcDbEntity
  8
256
390
0
 62
     8
100
AcDbMText
 10
343.211504
 20
19.692223
 30
0.0
 40
3.386667
 41
16.902547
 71
     8
 72
     1
  1
図 番  
210
0.0
220
0.0
230
1.0
 73
     1
 44
1.0
  0
MTEXT
  5
7D
100
AcDbEntity
  8
256
390
0
 62
     8
100
AcDbMText
 10
262.375031
 20
31.744792
 30
0.0
 40
1.75
 41
4.55
 71
     8
 72
     1
  1
0.3  
210
0.0
220
0.0
230
1.0
 73
     1
 44
1.0
  0
MTEXT
  5
7E
100
AcDbEntity
  8
256
390
0
 62
     8
100
AcDbMText
 10
360.130196
 20
268.089407
 30
0.0
 40
3.386667
 41
7.112001
 71
     8
 72
     1
  1
理  
210
0.0
220
0.0
230
1.0
 73
     1
 44
1.0
  0
MTEXT
  5
7F
100
AcDbEntity
  8
256
390
0
 62
     8
100
AcDbMText
 10
246.369552
 20
14.244792
 30
0.0
 40
1.75
 41
34.888636
 71
     9
 72
     1
  1
1000を超え2000以下  
210
0.0
220
0.0
230
1.0
 73
     1
 44
1.0
  0
MTEXT
  5
80
100
AcDbEntity
  8
256
390
0
 62
     8
100
AcDbMText
 10
268.125015
 20
24.744792
 30
0.0
 40
1.75
 41
4.263636
 71
     8
 72
     1
  1
1.5  
210
0.0
220
0.0
230
1.0
 73
     1
 44
1.0
  0
MTEXT
  5
81
100
AcDbEntity
  8
256
390
0
 62
     8
100
AcDbMText
 10
262.375031
 20
35.244792
 30
0.0
 40
1.75
 41
4.55
 71
     8
 72
     1
  1
0.2  
210
0.0
220
0.0
230
1.0
 73
     1
 44
1.0
  0
MTEXT
  5
82
100
AcDbEntity
  8
256
390
0
 62
     8
100
AcDbMText
 10
351.983257
 20
283.013492
 30
0.0
 40
3.386667
 41
21.551517
 71
     8
 72
     1
  1
年月日     
210
0.0
220
0.0
230
1.0
 73
     1
 44
1.0
  0
MTEXT
  5
83
100
AcDbEntity
  8
256
390
0
 62
     8
100
AcDbMText
 10
250.875031
 20
31.744792
 30
0.0
 40
1.75
 41
6.586364
 71
     8
 72
     1
  1
0.05  
210
0.0
220
0.0
230
1.0
 73
     1
 44
1.0
  0
MTEXT
  5
84
100
AcDbEntity
  8
256
390
0
 62
     8
100
AcDbMText
 10
250.875031
 20
35.244792
 30
0.0
 40
1.75
 41
6.586364
 71
     8
 72
     1
  1
0.05  
210
0.0
220
0.0
230
1.0
 73
     1
 44
1.0
  0
MTEXT
  5
85
100
AcDbEntity
  8
256
390
0
 62
     8
100
AcDbMText
 10
262.375031
 20
10.744792
 30
0.0
 40
1.75
 41
1.765909
 71
     8
 72
     1
  1
4  
210
0.0
220
0.0
230
1.0
 73
     1
 44
1.0
  0
MTEXT
  5
86
100
AcDbEntity
  8
256
390
0
 62
     8
100
AcDbMText
 10
343.259623
 20
40.051182
 30
0.0
 40
3.386667
 41
17.210426
 71
     8
 72
     1
  1
名 称  
210
0.0
220
0.0
230
1.0
 73
     1
 44
1.0
  0
MTEXT
  5
87
100
AcDbEntity
  8
256
390
0
 62
     8
100
AcDbMText
 10
280.042689
 20
27.073014
 30
0.0
 40
3.386667
 41
17.241214
 71
     8
 72
     1
  1
設 計  
210
0.0
220
0.0
230
1.0
 73
     1
 44
1.0
  0
MTEXT
  5
88
100
AcDbEntity
  8
256
390
0
 62
     8
100
AcDbMText
 10
268.125015
 20
17.744792
 30
0.0
 40
1.75
 41
1.765909
 71
     8
 72
     1
  1
4  
210
0.0
220
0.0
230
1.0
 73
     1
 44
1.0
  0
MTEXT
  5
89
100
AcDbEntity
  8
256
390
0
 62
     8
100
AcDbMText
 10
256.625031
 20
28.244792
 30
0.0
 40
1.75
 41
4.55
 71
     8
 72
     1
  1
0.2  
210
0.0
220
0.0
230
1.0
 73
     1
 44
1.0
  0
MTEXT
  5
8A
100
AcDbEntity
  8
256
390
0
 62
     8
100
AcDbMText
 10
246.368174
 20
17.744792
 30
0.0
 40
1.75
 41
33.138636
 71
     9
 72
     1
  1
 400を超え1000以下  
210
0.0
220
0.0
230
1.0
 73
     1
 44
1.0
  0
MTEXT
  5
8B
100
AcDbEntity
  8
256
390
0
 62
     8
100
AcDbMText
 10
250.875031
 20
14.244792
 30
0.0
 40
1.75
 41
4.55
 71
     8
 72
     1
  1
0.5  
210
0.0
220
0.0
230
1.0
 73
     1
 44
1.0
  0
MTEXT
  5
8C
100
AcDbEntity
  8
256
390
0
 62
     8
100
AcDbMText
 10
257.26344
 20
39.076539
 30
0.0
 40
2.0
 41
8.563636
 71
     8
 72
     1
  1
m %%p  
210
0.0
220
0.0
230
1.0
 73
     1
 44
1.0
  0
MTEXT
  5
8D
100
AcDbEntity
  8
256
390
0
 62
     8
100
AcDbMText
 10
246.444454
 20
35.244792
 30
0.0
 40
1.75
 41
29.543182
 71
     9
 72
     1
  1
 0.5を超え   3以下  
210
0.0
220
0.0
230
1.0
 73
     1
 44
1.0
  0
MTEXT
  5
8E
100
AcDbEntity
  8
256
390
0
 62
     8
100
AcDbMText
 10
246.445896
 20
31.744792
 30
0.0
 40
1.75
 41
26.615909
 71
     9
 72
     1
  1
   3を超え   6以下  
210
0.0
220
0.0
230
1.0
 73
     1
 44
1.0
  0
MTEXT
  5
8F
100
AcDbEntity
  8
256
390
0
 62
     8
100
AcDbMText
 10
343.228244
 20
29.512776
 30
0.0
 40
2.54
 41
22.998545
 71
     8
 72
     1
  1
部品番号  
210
0.0
220
0.0
230
1.0
 73
     1
 44
1.0
  0
MTEXT
  5
90
100
AcDbEntity
  8
256
390
0
 62
     8
100
AcDbMText
 10
251.19527
 20
41.133356
 30
0.0
 40
1.7952
 41
8.04576
 71
     8
 72
     1
  1
精級  
210
0.0
220
0.0
230
1.0
 73
     1
 44
1.0
  0
MTEXT
  5
91
100
AcDbEntity
  8
256
390
0
 62
     8
100
AcDbMText
 10
246.399214
 20
24.744792
 30
0.0
 40
1.75
 41
30.243182
 71
     9
 72
     1
  1
  30を超え 120以下  
210
0.0
220
0.0
230
1.0
 73
     1
 44
1.0
  0
MTEXT
  5
92
100
AcDbEntity
  8
256
390
0
 62
     8
100
AcDbMText
 10
262.375031
 20
24.744792
 30
0.0
 40
1.75
 41
4.565909
 71
     8
 72
     1
  1
0.8  
210
0.0
220
0.0
230
1.0
 73
     1
 44
1.0
  0
MTEXT
  5
93
100
AcDbEntity
  8
256
390
0
 62
     8
100
AcDbMText
 10
242.4153
 20
40.925781
 30
0.0
 40
1.5
 41
13.636364
 71
     8
 72
     1
  1
公差等級  
210
0.0
220
0.0
230
1.0
 73
     1
 44
1.0
  0
MTEXT
  5
94
100
AcDbEntity
  8
256
390
0
 62
     8
100
AcDbMText
 10
246.430153
 20
28.244792
 30
0.0
 40
1.75
 41
27.395455
 71
     9
 72
     1
  1
   6を超え  30以下  
210
0.0
220
0.0
230
1.0
 73
     1
 44
1.0
  0
MTEXT
  5
95
100
AcDbEntity
  8
256
390
0
 62
     8
100
AcDbMText
 10
285.330511
 20
282.942152
 30
0.0
 40
3.386667
 41
59.482188
 71
     8
 72
     1
  1
訂    正    内    容  
210
0.0
220
0.0
230
1.0
 73
     1
 44
1.0
  0
MTEXT
  5
96
100
AcDbEntity
  8
256
390
0
 62
     8
100
AcDbMText
 10
256.625031
 20
24.744792
 30
0.0
 40
1.75
 41
4.55
 71
     8
 72
     1
  1
0.3  
210
0.0
220
0.0
230
1.0
 73
     1
 44
1.0
  0
MTEXT
  5
97
100
AcDbEntity
  8
256
390
0
 62
     8
100
AcDbMText
 10
262.375031
 20
17.744792
 30
0.0
 40
1.75
 41
1.622727
 71
     8
 72
     1
  1
2  
210
0.0
220
0.0
230
1.0
 73
     1
 44
1.0
  0
MTEXT
  5
98
100
AcDbEntity
  8
256
390
0
 62
     8
100
AcDbMText
 10
262.375031
 20
14.244792
 30
0.0
 40
1.75
 41
1.622727
 71
     8
 72
     1
  1
3  
210
0.0
220
0.0
230
1.0
 73
     1
 44
1.0
  0
MTEXT
  5
99
100
AcDbEntity
  8
256
390
0
 62
     8
100
AcDbMText
 10
328.687321
 20
19.668163
 30
0.0
 40
3.386667
 41
22.536729
 71
     8
 72
     1
  1
三角法  
210
0.0
220
0.0
230
1.0
 73
     1
 44
1.0
  0
MTEXT
  5
9A
100
AcDbEntity
  8
256
390
0
 62
     8
100
AcDbMText
 10
365.92539
 20
11.0735
 30
0.0
 40
3.386667
 41
99.506434
 71
     8
 72
     1
  1
双 葉 電 子 工 業 株 式 会 社  
210
0.0
220
0.0
230
1.0
 73
     1
 44
1.0
  0
MTEXT
  5
9B
100
AcDbEntity
  8
256
390
0
 62
     8
100
AcDbMText
 10
256.625031
 20
17.744792
 30
0.0
 40
1.75
 41
4.565909
 71
     8
 72
     1
  1
0.8  
210
0.0
220
0.0
230
1.0
 73
     1
 44
1.0
  0
MTEXT
  5
9C
100
AcDbEntity
  8
256
390
0
 62
     8
100
AcDbMText
 10
312.769883
 20
27.273035
 30
0.0
 40
3.386667
 41
17.518305
 71
     8
 72
     1
  1
承 認  
210
0.0
220
0.0
230
1.0
 73
     1
 44
1.0
  0
MTEXT
  5
9D
100
AcDbEntity
  8
256
390
0
 62
     8
100
AcDbMText
 10
268.125015
 20
28.244792
 30
0.0
 40
1.75
 41
0.843182
 71
     8
 72
     1
  1
1  
210
0.0
220
0.0
230
1.0
 73
     1
 44
1.0
  0
MTEXT
  5
9E
100
AcDbEntity
  8
256
390
0
 62
     8
100
AcDbMText
 10
247.07562
 20
45.235875
 30
0.0
 40
1.7
 41
74.846364
 71
     8
 72
     1
  1
削り加工寸法の普通許容差 JIS B 0405-1991  
210
0.0
220
0.0
230
1.0
 73
     1
 44
1.0
  0
MTEXT
  5
9F
100
AcDbEntity
  8
256
390
0
 62
     8
100
AcDbMText
 10
250.875031
 20
24.744792
 30
0.0
 40
1.75
 41
6.586364
 71
     8
 72
     1
  1
0.15  
210
0.0
220
0.0
230
1.0
 73
     1
 44
1.0
  0
MTEXT
  5
A0
100
AcDbEntity
  8
256
390
0
 62
     8
100
AcDbMText
 10
250.875031
 20
9.839584
 30
0.0
 40
2.54
 41
2.632364
 71
     8
 72
     1
  1
-  
210
0.0
220
0.0
230
1.0
 73
     1
 44
1.0
  0
MTEXT
  5
A1
100
AcDbEntity
  8
256
390
0
 62
     8
100
AcDbMText
 10
296.045235
 20
27.214792
 30
0.0
 40
3.386667
 41
17.025699
 71
     8
 72
     1
  1
検 図  
210
0.0
220
0.0
230
1.0
 73
     1
 44
1.0
  0
MTEXT
  5
A2
100
AcDbEntity
  8
256
390
0
 62
     8
100
AcDbMText
 10
268.125015
 20
34.339584
 30
0.0
 40
2.54
 41
2.632364
 71
     8
 72
     1
  1
-  
210
0.0
220
0.0
230
1.0
 73
     1
 44
1.0
  0
MTEXT
  5
A3
100
AcDbEntity
  8
256
390
0
 62
     8
100
AcDbMText
 10
256.625031
 20
31.744792
 30
0.0
 40
1.75
 41
3.993182
 71
     8
 72
     1
  1
0.1  
210
0.0
220
0.0
230
1.0
 73
     1
 44
1.0
  0
MTEXT
  5
A4
100
AcDbEntity
  8
256
390
0
 62
     8
100
AcDbMText
 10
263.01344
 20
39.076539
 30
0.0
 40
2.0
 41
7.527273
 71
     8
 72
     1
  1
c %%p  
210
0.0
220
0.0
230
1.0
 73
     1
 44
1.0
  0
MTEXT
  5
A5
100
AcDbEntity
  8
256
390
0
 62
     8
100
AcDbMText
 10
360.130196
 20
278.047566
 30
0.0
 40
3.386667
 41
6.68097
 71
     8
 72
     1
  1
上  
210
0.0
220
0.0
230
1.0
 73
     1
 44
1.0
  0
MTEXT
  5
A6
100
AcDbEntity
  8
256
390
0
 62
     8
100
AcDbMText
 10
232.748022
 20
282.92144
 30
0.0
 40
3.386667
 41
14.870547
 71
     8
 72
     1
  1
記号  
210
0.0
220
0.0
230
1.0
 73
     1
 44
1.0
  0
MTEXT
  5
A7
100
AcDbEntity
  8
256
390
0
 62
     8
100
AcDbMText
 10
256.625031
 20
21.244792
 30
0.0
 40
1.75
 41
4.55
 71
     8
 72
     1
  1
0.5  
210
0.0
220
0.0
230
1.0
 73
     1
 44
1.0
  0
MTEXT
  5
A8
100
AcDbEntity
  8
256
390
0
 62
     8
100
AcDbMText
 10
256.625031
 20
10.744792
 30
0.0
 40
1.75
 41
1.622727
 71
     8
 72
     1
  1
2  
210
0.0
220
0.0
230
1.0
 73
     1
 44
1.0
  0
MTEXT
  5
A9
100
AcDbEntity
  8
256
390
0
 62
     8
100
AcDbMText
 10
262.375031
 20
21.244792
 30
0.0
 40
1.75
 41
4.263636
 71
     8
 72
     1
  1
1.2  
210
0.0
220
0.0
230
1.0
 73
     1
 44
1.0
  0
MTEXT
  5
AA
100
AcDbEntity
  8
256
390
0
 62
     8
100
AcDbMText
 10
360.130196
 20
282.575181
 30
0.0
 40
3.386667
 41
7.050425
 71
     8
 72
     1
  1
仕  
210
0.0
220
0.0
230
1.0
 73
     1
 44
1.0
  0
MTEXT
  5
AB
100
AcDbEntity
  8
256
390
0
 62
     8
100
AcDbMText
 10
268.125015
 20
10.744792
 30
0.0
 40
1.75
 41
1.654545
 71
     8
 72
     1
  1
8  
210
0.0
220
0.0
230
1.0
 73
     1
 44
1.0
  0
MTEXT
  5
AC
100
AcDbEntity
  8
256
390
0
 62
     8
100
AcDbMText
 10
360.130196
 20
260.858133
 30
0.0
 40
2.822222
 41
5.875353
 71
     8
 72
     1
  1
処  
210
0.0
220
0.0
230
1.0
 73
     1
 44
1.0
  0
MTEXT
  5
AD
100
AcDbEntity
  8
256
390
0
 62
     8
100
AcDbMText
 10
336.870941
 20
283.013492
 30
0.0
 40
3.386667
 41
22.81382
 71
     8
 72
     1
  1
担当者     
210
0.0
220
0.0
230
1.0
 73
     1
 44
1.0
  0
MTEXT
  5
AE
100
AcDbEntity
  8
256
390
0
 62
     8
100
AcDbMText
 10
251.577735
 20
39.076539
 30
0.0
 40
2.0
 41
6.836364
 71
     8
 72
     1
  1
f %%p  
210
0.0
220
0.0
230
1.0
 73
     1
 44
1.0
  0
MTEXT
  5
AF
100
AcDbEntity
  8
256
390
0
 62
     8
100
AcDbMText
 10
360.130196
 20
263.973919
 30
0.0
 40
2.822222
 41
5.952323
 71
     8
 72
     1
  1
熱  
210
0.0
220
0.0
230
1.0
 73
     1
 44
1.0
  0
MTEXT
  5
B0
100
AcDbEntity
  8
256
390
0
 62
     8
100
AcDbMText
 10
268.125015
 20
31.744792
 30
0.0
 40
1.75
 41
4.55
 71
     8
 72
     1
  1
0.5  
210
0.0
220
0.0
230
1.0
 73
     1
 44
1.0
  0
MTEXT
  5
B1
100
AcDbEntity
  8
256
390
0
 62
     8
100
AcDbMText
 10
328.494219
 20
43.012096
 30
0.0
 40
3.386667
 41
17.30279
 71
     8
 72
     1
  1
尺 度  
210
0.0
220
0.0
230
1.0
 73
     1
 44
1.0
  0
MTEXT
  5
B2
100
AcDbEntity
  8
256
390
0
 62
     8
100
AcDbMText
 10
262.660189
 20
41.133356
 30
0.0
 40
1.7952
 41
7.9968
 71
     8
 72
     1
  1
粗級  
210
0.0
220
0.0
230
1.0
 73
     1
 44
1.0
  0
MTEXT
  5
B3
100
AcDbEntity
  8
256
390
0
 62
     8
100
AcDbMText
 10
225.086682
 20
40.357732
 30
0.0
 40
1.5
 41
6.640909
 71
     8
 72
     1
  1
基準  
210
0.0
220
0.0
230
1.0
 73
     1
 44
1.0
  0
MTEXT
  5
B4
100
AcDbEntity
  8
256
390
0
 62
     8
100
AcDbMText
 10
268.384088
 20
41.201556
 30
0.0
 40
1.584
 41
10.8
 71
     8
 72
     1
  1
極粗級  
210
0.0
220
0.0
230
1.0
 73
     1
 44
1.0
  0
MTEXT
  5
B5
100
AcDbEntity
  8
256
390
0
 62
     8
100
AcDbMText
 10
256.625031
 20
14.244792
 30
0.0
 40
1.75
 41
4.263636
 71
     8
 72
     1
  1
1.2  
210
0.0
220
0.0
230
1.0
 73
     1
 44
1.0
  0
MTEXT
  5
B6
100
AcDbEntity
  8
256
390
0
 62
     8
100
AcDbMText
 10
360.130196
 20
272.53334
 30
0.0
 40
3.386667
 41
7.050425
 71
     8
 72
     1
  1
処  
210
0.0
220
0.0
230
1.0
 73
     1
 44
1.0
  0
INSERT
  5
BB
100
AcDbEntity
  8
256
390
0
100
AcDbBlockReference
  2
AID287
 10
0.0
 20
0.0
 30
0.0
  0
LINE
  5
BD
100
AcDbEntity
  8
1
390
0
  6
Continuous
 62
     7
100
AcDbLine
 10
127.692179
 20
197.781783
 30
0.0
 11
127.692179
 21
194.781783
 31
0.0
  0
LINE
  5
BE
100
AcDbEntity
  8
1
390
0
  6
Continuous
 62
     7
100
AcDbLine
 10
126.492179
 20
207.781783
 30
0.0
 11
132.792179
 21
207.781783
 31
0.0
  0
LINE
  5
BF
100
AcDbEntity
  8
1
390
0
  6
Continuous
 62
     7
100
AcDbLine
 10
132.792179
 20
207.781783
 30
0.0
 11
132.792179
 21
192.281783
 31
0.0
  0
LINE
  5
C0
100
AcDbEntity
  8
1
390
0
  6
Continuous
 62
     7
100
AcDbLine
 10
132.792179
 20
192.281783
 30
0.0
 11
126.492179
 21
192.281783
 31
0.0
  0
LINE
  5
C1
100
AcDbEntity
  8
1
390
0
  6
Continuous
 62
     7
100
AcDbLine
 10
126.492179
 20
192.281783
 30
0.0
 11
126.492179
 21
207.781783
 31
0.0
  0
LINE
  5
C2
100
AcDbEntity
  8
1
390
0
  6
Continuous
 62
     7
100
AcDbLine
 10
127.692179
 20
205.031783
 30
0.0
 11
127.692179
 21
202.531783
 31
0.0
  0
LINE
  5
C3
100
AcDbEntity
  8
1
390
0
  6
Continuous
 62
     7
100
AcDbLine
 10
127.992179
 20
193.031783
 30
0.0
 11
127.992179
 21
194.781783
 31
0.0
  0
LINE
  5
C4
100
AcDbEntity
  8
1
390
0
  6
Continuous
 62
     7
100
AcDbLine
 10
127.992179
 20
197.781783
 30
0.0
 11
127.992179
 21
199.531783
 31
0.0
  0
LINE
  5
C5
100
AcDbEntity
  8
1
390
0
  6
Continuous
 62
     7
100
AcDbLine
 10
127.992179
 20
197.781783
 30
0.0
 11
127.692179
 21
197.781783
 31
0.0
  0
LINE
  5
C6
100
AcDbEntity
  8
1
390
0
  6
Continuous
 62
     7
100
AcDbLine
 10
127.992179
 20
199.531783
 30
0.0
 11
131.492179
 21
199.531783
 31
0.0
  0
LINE
  5
C7
100
AcDbEntity
  8
1
390
0
  6
Continuous
 62
     7
100
AcDbLine
 10
127.992179
 20
205.031783
 30
0.0
 11
127.692179
 21
205.031783
 31
0.0
  0
LINE
  5
C8
100
AcDbEntity
  8
1
390
0
  6
Continuous
 62
     7
100
AcDbLine
 10
131.492179
 20
193.031783
 30
0.0
 11
127.992179
 21
193.031783
 31
0.0
  0
LINE
  5
C9
100
AcDbEntity
  8
1
390
0
  6
Continuous
 62
     7
100
AcDbLine
 10
131.492179
 20
207.031783
 30
0.0
 11
131.492179
 21
200.531783
 31
0.0
  0
LINE
  5
CA
100
AcDbEntity
  8
1
390
0
  6
Continuous
 62
     7
100
AcDbLine
 10
127.992179
 20
207.031783
 30
0.0
 11
131.492179
 21
207.031783
 31
0.0
  0
LINE
  5
CB
100
AcDbEntity
  8
1
390
0
  6
Continuous
 62
     7
100
AcDbLine
 10
127.692179
 20
202.531783
 30
0.0
 11
127.992179
 21
202.531783
 31
0.0
  0
LINE
  5
CC
100
AcDbEntity
  8
1
390
0
  6
Continuous
 62
     7
100
AcDbLine
 10
131.492179
 20
200.531783
 30
0.0
 11
127.992179
 21
200.531783
 31
0.0
  0
LINE
  5
CD
100
AcDbEntity
  8
1
390
0
  6
Continuous
 62
     7
100
AcDbLine
 10
127.692179
 20
194.781783
 30
0.0
 11
127.992179
 21
194.781783
 31
0.0
  0
LINE
  5
CE
100
AcDbEntity
  8
1
390
0
  6
Continuous
 62
     7
100
AcDbLine
 10
131.492179
 20
199.531783
 30
0.0
 11
131.492179
 21
193.031783
 31
0.0
  0
LINE
  5
CF
100
AcDbEntity
  8
1
390
0
  6
Continuous
 62
     7
100
AcDbLine
 10
127.992179
 20
200.531783
 30
0.0
 11
127.992179
 21
202.531783
 31
0.0
  0
LINE
  5
D0
100
AcDbEntity
  8
1
390
0
  6
Continuous
 62
     7
100
AcDbLine
 10
127.992179
 20
205.031783
 30
0.0
 11
127.992179
 21
207.031783
 31
0.0
  0
LINE
  5
D1
100
AcDbEntity
  8
1
390
0
  6
Continuous
 62
     7
100
AcDbLine
 10
129.692179
 20
194.781783
 30
0.0
 11
129.692179
 21
197.781783
 31
0.0
  0
LINE
  5
D2
100
AcDbEntity
  8
1
390
0
  6
Continuous
 62
     7
100
AcDbLine
 10
129.692179
 20
197.781783
 30
0.0
 11
127.992179
 21
197.781783
 31
0.0
  0
LINE
  5
D3
100
AcDbEntity
  8
1
390
0
  6
Continuous
 62
     7
100
AcDbLine
 10
127.992179
 20
194.781783
 30
0.0
 11
129.692179
 21
194.781783
 31
0.0
  0
LINE
  5
D4
100
AcDbEntity
  8
1
390
0
  6
Continuous
 62
     7
100
AcDbLine
 10
129.692179
 20
202.531783
 30
0.0
 11
129.692179
 21
205.031783
 31
0.0
  0
LINE
  5
D5
100
AcDbEntity
  8
1
390
0
  6
Continuous
 62
     7
100
AcDbLine
 10
129.692179
 20
205.031783
 30
0.0
 11
127.992179
 21
205.031783
 31
0.0
  0
LINE
  5
D6
100
AcDbEntity
  8
1
390
0
  6
Continuous
 62
     7
100
AcDbLine
 10
127.992179
 20
202.531783
 30
0.0
 11
129.692179
 21
202.531783
 31
0.0
  0
LINE
  5
D7
100
AcDbEntity
  8
1
390
0
  6
Continuous
 62
     7
100
AcDbLine
 10
132.992179
 20
192.081783
 30
0.0
 11
126.292179
 21
192.081783
 31
0.0
  0
LINE
  5
D8
100
AcDbEntity
  8
1
390
0
  6
Continuous
 62
     7
100
AcDbLine
 10
132.992179
 20
207.981783
 30
0.0
 11
132.992179
 21
192.081783
 31
0.0
  0
LINE
  5
D9
100
AcDbEntity
  8
1
390
0
  6
Continuous
 62
     7
100
AcDbLine
 10
126.292179
 20
192.081783
 30
0.0
 11
126.292179
 21
207.981783
 31
0.0
  0
ARC
  5
DA
100
AcDbEntity
  8
1
390
0
  6
Continuous
 62
     7
100
AcDbCircle
 10
197.492179
 20
214.781783
 30
0.0
 40
2.0
210
0.0
220
0.0
230
0.9999999999999999
100
AcDbArc
 50
360.0
 51
90.0
  0
LINE
  5
DB
100
AcDbEntity
  8
1
390
0
  6
Continuous
 62
     7
100
AcDbLine
 10
199.492179
 20
214.781783
 30
0.0
 11
199.492179
 21
168.781783
 31
0.0
  0
ARC
  5
DC
100
AcDbEntity
  8
1
390
0
  6
Continuous
 62
     7
100
AcDbCircle
 10
197.492179
 20
168.781783
 30
0.0
 40
2.0
210
0.0
220
0.0
230
0.9999999999999999
100
AcDbArc
 50
270.0
 51
360.0
  0
LINE
  5
DD
100
AcDbEntity
  8
1
390
0
  6
Continuous
 62
     7
100
AcDbLine
 10
126.292179
 20
207.981783
 30
0.0
 11
132.992179
 21
207.981783
 31
0.0
  0
LINE
  5
DE
100
AcDbEntity
  8
1
390
0
  6
Continuous
 62
     7
100
AcDbLine
 10
121.492179
 20
168.781783
 30
0.0
 11
121.492179
 21
214.781783
 31
0.0
  0
ARC
  5
DF
100
AcDbEntity
  8
1
390
0
  6
Continuous
 62
     7
100
AcDbCircle
 10
123.492179
 20
168.781783
 30
0.0
 40
2.0
210
0.0
220
0.0
230
0.9999999999999999
100
AcDbArc
 50
180.0
 51
270.0
  0
LINE
  5
E0
100
AcDbEntity
  8
1
390
0
  6
Continuous
 62
     7
100
AcDbLine
 10
197.492179
 20
166.781783
 30
0.0
 11
123.492179
 21
166.781783
 31
0.0
  0
ARC
  5
E1
100
AcDbEntity
  8
1
390
0
  6
Continuous
 62
     7
100
AcDbCircle
 10
123.492179
 20
214.781783
 30
0.0
 40
2.0
210
0.0
220
0.0
230
0.9999999999999999
100
AcDbArc
 50
90.0
 51
180.0
  0
LINE
  5
E2
100
AcDbEntity
  8
1
390
0
  6
Continuous
 62
     7
100
AcDbLine
 10
123.492179
 20
216.781783
 30
0.0
 11
197.492179
 21
216.781783
 31
0.0
  0
LINE
  5
E3
100
AcDbEntity
  8
1
390
0
  6
Continuous
 62
     7
100
AcDbLine
 10
201.492179
 20
164.281783
 30
0.0
 11
118.492179
 21
164.281783
 31
0.0
  0
LINE
  5
E4
100
AcDbEntity
  8
1
390
0
  6
Continuous
 62
     7
100
AcDbLine
 10
118.492179
 20
164.281783
 30
0.0
 11
118.492179
 21
166.281783
 31
0.0
  0
LINE
  5
E5
100
AcDbEntity
  8
1
390
0
  6
Continuous
 62
     7
100
AcDbLine
 10
118.492179
 20
219.281783
 30
0.0
 11
201.492179
 21
219.281783
 31
0.0
  0
LINE
  5
E6
100
AcDbEntity
  8
1
390
0
  6
Continuous
 62
     7
100
AcDbLine
 10
118.492179
 20
217.281783
 30
0.0
 11
118.492179
 21
219.281783
 31
0.0
  0
ARC
  5
E7
100
AcDbEntity
  8
1
390
0
  6
Continuous
 62
     7
100
AcDbCircle
 10
201.492179
 20
218.281783
 30
0.0
 40
1.0
210
0.0
220
0.0
230
1.0
100
AcDbArc
 50
0.0
 51
90.0
  0
ARC
  5
E8
100
AcDbEntity
  8
1
390
0
  6
Continuous
 62
     7
100
AcDbCircle
 10
201.492179
 20
165.281783
 30
0.0
 40
1.0
210
0.0
220
0.0
230
1.0
100
AcDbArc
 50
270.0
 51
360.0
  0
LINE
  5
E9
100
AcDbEntity
  8
1
390
0
  6
Continuous
 62
     7
100
AcDbLine
 10
202.492179
 20
218.281783
 30
0.0
 11
202.492179
 21
165.281783
 31
0.0
  0
LINE
  5
EA
100
AcDbEntity
  8
1
390
0
  6
Continuous
 62
     7
100
AcDbLine
 10
118.492179
 20
166.281783
 30
0.0
 11
118.492179
 21
217.281783
 31
0.0
  0
LINE
  5
EB
100
AcDbEntity
  8
1
390
0
  6
Continuous
 62
     7
100
AcDbLine
 10
203.992179
 20
209.781783
 30
0.0
 11
203.992179
 21
200.781783
 31
0.0
  0
LINE
  5
EC
100
AcDbEntity
  8
1
390
0
  6
Continuous
 62
     7
100
AcDbLine
 10
207.492179
 20
202.281783
 30
0.0
 11
207.492179
 21
208.281783
 31
0.0
  0
ARC
  5
EE
100
AcDbEntity
  8
1
390
0
  6
DOT
 62
     9
100
AcDbCircle
 10
126.492179
 20
191.781783
 30
0.0
 40
6.0
210
0.0
220
0.0
230
1.0
100
AcDbArc
 50
180.0
 51
213.55731
  0
ARC
  5
EF
100
AcDbEntity
  8
1
390
0
  6
DOT
 62
     9
100
AcDbCircle
 10
126.492179
 20
191.781783
 30
0.0
 40
6.0
210
0.0
220
0.0
230
1.0
100
AcDbArc
 50
213.55731
 51
2.865984
  0
ARC
  5
F0
100
AcDbEntity
  8
1
390
0
  6
DOT
 62
     9
100
AcDbCircle
 10
126.492179
 20
191.781783
 30
0.0
 40
6.0
210
0.0
220
0.0
230
0.9999999999999999
100
AcDbArc
 50
2.865984
 51
4.780192
  0
ARC
  5
F1
100
AcDbEntity
  8
1
390
0
  6
DOT
 62
     9
100
AcDbCircle
 10
126.492179
 20
191.781783
 30
0.0
 40
6.0
210
0.0
220
0.0
230
0.9999999999999999
100
AcDbArc
 50
4.780192
 51
33.55731
  0
ARC
  5
F2
100
AcDbEntity
  8
1
390
0
  6
DOT
 62
     9
100
AcDbCircle
 10
126.492179
 20
191.781783
 30
0.0
 40
6.0
210
0.0
220
0.0
230
1.0
100
AcDbArc
 50
33.55731
 51
57.769047
  0
ARC
  5
F3
100
AcDbEntity
  8
1
390
0
  6
DOT
 62
     9
100
AcDbCircle
 10
126.492179
 20
191.781783
 30
0.0
 40
6.0
210
0.0
220
0.0
230
1.0
100
AcDbArc
 50
57.769047
 51
78.463041
  0
ARC
  5
F4
100
AcDbEntity
  8
1
390
0
  6
DOT
 62
     9
100
AcDbCircle
 10
126.492179
 20
191.781783
 30
0.0
 40
6.0
210
0.0
220
0.0
230
1.0
100
AcDbArc
 50
78.463041
 51
90.0
  0
ARC
  5
F5
100
AcDbEntity
  8
1
390
0
  6
DOT
 62
     9
100
AcDbCircle
 10
126.492179
 20
191.781783
 30
0.0
 40
6.0
210
0.0
220
0.0
230
1.0
100
AcDbArc
 50
90.0
 51
91.910213
  0
ARC
  5
F6
100
AcDbEntity
  8
1
390
0
  6
DOT
 62
     9
100
AcDbCircle
 10
126.492179
 20
191.781783
 30
0.0
 40
6.0
210
0.0
220
0.0
230
1.0
100
AcDbArc
 50
91.910213
 51
146.44269
  0
ARC
  5
F7
100
AcDbEntity
  8
1
390
0
  6
DOT
 62
     9
100
AcDbCircle
 10
126.492179
 20
191.781783
 30
0.0
 40
6.0
210
0.0
220
0.0
230
1.0
100
AcDbArc
 50
146.44269
 51
180.0
  0
ARC
  5
F8
100
AcDbEntity
  8
1
390
0
  6
DOT
 62
     9
100
AcDbCircle
 10
126.492179
 20
191.781783
 30
0.0
 40
8.0
210
0.0
220
0.0
230
1.0
100
AcDbArc
 50
231.317813
 51
360.0
  0
ARC
  5
F9
100
AcDbEntity
  8
1
390
0
  6
DOT
 62
     9
100
AcDbCircle
 10
126.492179
 20
191.781783
 30
0.0
 40
8.0
210
0.0
220
0.0
230
1.0
100
AcDbArc
 50
180.0
 51
231.317813
  0
ARC
  5
FA
100
AcDbEntity
  8
1
390
0
  6
DOT
 62
     9
100
AcDbCircle
 10
126.492179
 20
191.781783
 30
0.0
 40
8.0
210
0.0
220
0.0
230
1.0
100
AcDbArc
 50
128.682187
 51
180.0
  0
ARC
  5
FB
100
AcDbEntity
  8
1
390
0
  6
DOT
 62
     9
100
AcDbCircle
 10
126.492179
 20
191.781783
 30
0.0
 40
8.0
210
0.0
220
0.0
230
1.0
100
AcDbArc
 50
91.432544
 51
128.682187
  0
ARC
  5
FC
100
AcDbEntity
  8
1
390
0
  6
DOT
 62
     9
100
AcDbCircle
 10
126.492179
 20
191.781783
 30
0.0
 40
8.0
210
0.0
220
0.0
230
1.0
100
AcDbArc
 50
90.0
 51
91.432544
  0
ARC
  5
FD
100
AcDbEntity
  8
1
390
0
  6
DOT
 62
     9
100
AcDbCircle
 10
126.492179
 20
191.781783
 30
0.0
 40
8.0
210
0.0
220
0.0
230
1.0
100
AcDbArc
 50
75.638488
 51
90.0
  0
ARC
  5
FE
100
AcDbEntity
  8
1
390
0
  6
DOT
 62
     9
100
AcDbCircle
 10
126.492179
 20
191.781783
 30
0.0
 40
8.0
210
0.0
220
0.0
230
1.0
100
AcDbArc
 50
51.317813
 51
75.638488
  0
ARC
  5
FF
100
AcDbEntity
  8
1
390
0
  6
DOT
 62
     9
100
AcDbCircle
 10
126.492179
 20
191.781783
 30
0.0
 40
8.0
210
0.0
220
0.0
230
1.0
100
AcDbArc
 50
38.047507
 51
51.317813
  0
ARC
  5
100
100
AcDbEntity
  8
1
390
0
  6
DOT
 62
     9
100
AcDbCircle
 10
126.492179
 20
191.781783
 30
0.0
 40
8.0
210
0.0
220
0.0
230
1.0
100
AcDbArc
 50
35.659088
 51
38.047507
  0
ARC
  5
101
100
AcDbEntity
  8
1
390
0
  6
DOT
 62
     9
100
AcDbCircle
 10
126.492179
 20
191.781783
 30
0.0
 40
8.0
210
0.0
220
0.0
230
1.0
100
AcDbArc
 50
360.0
 51
35.659088
  0
ARC
  5
102
100
AcDbEntity
  8
1
390
0
  6
DOT
 62
     9
100
AcDbCircle
 10
194.492179
 20
191.781783
 30
0.0
 40
8.0
210
0.0
220
0.0
230
1.0
100
AcDbArc
 50
0.0
 51
51.317813
  0
ARC
  5
103
100
AcDbEntity
  8
1
390
0
  6
DOT
 62
     9
100
AcDbCircle
 10
194.492179
 20
191.781783
 30
0.0
 40
8.0
210
0.0
220
0.0
230
1.0
100
AcDbArc
 50
51.317813
 51
180.0
  0
ARC
  5
104
100
AcDbEntity
  8
1
390
0
  6
DOT
 62
     9
100
AcDbCircle
 10
194.492179
 20
191.781783
 30
0.0
 40
6.0
210
0.0
220
0.0
230
1.0
100
AcDbArc
 50
33.55731
 51
180.0
  0
ARC
  5
105
100
AcDbEntity
  8
1
390
0
  6
DOT
 62
     9
100
AcDbCircle
 10
194.492179
 20
191.781783
 30
0.0
 40
6.0
210
0.0
220
0.0
230
1.0
100
AcDbArc
 50
326.44269
 51
33.55731
  0
ARC
  5
106
100
AcDbEntity
  8
1
390
0
  6
DOT
 62
     9
100
AcDbCircle
 10
194.492179
 20
191.781783
 30
0.0
 40
6.0
210
0.0
220
0.0
230
1.0
100
AcDbArc
 50
180.0
 51
326.44269
  0
ARC
  5
107
100
AcDbEntity
  8
1
390
0
  6
DOT
 62
     9
100
AcDbCircle
 10
194.492179
 20
191.781783
 30
0.0
 40
8.0
210
0.0
220
0.0
230
1.0
100
AcDbArc
 50
180.0
 51
308.682187
  0
ARC
  5
108
100
AcDbEntity
  8
1
390
0
  6
DOT
 62
     9
100
AcDbCircle
 10
194.492179
 20
191.781783
 30
0.0
 40
8.0
210
0.0
220
0.0
230
1.0
100
AcDbArc
 50
308.682187
 51
360.0
  0
ARC
  5
109
100
AcDbEntity
  8
1
390
0
  6
Continuous
 62
     7
100
AcDbCircle
 10
202.992179
 20
209.781783
 30
0.0
 40
1.0
210
0.0
220
0.0
230
1.0
100
AcDbArc
 50
0.0
 51
90.0
  0
ARC
  5
10A
100
AcDbEntity
  8
1
390
0
  6
Continuous
 62
     7
100
AcDbCircle
 10
202.992179
 20
200.781783
 30
0.0
 40
1.0
210
0.0
220
0.0
230
1.0
100
AcDbArc
 50
270.0
 51
360.0
  0
LINE
  5
10B
100
AcDbEntity
  8
1
390
0
  6
Continuous
 62
     7
100
AcDbLine
 10
202.992179
 20
210.781783
 30
0.0
 11
202.492179
 21
210.781783
 31
0.0
  0
LINE
  5
10C
100
AcDbEntity
  8
1
390
0
  6
Continuous
 62
     7
100
AcDbLine
 10
202.492179
 20
199.781783
 30
0.0
 11
202.992179
 21
199.781783
 31
0.0
  0
LINE
  5
10D
100
AcDbEntity
  8
1
390
0
  6
Continuous
 62
     7
100
AcDbLine
 10
207.492179
 20
208.281783
 30
0.0
 11
203.992179
 21
208.281783
 31
0.0
  0
LINE
  5
10E
100
AcDbEntity
  8
1
390
0
  6
Continuous
 62
     7
100
AcDbLine
 10
203.992179
 20
202.281783
 30
0.0
 11
207.492179
 21
202.281783
 31
0.0
  0
LINE
  5
10F
100
AcDbEntity
  8
1
390
0
  6
Continuous
 62
     7
100
AcDbLine
 10
249.423035
 20
207.781783
 30
0.0
 11
207.492179
 21
207.781783
 31
0.0
  0
LINE
  5
110
100
AcDbEntity
  8
1
390
0
  6
Continuous
 62
     7
100
AcDbLine
 10
207.492179
 20
202.781783
 30
0.0
 11
247.482736
 21
202.781783
 31
0.0
  0
LINE
  5
112
100
AcDbEntity
  8
1
390
0
  6
CENTER
 62
     1
100
AcDbLine
 10
160.492179
 20
165.081783
 30
0.0
 11
160.492179
 21
219.481783
 31
0.0
  0
LINE
  5
113
100
AcDbEntity
  8
1
390
0
  6
CENTER
 62
     1
100
AcDbLine
 10
118.292179
 20
191.781783
 30
0.0
 11
202.692179
 21
191.781783
 31
0.0
  0
LINE
  5
114
100
AcDbEntity
  8
1
390
0
  6
CENTER
 62
     1
100
AcDbLine
 10
126.492179
 20
183.581783
 30
0.0
 11
126.492179
 21
199.981783
 31
0.0
  0
LINE
  5
115
100
AcDbEntity
  8
1
390
0
  6
CENTER
 62
     1
100
AcDbLine
 10
194.492179
 20
183.581783
 30
0.0
 11
194.492179
 21
199.981783
 31
0.0
  0
LINE
  5
116
100
AcDbEntity
  8
1
390
0
  6
CENTER
 62
     1
100
AcDbLine
 10
202.292179
 20
205.281783
 30
0.0
 11
203.192179
 21
205.281783
 31
0.0
  0
LINE
  5
117
100
AcDbEntity
  8
1
390
0
  6
CENTER
 62
     1
100
AcDbLine
 10
203.792179
 20
205.281783
 30
0.0
 11
248.452886
 21
205.281783
 31
0.0
  0
LINE
  5
118
100
AcDbEntity
  8
1
390
0
  6
Continuous
 62
     7
100
AcDbLine
 10
315.060012
 20
199.531783
 30
0.0
 11
315.060012
 21
211.031783
 31
0.0
  0
LINE
  5
119
100
AcDbEntity
  8
1
390
0
  6
Continuous
 62
     7
100
AcDbLine
 10
315.860012
 20
199.531783
 30
0.0
 11
315.860012
 21
211.031783
 31
0.0
  0
LINE
  5
11A
100
AcDbEntity
  8
1
390
0
  6
Continuous
 62
     7
100
AcDbLine
 10
314.610012
 20
199.981783
 30
0.0
 11
314.610012
 21
210.581783
 31
0.0
  0
LINE
  5
11B
100
AcDbEntity
  8
1
390
0
  6
Continuous
 62
     7
100
AcDbLine
 10
316.810012
 20
210.581783
 30
0.0
 11
316.810012
 21
199.981783
 31
0.0
  0
LINE
  5
11C
100
AcDbEntity
  8
1
390
0
  6
Continuous
 62
     7
100
AcDbLine
 10
317.260012
 20
211.031783
 30
0.0
 11
317.260012
 21
199.531783
 31
0.0
  0
LINE
  5
11D
100
AcDbEntity
  8
1
390
0
  6
Continuous
 62
     7
100
AcDbLine
 10
321.560012
 20
199.531783
 30
0.0
 11
321.560012
 21
211.031783
 31
0.0
  0
LINE
  5
11E
100
AcDbEntity
  8
1
390
0
  6
Continuous
 62
     7
100
AcDbLine
 10
316.310012
 20
199.981783
 30
0.0
 11
316.310012
 21
210.581783
 31
0.0
  0
LINE
  5
11F
100
AcDbEntity
  8
1
390
0
  6
Continuous
 62
     7
100
AcDbLine
 10
322.010012
 20
210.581783
 30
0.0
 11
322.010012
 21
199.981783
 31
0.0
  0
LINE
  5
120
100
AcDbEntity
  8
1
390
0
  6
Continuous
 62
     7
100
AcDbLine
 10
327.010012
 20
210.581783
 30
0.0
 11
327.010012
 21
199.981783
 31
0.0
  0
LINE
  5
121
100
AcDbEntity
  8
1
390
0
  6
Continuous
 62
     7
100
AcDbLine
 10
313.310012
 20
210.581783
 30
0.0
 11
313.310012
 21
199.981783
 31
0.0
  0
LINE
  5
122
100
AcDbEntity
  8
1
390
0
  6
Continuous
 62
     7
100
AcDbLine
 10
308.510012
 20
200.081783
 30
0.0
 11
308.510012
 21
210.481783
 31
0.0
  0
LINE
  5
123
100
AcDbEntity
  8
1
390
0
  6
Continuous
 62
     7
100
AcDbLine
 10
302.510012
 20
210.481783
 30
0.0
 11
302.510012
 21
200.081783
 31
0.0
  0
LINE
  5
124
100
AcDbEntity
  8
1
390
0
  6
Continuous
 62
     7
100
AcDbLine
 10
310.510012
 20
200.481783
 30
0.0
 11
310.510012
 21
210.081783
 31
0.0
  0
LINE
  5
125
100
AcDbEntity
  8
1
390
0
  6
Continuous
 62
     7
100
AcDbLine
 10
312.510012
 20
209.981783
 30
0.0
 11
312.510012
 21
200.581783
 31
0.0
  0
LINE
  5
126
100
AcDbEntity
  8
1
390
0
  6
Continuous
 62
     7
100
AcDbLine
 10
312.960012
 20
210.431783
 30
0.0
 11
312.960012
 21
200.131783
 31
0.0
  0
LINE
  5
127
100
AcDbEntity
  8
1
390
0
  6
DOT
 62
     9
100
AcDbLine
 10
326.410012
 20
210.081783
 30
0.0
 11
326.410012
 21
200.481783
 31
0.0
  0
LINE
  5
128
100
AcDbEntity
  8
1
390
0
  6
DOT
 62
     9
100
AcDbLine
 10
325.510012
 20
209.721783
 30
0.0
 11
325.510012
 21
200.841783
 31
0.0
  0
LINE
  5
129
100
AcDbEntity
  8
1
390
0
  6
DOT
 62
     9
100
AcDbLine
 10
321.710012
 20
209.721783
 30
0.0
 11
321.710012
 21
200.841783
 31
0.0
  0
LINE
  5
12A
100
AcDbEntity
  8
1
390
0
  6
DOT
 62
     9
100
AcDbLine
 10
321.710012
 20
209.306783
 30
0.0
 11
321.210012
 21
209.306783
 31
0.0
  0
LINE
  5
12B
100
AcDbEntity
  8
1
390
0
  6
DOT
 62
     9
100
AcDbLine
 10
321.210012
 20
201.256783
 30
0.0
 11
321.210012
 21
209.306783
 31
0.0
  0
LINE
  5
12C
100
AcDbEntity
  8
1
390
0
  6
DOT
 62
     9
100
AcDbLine
 10
321.710012
 20
201.256783
 30
0.0
 11
321.210012
 21
201.256783
 31
0.0
  0
LINE
  5
12D
100
AcDbEntity
  8
1
390
0
  6
DOT
 62
     9
100
AcDbLine
 10
321.210012
 20
201.281783
 30
0.0
 11
322.010012
 21
201.281783
 31
0.0
  0
LINE
  5
12E
100
AcDbEntity
  8
1
390
0
  6
DOT
 62
     9
100
AcDbLine
 10
321.210012
 20
209.281783
 30
0.0
 11
322.010012
 21
209.281783
 31
0.0
  0
LINE
  5
12F
100
AcDbEntity
  8
1
390
0
  6
DOT
 62
     9
100
AcDbLine
 10
326.410012
 20
204.231783
 30
0.0
 11
322.010012
 21
204.231783
 31
0.0
  0
LINE
  5
130
100
AcDbEntity
  8
1
390
0
  6
DOT
 62
     9
100
AcDbLine
 10
326.410012
 20
206.331783
 30
0.0
 11
322.010012
 21
206.331783
 31
0.0
  0
LINE
  5
131
100
AcDbEntity
  8
1
390
0
  6
Continuous
 62
     7
100
AcDbLine
 10
292.510012
 20
208.338196
 30
0.0
 11
292.510012
 21
202.22537
 31
0.0
  0
LINE
  5
132
100
AcDbEntity
  8
1
390
0
  6
DOT
 62
     9
100
AcDbLine
 10
323.910012
 20
208.781783
 30
0.0
 11
323.910012
 21
208.694269
 31
0.0
  0
LINE
  5
133
100
AcDbEntity
  8
1
390
0
  6
Continuous
 62
     7
100
AcDbLine
 10
327.310012
 20
201.781783
 30
0.0
 11
327.310012
 21
208.781783
 31
0.0
  0
LINE
  5
134
100
AcDbEntity
  8
1
390
0
  6
DOT
 62
     9
100
AcDbLine
 10
325.108044
 20
201.875208
 30
0.0
 11
325.103101
 21
201.880524
 31
0.0
  0
LINE
  5
135
100
AcDbEntity
  8
1
390
0
  6
DOT
 62
     9
100
AcDbLine
 10
325.110012
 20
201.869297
 30
0.0
 11
325.110012
 21
201.781783
 31
0.0
  0
LINE
  5
136
100
AcDbEntity
  8
1
390
0
  6
DOT
 62
     9
100
AcDbLine
 10
324.801363
 20
201.927681
 30
0.0
 11
325.107488
 21
201.876008
 31
0.0
  0
LINE
  5
137
100
AcDbEntity
  8
1
390
0
  6
DOT
 62
     9
100
AcDbLine
 10
324.218661
 20
201.927681
 30
0.0
 11
324.801363
 21
201.927681
 31
0.0
  0
LINE
  5
138
100
AcDbEntity
  8
1
390
0
  6
DOT
 62
     9
100
AcDbLine
 10
323.910012
 20
201.869296
 30
0.0
 11
323.916923
 21
201.880524
 31
0.0
  0
LINE
  5
139
100
AcDbEntity
  8
1
390
0
  6
DOT
 62
     9
100
AcDbLine
 10
323.910012
 20
201.869296
 30
0.0
 11
323.910012
 21
201.781783
 31
0.0
  0
LINE
  5
13A
100
AcDbEntity
  8
1
390
0
  6
DOT
 62
     9
100
AcDbLine
 10
323.917798
 20
201.881232
 30
0.0
 11
323.912536
 21
201.876007
 31
0.0
  0
LINE
  5
13B
100
AcDbEntity
  8
1
390
0
  6
DOT
 62
     9
100
AcDbLine
 10
322.010012
 20
203.02599
 30
0.0
 11
326.410012
 21
203.02599
 31
0.0
  0
LINE
  5
13C
100
AcDbEntity
  8
1
390
0
  6
DOT
 62
     9
100
AcDbLine
 10
322.010012
 20
208.30892
 30
0.0
 11
326.410012
 21
208.30892
 31
0.0
  0
LINE
  5
13D
100
AcDbEntity
  8
1
390
0
  6
DOT
 62
     9
100
AcDbLine
 10
322.010012
 20
207.537575
 30
0.0
 11
326.410012
 21
207.537575
 31
0.0
  0
LINE
  5
13E
100
AcDbEntity
  8
1
390
0
  6
DOT
 62
     9
100
AcDbLine
 10
322.010012
 20
206.753795
 30
0.0
 11
326.410012
 21
206.753795
 31
0.0
  0
LINE
  5
13F
100
AcDbEntity
  8
1
390
0
  6
DOT
 62
     9
100
AcDbLine
 10
322.010012
 20
205.594684
 30
0.0
 11
326.410012
 21
205.594684
 31
0.0
  0
LINE
  5
140
100
AcDbEntity
  8
1
390
0
  6
DOT
 62
     9
100
AcDbLine
 10
322.010012
 20
203.02599
 30
0.0
 11
326.410012
 21
203.02599
 31
0.0
  0
LINE
  5
141
100
AcDbEntity
  8
1
390
0
  6
DOT
 62
     9
100
AcDbLine
 10
322.010012
 20
202.254645
 30
0.0
 11
326.410012
 21
202.254645
 31
0.0
  0
LINE
  5
142
100
AcDbEntity
  8
1
390
0
  6
DOT
 62
     9
100
AcDbLine
 10
324.218661
 20
208.635885
 30
0.0
 11
323.912537
 21
208.687557
 31
0.0
  0
LINE
  5
143
100
AcDbEntity
  8
1
390
0
  6
DOT
 62
     9
100
AcDbLine
 10
324.218661
 20
208.635885
 30
0.0
 11
324.801363
 21
208.635885
 31
0.0
  0
LINE
  5
144
100
AcDbEntity
  8
1
390
0
  6
DOT
 62
     9
100
AcDbLine
 10
325.110012
 20
208.694269
 30
0.0
 11
325.103101
 21
208.683042
 31
0.0
  0
LINE
  5
145
100
AcDbEntity
  8
1
390
0
  6
DOT
 62
     9
100
AcDbLine
 10
325.110012
 20
208.781783
 30
0.0
 11
325.110012
 21
208.694269
 31
0.0
  0
LINE
  5
146
100
AcDbEntity
  8
1
390
0
  6
DOT
 62
     9
100
AcDbLine
 10
325.102227
 20
208.682334
 30
0.0
 11
325.107489
 21
208.687559
 31
0.0
  0
LINE
  5
147
100
AcDbEntity
  8
1
390
0
  6
DOT
 62
     9
100
AcDbLine
 10
323.91198
 20
208.688357
 30
0.0
 11
323.916923
 21
208.683042
 31
0.0
  0
LINE
  5
148
100
AcDbEntity
  8
1
390
0
  6
Continuous
 62
     7
100
AcDbLine
 10
327.510012
 20
201.981783
 30
0.0
 11
327.510012
 21
208.581783
 31
0.0
  0
LINE
  5
149
100
AcDbEntity
  8
1
390
0
  6
DOT
 62
     9
100
AcDbLine
 10
326.410012
 20
202.71545
 30
0.0
 11
322.010012
 21
202.71545
 31
0.0
  0
LINE
  5
14A
100
AcDbEntity
  8
1
390
0
  6
DOT
 62
     9
100
AcDbLine
 10
326.410012
 20
201.944104
 30
0.0
 11
322.010012
 21
201.944104
 31
0.0
  0
LINE
  5
14B
100
AcDbEntity
  8
1
390
0
  6
DOT
 62
     9
100
AcDbLine
 10
321.010012
 20
202.431783
 30
0.0
 11
321.010012
 21
208.131783
 31
0.0
  0
LINE
  5
14C
100
AcDbEntity
  8
1
390
0
  6
DOT
 62
     9
100
AcDbLine
 10
321.510012
 20
202.481783
 30
0.0
 11
321.510012
 21
208.081783
 31
0.0
  0
LINE
  5
14D
100
AcDbEntity
  8
1
390
0
  6
DOT
 62
     9
100
AcDbLine
 10
321.510012
 20
202.481783
 30
0.0
 11
321.510012
 21
208.081783
 31
0.0
  0
LINE
  5
14E
100
AcDbEntity
  8
1
390
0
  6
DOT
 62
     9
100
AcDbLine
 10
321.010012
 20
208.081783
 30
0.0
 11
321.510012
 21
208.081783
 31
0.0
  0
LINE
  5
14F
100
AcDbEntity
  8
1
390
0
  6
DOT
 62
     9
100
AcDbLine
 10
321.010012
 20
202.481783
 30
0.0
 11
321.510012
 21
202.481783
 31
0.0
  0
LINE
  5
150
100
AcDbEntity
  8
1
390
0
  6
DOT
 62
     9
100
AcDbLine
 10
325.103101
 20
208.683042
 30
0.0
 11
324.801363
 21
208.635885
 31
0.0
  0
LINE
  5
151
100
AcDbEntity
  8
1
390
0
  6
DOT
 62
     9
100
AcDbLine
 10
324.510012
 20
208.335447
 30
0.0
 11
324.510012
 21
208.334895
 31
0.0
  0
LINE
  5
152
100
AcDbEntity
  8
1
390
0
  6
DOT
 62
     9
100
AcDbLine
 10
324.510012
 20
208.534878
 30
0.0
 11
324.510012
 21
208.335447
 31
0.0
  0
LINE
  5
153
100
AcDbEntity
  8
1
390
0
  6
DOT
 62
     9
100
AcDbLine
 10
323.916923
 20
201.880524
 30
0.0
 11
324.218661
 21
201.927681
 31
0.0
  0
LINE
  5
154
100
AcDbEntity
  8
1
390
0
  6
DOT
 62
     9
100
AcDbLine
 10
324.510012
 20
202.228118
 30
0.0
 11
324.510012
 21
202.028687
 31
0.0
  0
LINE
  5
155
100
AcDbEntity
  8
1
390
0
  6
DOT
 62
     9
100
AcDbLine
 10
324.510012
 20
202.222893
 30
0.0
 11
324.510012
 21
202.228671
 31
0.0
  0
LINE
  5
156
100
AcDbEntity
  8
1
390
0
  6
DOT
 62
     9
100
AcDbLine
 10
324.510012
 20
202.228671
 30
0.0
 11
324.510012
 21
202.228118
 31
0.0
  0
LINE
  5
157
100
AcDbEntity
  8
1
390
0
  6
DOT
 62
     9
100
AcDbLine
 10
325.107488
 20
201.876008
 30
0.0
 11
325.110012
 21
201.869297
 31
0.0
  0
LINE
  5
158
100
AcDbEntity
  8
1
390
0
  6
DOT
 62
     9
100
AcDbLine
 10
324.510012
 20
208.334895
 30
0.0
 11
324.510012
 21
208.340673
 31
0.0
  0
LINE
  5
159
100
AcDbEntity
  8
1
390
0
  6
DOT
 62
     9
100
AcDbLine
 10
323.912537
 20
208.687557
 30
0.0
 11
323.910012
 21
208.694269
 31
0.0
  0
LINE
  5
15A
100
AcDbEntity
  8
1
390
0
  6
DOT
 62
     9
100
AcDbLine
 10
324.510012
 20
208.340673
 30
0.0
 11
324.510012
 21
208.43181
 31
0.0
  0
ARC
  5
15B
100
AcDbEntity
  8
1
390
0
  6
DOT
 62
     9
100
AcDbCircle
 10
324.503794
 20
201.431783
 30
0.0
 40
0.7
210
0.0
220
0.0
230
1.0
100
AcDbArc
 50
30.0
 51
43.218716
  0
ARC
  5
15C
100
AcDbEntity
  8
1
390
0
  6
DOT
 62
     9
100
AcDbCircle
 10
324.503794
 20
201.431783
 30
0.0
 40
0.7
210
0.0
220
0.0
230
1.0
100
AcDbArc
 50
43.218716
 51
47.044921
  0
ARC
  5
15D
100
AcDbEntity
  8
1
390
0
  6
DOT
 62
     9
100
AcDbCircle
 10
324.503794
 20
201.431783
 30
0.0
 40
0.7
210
0.0
220
0.0
230
1.0
100
AcDbArc
 50
47.044921
 51
89.491061
  0
LINE
  5
15E
100
AcDbEntity
  8
1
390
0
  6
DOT
 62
     9
100
AcDbLine
 10
324.510012
 20
202.131755
 30
0.0
 11
324.510012
 21
202.222893
 31
0.0
  0
ARC
  5
15F
100
AcDbEntity
  8
1
390
0
  6
DOT
 62
     9
100
AcDbCircle
 10
324.503794
 20
209.131783
 30
0.0
 40
0.7
210
0.0
220
0.0
230
1.0
100
AcDbArc
 50
316.780023
 51
330.0
  0
ARC
  5
160
100
AcDbEntity
  8
1
390
0
  6
DOT
 62
     9
100
AcDbCircle
 10
324.503794
 20
209.131783
 30
0.0
 40
0.7
210
0.0
220
0.0
230
1.0
100
AcDbArc
 50
270.508939
 51
316.780023
  0
LINE
  5
161
100
AcDbEntity
  8
1
390
0
  6
DOT
 62
     9
100
AcDbLine
 10
324.510012
 20
202.228118
 30
0.0
 11
324.510012
 21
202.228671
 31
0.0
  0
LINE
  5
162
100
AcDbEntity
  8
1
390
0
  6
DOT
 62
     9
100
AcDbLine
 10
324.510012
 20
202.028687
 30
0.0
 11
324.510012
 21
202.131628
 31
0.0
  0
LINE
  5
163
100
AcDbEntity
  8
1
390
0
  6
DOT
 62
     9
100
AcDbLine
 10
324.510012
 20
202.131628
 30
0.0
 11
324.510012
 21
202.228118
 31
0.0
  0
LINE
  5
164
100
AcDbEntity
  8
1
390
0
  6
DOT
 62
     9
100
AcDbLine
 10
324.510012
 20
208.335447
 30
0.0
 11
324.510012
 21
208.334895
 31
0.0
  0
LINE
  5
165
100
AcDbEntity
  8
1
390
0
  6
DOT
 62
     9
100
AcDbLine
 10
324.510012
 20
208.534878
 30
0.0
 11
324.510012
 21
208.431938
 31
0.0
  0
LINE
  5
166
100
AcDbEntity
  8
1
390
0
  6
DOT
 62
     9
100
AcDbLine
 10
324.510012
 20
208.431938
 30
0.0
 11
324.510012
 21
208.336811
 31
0.0
  0
LINE
  5
167
100
AcDbEntity
  8
1
390
0
  6
DOT
 62
     9
100
AcDbLine
 10
324.510012
 20
208.336811
 30
0.0
 11
324.510012
 21
208.335447
 31
0.0
  0
LINE
  5
168
100
AcDbEntity
  8
1
390
0
  6
DOT
 62
     9
100
AcDbLine
 10
326.410012
 20
208.619461
 30
0.0
 11
324.980792
 21
208.619461
 31
0.0
  0
LINE
  5
169
100
AcDbEntity
  8
1
390
0
  6
DOT
 62
     9
100
AcDbLine
 10
324.980792
 20
208.619461
 30
0.0
 11
324.039233
 21
208.619461
 31
0.0
  0
LINE
  5
16A
100
AcDbEntity
  8
1
390
0
  6
DOT
 62
     9
100
AcDbLine
 10
324.039233
 20
208.619461
 30
0.0
 11
322.010012
 21
208.619461
 31
0.0
  0
LINE
  5
16B
100
AcDbEntity
  8
1
390
0
  6
DOT
 62
     9
100
AcDbLine
 10
326.410012
 20
207.848116
 30
0.0
 11
322.010012
 21
207.848116
 31
0.0
  0
LINE
  5
16C
100
AcDbEntity
  8
1
390
0
  6
DOT
 62
     9
100
AcDbLine
 10
326.410012
 20
206.858715
 30
0.0
 11
322.010012
 21
206.858715
 31
0.0
  0
LINE
  5
16D
100
AcDbEntity
  8
1
390
0
  6
DOT
 62
     9
100
AcDbLine
 10
326.410012
 20
205.699604
 30
0.0
 11
322.010012
 21
205.699604
 31
0.0
  0
LINE
  5
16E
100
AcDbEntity
  8
1
390
0
  6
Continuous
 62
     7
100
AcDbLine
 10
315.060012
 20
199.531783
 30
0.0
 11
315.860012
 21
199.531783
 31
0.0
  0
LINE
  5
16F
100
AcDbEntity
  8
1
390
0
  6
Continuous
 62
     7
100
AcDbLine
 10
315.860012
 20
211.031783
 30
0.0
 11
315.060012
 21
211.031783
 31
0.0
  0
LINE
  5
170
100
AcDbEntity
  8
1
390
0
  6
Continuous
 62
     7
100
AcDbLine
 10
315.060012
 20
211.031783
 30
0.0
 11
314.610012
 21
210.581783
 31
0.0
  0
LINE
  5
171
100
AcDbEntity
  8
1
390
0
  6
Continuous
 62
     7
100
AcDbLine
 10
314.610012
 20
199.981783
 30
0.0
 11
315.060012
 21
199.531783
 31
0.0
  0
LINE
  5
172
100
AcDbEntity
  8
1
390
0
  6
Continuous
 62
     7
100
AcDbLine
 10
317.260012
 20
211.031783
 30
0.0
 11
316.810012
 21
210.581783
 31
0.0
  0
LINE
  5
173
100
AcDbEntity
  8
1
390
0
  6
Continuous
 62
     7
100
AcDbLine
 10
316.810012
 20
199.981783
 30
0.0
 11
317.260012
 21
199.531783
 31
0.0
  0
LINE
  5
174
100
AcDbEntity
  8
1
390
0
  6
Continuous
 62
     7
100
AcDbLine
 10
321.560012
 20
211.031783
 30
0.0
 11
317.260012
 21
211.031783
 31
0.0
  0
LINE
  5
175
100
AcDbEntity
  8
1
390
0
  6
Continuous
 62
     7
100
AcDbLine
 10
317.260012
 20
199.531783
 30
0.0
 11
321.560012
 21
199.531783
 31
0.0
  0
LINE
  5
176
100
AcDbEntity
  8
1
390
0
  6
Continuous
 62
     7
100
AcDbLine
 10
315.860012
 20
199.531783
 30
0.0
 11
316.310012
 21
199.981783
 31
0.0
  0
LINE
  5
177
100
AcDbEntity
  8
1
390
0
  6
Continuous
 62
     7
100
AcDbLine
 10
316.310012
 20
210.581783
 30
0.0
 11
315.860012
 21
211.031783
 31
0.0
  0
LINE
  5
178
100
AcDbEntity
  8
1
390
0
  6
Continuous
 62
     7
100
AcDbLine
 10
321.560012
 20
199.531783
 30
0.0
 11
322.010012
 21
199.981783
 31
0.0
  0
LINE
  5
179
100
AcDbEntity
  8
1
390
0
  6
Continuous
 62
     7
100
AcDbLine
 10
322.010012
 20
210.581783
 30
0.0
 11
321.560012
 21
211.031783
 31
0.0
  0
LINE
  5
17A
100
AcDbEntity
  8
1
390
0
  6
Continuous
 62
     7
100
AcDbLine
 10
322.010012
 20
199.981783
 30
0.0
 11
327.010012
 21
199.981783
 31
0.0
  0
LINE
  5
17B
100
AcDbEntity
  8
1
390
0
  6
Continuous
 62
     7
100
AcDbLine
 10
327.010012
 20
210.581783
 30
0.0
 11
322.010012
 21
210.581783
 31
0.0
  0
LINE
  5
17C
100
AcDbEntity
  8
1
390
0
  6
Continuous
 62
     7
100
AcDbLine
 10
316.310012
 20
199.981783
 30
0.0
 11
316.810012
 21
199.981783
 31
0.0
  0
LINE
  5
17D
100
AcDbEntity
  8
1
390
0
  6
Continuous
 62
     7
100
AcDbLine
 10
316.810012
 20
210.581783
 30
0.0
 11
316.310012
 21
210.581783
 31
0.0
  0
ARC
  5
17E
100
AcDbEntity
  8
1
390
0
  6
Continuous
 62
     7
100
AcDbCircle
 10
313.050205
 20
210.731783
 30
0.0
 40
0.3
210
0.0
220
0.0
230
1.0
100
AcDbArc
 50
270.0
 51
330.0
  0
ARC
  5
17F
100
AcDbEntity
  8
1
390
0
  6
Continuous
 62
     7
100
AcDbCircle
 10
313.050205
 20
199.831783
 30
0.0
 40
0.3
210
0.0
220
0.0
230
1.0
100
AcDbArc
 50
30.0
 51
90.0
  0
LINE
  5
180
100
AcDbEntity
  8
1
390
0
  6
Continuous
 62
     7
100
AcDbLine
 10
313.310012
 20
199.981783
 30
0.0
 11
314.610012
 21
199.981783
 31
0.0
  0
LINE
  5
181
100
AcDbEntity
  8
1
390
0
  6
Continuous
 62
     7
100
AcDbLine
 10
314.610012
 20
210.581783
 30
0.0
 11
313.310012
 21
210.581783
 31
0.0
  0
LINE
  5
182
100
AcDbEntity
  8
1
390
0
  6
Continuous
 62
     7
100
AcDbLine
 10
308.510012
 20
210.481783
 30
0.0
 11
302.510012
 21
210.481783
 31
0.0
  0
LINE
  5
183
100
AcDbEntity
  8
1
390
0
  6
Continuous
 62
     7
100
AcDbLine
 10
302.510012
 20
200.081783
 30
0.0
 11
308.510012
 21
200.081783
 31
0.0
  0
LINE
  5
184
100
AcDbEntity
  8
1
390
0
  6
Continuous
 62
     7
100
AcDbLine
 10
308.510012
 20
200.081783
 30
0.0
 11
310.510012
 21
200.481783
 31
0.0
  0
LINE
  5
185
100
AcDbEntity
  8
1
390
0
  6
Continuous
 62
     7
100
AcDbLine
 10
310.510012
 20
210.081783
 30
0.0
 11
308.510012
 21
210.481783
 31
0.0
  0
LINE
  5
186
100
AcDbEntity
  8
1
390
0
  6
Continuous
 62
     7
100
AcDbLine
 10
312.960012
 20
210.431783
 30
0.0
 11
312.510012
 21
209.981783
 31
0.0
  0
LINE
  5
187
100
AcDbEntity
  8
1
390
0
  6
Continuous
 62
     7
100
AcDbLine
 10
312.510012
 20
200.581783
 30
0.0
 11
312.960012
 21
200.131783
 31
0.0
  0
ARC
  5
188
100
AcDbEntity
  8
1
390
0
  6
Continuous
 62
     7
100
AcDbCircle
 10
302.010012
 20
210.42537
 30
0.0
 40
0.5
210
0.0
220
0.0
230
1.0
100
AcDbArc
 50
276.842773
 51
360.0
  0
ARC
  5
189
100
AcDbEntity
  8
1
390
0
  6
Continuous
 62
     7
100
AcDbCircle
 10
302.010012
 20
200.138196
 30
0.0
 40
0.5
210
0.0
220
0.0
230
1.0
100
AcDbArc
 50
360.0
 51
83.157227
  0
LINE
  5
18A
100
AcDbEntity
  8
1
390
0
  6
DOT
 62
     9
100
AcDbLine
 10
326.410012
 20
210.081783
 30
0.0
 11
325.510012
 21
209.721783
 31
0.0
  0
LINE
  5
18B
100
AcDbEntity
  8
1
390
0
  6
DOT
 62
     9
100
AcDbLine
 10
325.510012
 20
200.841783
 30
0.0
 11
326.410012
 21
200.481783
 31
0.0
  0
LINE
  5
18C
100
AcDbEntity
  8
1
390
0
  6
DOT
 62
     9
100
AcDbLine
 10
326.410012
 20
200.481783
 30
0.0
 11
327.010012
 21
200.481783
 31
0.0
  0
LINE
  5
18D
100
AcDbEntity
  8
1
390
0
  6
DOT
 62
     9
100
AcDbLine
 10
327.010012
 20
210.081783
 30
0.0
 11
326.410012
 21
210.081783
 31
0.0
  0
LINE
  5
18E
100
AcDbEntity
  8
1
390
0
  6
Continuous
 62
     7
100
AcDbLine
 10
302.069585
 20
209.928931
 30
0.0
 11
292.95044
 21
208.834634
 31
0.0
  0
LINE
  5
18F
100
AcDbEntity
  8
1
390
0
  6
Continuous
 62
     7
100
AcDbLine
 10
292.95044
 20
201.728931
 30
0.0
 11
302.069585
 21
200.634634
 31
0.0
  0
LINE
  5
190
100
AcDbEntity
  8
1
390
0
  6
Continuous
 62
     7
100
AcDbLine
 10
310.510012
 20
200.781783
 30
0.0
 11
312.510012
 21
200.781783
 31
0.0
  0
LINE
  5
191
100
AcDbEntity
  8
1
390
0
  6
Continuous
 62
     7
100
AcDbLine
 10
312.510012
 20
209.781783
 30
0.0
 11
310.510012
 21
209.781783
 31
0.0
  0
LINE
  5
192
100
AcDbEntity
  8
1
390
0
  6
DOT
 62
     9
100
AcDbLine
 10
321.710012
 20
200.841783
 30
0.0
 11
325.510012
 21
200.841783
 31
0.0
  0
LINE
  5
193
100
AcDbEntity
  8
1
390
0
  6
DOT
 62
     9
100
AcDbLine
 10
325.510012
 20
209.721783
 30
0.0
 11
321.710012
 21
209.721783
 31
0.0
  0
ARC
  5
194
100
AcDbEntity
  8
1
390
0
  6
Continuous
 62
     7
100
AcDbCircle
 10
293.010012
 20
208.338196
 30
0.0
 40
0.5
210
0.0
220
0.0
230
1.0
100
AcDbArc
 50
96.842773
 51
180.0
  0
ARC
  5
195
100
AcDbEntity
  8
1
390
0
  6
Continuous
 62
     7
100
AcDbCircle
 10
293.010012
 20
202.22537
 30
0.0
 40
0.5
210
0.0
220
0.0
230
1.0
100
AcDbArc
 50
180.0
 51
263.157227
  0
LINE
  5
196
100
AcDbEntity
  8
1
390
0
  6
DOT
 62
     9
100
AcDbLine
 10
323.910012
 20
208.781783
 30
0.0
 11
322.010012
 21
208.781783
 31
0.0
  0
LINE
  5
197
100
AcDbEntity
  8
1
390
0
  6
Continuous
 62
     7
100
AcDbLine
 10
327.310012
 20
208.781783
 30
0.0
 11
327.010012
 21
208.781783
 31
0.0
  0
LINE
  5
198
100
AcDbEntity
  8
1
390
0
  6
DOT
 62
     9
100
AcDbLine
 10
327.010012
 20
208.781783
 30
0.0
 11
325.110012
 21
208.781783
 31
0.0
  0
LINE
  5
199
100
AcDbEntity
  8
1
390
0
  6
DOT
 62
     9
100
AcDbLine
 10
325.110012
 20
201.781783
 30
0.0
 11
327.010012
 21
201.781783
 31
0.0
  0
LINE
  5
19A
100
AcDbEntity
  8
1
390
0
  6
Continuous
 62
     7
100
AcDbLine
 10
327.010012
 20
201.781783
 30
0.0
 11
327.310012
 21
201.781783
 31
0.0
  0
LINE
  5
19B
100
AcDbEntity
  8
1
390
0
  6
DOT
 62
     9
100
AcDbLine
 10
322.010012
 20
201.781783
 30
0.0
 11
323.910012
 21
201.781783
 31
0.0
  0
LINE
  5
19C
100
AcDbEntity
  8
1
390
0
  6
Continuous
 62
     7
100
AcDbLine
 10
327.310012
 20
201.781783
 30
0.0
 11
327.510012
 21
201.981783
 31
0.0
  0
LINE
  5
19D
100
AcDbEntity
  8
1
390
0
  6
Continuous
 62
     7
100
AcDbLine
 10
327.510012
 20
208.581783
 30
0.0
 11
327.310012
 21
208.781783
 31
0.0
  0
LINE
  5
19E
100
AcDbEntity
  8
1
390
0
  6
DOT
 62
     9
100
AcDbLine
 10
321.010012
 20
202.431783
 30
0.0
 11
327.510012
 21
202.431783
 31
0.0
  0
LINE
  5
19F
100
AcDbEntity
  8
1
390
0
  6
DOT
 62
     9
100
AcDbLine
 10
327.510012
 20
208.131783
 30
0.0
 11
321.010012
 21
208.131783
 31
0.0
  0
LINE
  5
1A0
100
AcDbEntity
  8
1
390
0
  6
DOT
 62
     9
100
AcDbLine
 10
321.510012
 20
202.481783
 30
0.0
 11
321.710012
 21
202.681783
 31
0.0
  0
LINE
  5
1A1
100
AcDbEntity
  8
1
390
0
  6
DOT
 62
     9
100
AcDbLine
 10
321.710012
 20
207.881783
 30
0.0
 11
321.510012
 21
208.081783
 31
0.0
  0
LINE
  5
1A2
100
AcDbEntity
  8
1
390
0
  6
Continuous
 62
     7
100
AcDbLine
 10
292.510012
 20
207.781783
 30
0.0
 11
254.423035
 21
207.781783
 31
0.0
  0
LINE
  5
1A3
100
AcDbEntity
  8
1
390
0
  6
Continuous
 62
     7
100
AcDbLine
 10
252.482736
 20
202.781783
 30
0.0
 11
292.510012
 21
202.781783
 31
0.0
  0
POLYLINE
  5
1A4
100
AcDbEntity
  8
1
390
0
  6
DOT
 62
     9
100
AcDb2dPolyline
 66
     1
 10
0.0
 20
0.0
 30
0.0
 40
1.0
 41
1.0
  0
VERTEX
  5
1A5
100
AcDbEntity
  8
1
390
0
 62
     9
100
AcDbVertex
100
AcDb2dVertex
 10
324.510012
 20
208.335448
 30
0.0
  0
VERTEX
  5
1A6
100
AcDbEntity
  8
1
390
0
 62
     9
100
AcDbVertex
100
AcDb2dVertex
 10
324.542171
 20
208.336465
 30
0.0
  0
VERTEX
  5
1A7
100
AcDbEntity
  8
1
390
0
 62
     9
100
AcDbVertex
100
AcDb2dVertex
 10
324.572967
 20
208.338865
 30
0.0
  0
VERTEX
  5
1A8
100
AcDbEntity
  8
1
390
0
 62
     9
100
AcDbVertex
100
AcDb2dVertex
 10
324.603571
 20
208.34265
 30
0.0
  0
VERTEX
  5
1A9
100
AcDbEntity
  8
1
390
0
 62
     9
100
AcDbVertex
100
AcDb2dVertex
 10
324.633962
 20
208.347812
 30
0.0
  0
VERTEX
  5
1AA
100
AcDbEntity
  8
1
390
0
 62
     9
100
AcDbVertex
100
AcDb2dVertex
 10
324.664078
 20
208.354335
 30
0.0
  0
VERTEX
  5
1AB
100
AcDbEntity
  8
1
390
0
 62
     9
100
AcDbVertex
100
AcDb2dVertex
 10
324.693858
 20
208.362202
 30
0.0
  0
VERTEX
  5
1AC
100
AcDbEntity
  8
1
390
0
 62
     9
100
AcDbVertex
100
AcDb2dVertex
 10
324.723241
 20
208.371394
 30
0.0
  0
VERTEX
  5
1AD
100
AcDbEntity
  8
1
390
0
 62
     9
100
AcDbVertex
100
AcDb2dVertex
 10
324.752167
 20
208.38189
 30
0.0
  0
VERTEX
  5
1AE
100
AcDbEntity
  8
1
390
0
 62
     9
100
AcDbVertex
100
AcDb2dVertex
 10
324.780571
 20
208.393656
 30
0.0
  0
VERTEX
  5
1AF
100
AcDbEntity
  8
1
390
0
 62
     9
100
AcDbVertex
100
AcDb2dVertex
 10
324.808388
 20
208.406658
 30
0.0
  0
VERTEX
  5
1B0
100
AcDbEntity
  8
1
390
0
 62
     9
100
AcDbVertex
100
AcDb2dVertex
 10
324.8356
 20
208.420887
 30
0.0
  0
VERTEX
  5
1B1
100
AcDbEntity
  8
1
390
0
 62
     9
100
AcDbVertex
100
AcDb2dVertex
 10
324.862132
 20
208.436296
 30
0.0
  0
VERTEX
  5
1B2
100
AcDbEntity
  8
1
390
0
 62
     9
100
AcDbVertex
100
AcDb2dVertex
 10
324.887927
 20
208.452844
 30
0.0
  0
VERTEX
  5
1B3
100
AcDbEntity
  8
1
390
0
 62
     9
100
AcDbVertex
100
AcDb2dVertex
 10
324.912947
 20
208.470492
 30
0.0
  0
VERTEX
  5
1B4
100
AcDbEntity
  8
1
390
0
 62
     9
100
AcDbVertex
100
AcDb2dVertex
 10
324.937151
 20
208.489207
 30
0.0
  0
VERTEX
  5
1B5
100
AcDbEntity
  8
1
390
0
 62
     9
100
AcDbVertex
100
AcDb2dVertex
 10
324.9605
 20
208.508951
 30
0.0
  0
VERTEX
  5
1B6
100
AcDbEntity
  8
1
390
0
 62
     9
100
AcDbVertex
100
AcDb2dVertex
 10
324.982938
 20
208.529673
 30
0.0
  0
VERTEX
  5
1B7
100
AcDbEntity
  8
1
390
0
 62
     9
100
AcDbVertex
100
AcDb2dVertex
 10
325.004422
 20
208.551324
 30
0.0
  0
VERTEX
  5
1B8
100
AcDbEntity
  8
1
390
0
 62
     9
100
AcDbVertex
100
AcDb2dVertex
 10
325.028905
 20
208.578471
 30
0.0
  0
VERTEX
  5
1B9
100
AcDbEntity
  8
1
390
0
 62
     9
100
AcDbVertex
100
AcDb2dVertex
 10
325.051929
 20
208.606824
 30
0.0
  0
VERTEX
  5
1BA
100
AcDbEntity
  8
1
390
0
 62
     9
100
AcDbVertex
100
AcDb2dVertex
 10
325.073448
 20
208.636311
 30
0.0
  0
VERTEX
  5
1BB
100
AcDbEntity
  8
1
390
0
 62
     9
100
AcDbVertex
100
AcDb2dVertex
 10
325.093397
 20
208.666836
 30
0.0
  0
VERTEX
  5
1BC
100
AcDbEntity
  8
1
390
0
 62
     9
100
AcDbVertex
100
AcDb2dVertex
 10
325.103105
 20
208.68304
 30
0.0
  0
SEQEND
  5
1BD
100
AcDbEntity
  8
0
390
0
  0
POLYLINE
  5
1BE
100
AcDbEntity
  8
1
390
0
  6
DOT
 62
     9
100
AcDb2dPolyline
 66
     1
 10
0.0
 20
0.0
 30
0.0
 40
1.0
 41
1.0
  0
VERTEX
  5
1BF
100
AcDbEntity
  8
1
390
0
 62
     9
100
AcDbVertex
100
AcDb2dVertex
 10
324.510012
 20
202.228117
 30
0.0
  0
VERTEX
  5
1C0
100
AcDbEntity
  8
1
390
0
 62
     9
100
AcDbVertex
100
AcDb2dVertex
 10
324.477853
 20
202.227101
 30
0.0
  0
VERTEX
  5
1C1
100
AcDbEntity
  8
1
390
0
 62
     9
100
AcDbVertex
100
AcDb2dVertex
 10
324.447057
 20
202.2247
 30
0.0
  0
VERTEX
  5
1C2
100
AcDbEntity
  8
1
390
0
 62
     9
100
AcDbVertex
100
AcDb2dVertex
 10
324.416454
 20
202.220916
 30
0.0
  0
VERTEX
  5
1C3
100
AcDbEntity
  8
1
390
0
 62
     9
100
AcDbVertex
100
AcDb2dVertex
 10
324.386062
 20
202.215754
 30
0.0
  0
VERTEX
  5
1C4
100
AcDbEntity
  8
1
390
0
 62
     9
100
AcDbVertex
100
AcDb2dVertex
 10
324.355946
 20
202.20923
 30
0.0
  0
VERTEX
  5
1C5
100
AcDbEntity
  8
1
390
0
 62
     9
100
AcDbVertex
100
AcDb2dVertex
 10
324.326166
 20
202.201363
 30
0.0
  0
VERTEX
  5
1C6
100
AcDbEntity
  8
1
390
0
 62
     9
100
AcDbVertex
100
AcDb2dVertex
 10
324.296784
 20
202.192172
 30
0.0
  0
VERTEX
  5
1C7
100
AcDbEntity
  8
1
390
0
 62
     9
100
AcDbVertex
100
AcDb2dVertex
 10
324.267857
 20
202.181676
 30
0.0
  0
VERTEX
  5
1C8
100
AcDbEntity
  8
1
390
0
 62
     9
100
AcDbVertex
100
AcDb2dVertex
 10
324.239453
 20
202.169909
 30
0.0
  0
VERTEX
  5
1C9
100
AcDbEntity
  8
1
390
0
 62
     9
100
AcDbVertex
100
AcDb2dVertex
 10
324.211636
 20
202.156907
 30
0.0
  0
VERTEX
  5
1CA
100
AcDbEntity
  8
1
390
0
 62
     9
100
AcDbVertex
100
AcDb2dVertex
 10
324.184424
 20
202.142678
 30
0.0
  0
VERTEX
  5
1CB
100
AcDbEntity
  8
1
390
0
 62
     9
100
AcDbVertex
100
AcDb2dVertex
 10
324.157893
 20
202.127269
 30
0.0
  0
VERTEX
  5
1CC
100
AcDbEntity
  8
1
390
0
 62
     9
100
AcDbVertex
100
AcDb2dVertex
 10
324.132097
 20
202.110722
 30
0.0
  0
VERTEX
  5
1CD
100
AcDbEntity
  8
1
390
0
 62
     9
100
AcDbVertex
100
AcDb2dVertex
 10
324.107078
 20
202.093073
 30
0.0
  0
VERTEX
  5
1CE
100
AcDbEntity
  8
1
390
0
 62
     9
100
AcDbVertex
100
AcDb2dVertex
 10
324.082874
 20
202.074359
 30
0.0
  0
VERTEX
  5
1CF
100
AcDbEntity
  8
1
390
0
 62
     9
100
AcDbVertex
100
AcDb2dVertex
 10
324.059524
 20
202.054614
 30
0.0
  0
VERTEX
  5
1D0
100
AcDbEntity
  8
1
390
0
 62
     9
100
AcDbVertex
100
AcDb2dVertex
 10
324.037086
 20
202.033892
 30
0.0
  0
VERTEX
  5
1D1
100
AcDbEntity
  8
1
390
0
 62
     9
100
AcDbVertex
100
AcDb2dVertex
 10
324.015602
 20
202.012241
 30
0.0
  0
VERTEX
  5
1D2
100
AcDbEntity
  8
1
390
0
 62
     9
100
AcDbVertex
100
AcDb2dVertex
 10
323.991119
 20
201.985094
 30
0.0
  0
VERTEX
  5
1D3
100
AcDbEntity
  8
1
390
0
 62
     9
100
AcDbVertex
100
AcDb2dVertex
 10
323.968095
 20
201.956741
 30
0.0
  0
VERTEX
  5
1D4
100
AcDbEntity
  8
1
390
0
 62
     9
100
AcDbVertex
100
AcDb2dVertex
 10
323.946576
 20
201.927255
 30
0.0
  0
VERTEX
  5
1D5
100
AcDbEntity
  8
1
390
0
 62
     9
100
AcDbVertex
100
AcDb2dVertex
 10
323.926628
 20
201.896729
 30
0.0
  0
VERTEX
  5
1D6
100
AcDbEntity
  8
1
390
0
 62
     9
100
AcDbVertex
100
AcDb2dVertex
 10
323.91692
 20
201.880526
 30
0.0
  0
SEQEND
  5
1D7
100
AcDbEntity
  8
0
390
0
  0
POLYLINE
  5
1D8
100
AcDbEntity
  8
1
390
0
  6
DOT
 62
     9
100
AcDb2dPolyline
 66
     1
 10
0.0
 20
0.0
 30
0.0
 40
1.0
 41
1.0
  0
VERTEX
  5
1D9
100
AcDbEntity
  8
1
390
0
 62
     9
100
AcDbVertex
100
AcDb2dVertex
 10
325.107407
 20
201.87615
 30
0.0
  0
VERTEX
  5
1DA
100
AcDbEntity
  8
1
390
0
 62
     9
100
AcDbVertex
100
AcDb2dVertex
 10
325.099106
 20
201.890211
 30
0.0
  0
VERTEX
  5
1DB
100
AcDbEntity
  8
1
390
0
 62
     9
100
AcDbVertex
100
AcDb2dVertex
 10
325.084791
 20
201.912867
 30
0.0
  0
VERTEX
  5
1DC
100
AcDbEntity
  8
1
390
0
 62
     9
100
AcDbVertex
100
AcDb2dVertex
 10
325.070294
 20
201.934041
 30
0.0
  0
VERTEX
  5
1DD
100
AcDbEntity
  8
1
390
0
 62
     9
100
AcDbVertex
100
AcDb2dVertex
 10
325.055731
 20
201.953783
 30
0.0
  0
VERTEX
  5
1DE
100
AcDbEntity
  8
1
390
0
 62
     9
100
AcDbVertex
100
AcDb2dVertex
 10
325.041209
 20
201.972141
 30
0.0
  0
VERTEX
  5
1DF
100
AcDbEntity
  8
1
390
0
 62
     9
100
AcDbVertex
100
AcDb2dVertex
 10
325.022418
 20
201.994172
 30
0.0
  0
VERTEX
  5
1E0
100
AcDbEntity
  8
1
390
0
 62
     9
100
AcDbVertex
100
AcDb2dVertex
 10
325.004087
 20
202.014019
 30
0.0
  0
VERTEX
  5
1E1
100
AcDbEntity
  8
1
390
0
 62
     9
100
AcDbVertex
100
AcDb2dVertex
 10
324.986427
 20
202.03178
 30
0.0
  0
VERTEX
  5
1E2
100
AcDbEntity
  8
1
390
0
 62
     9
100
AcDbVertex
100
AcDb2dVertex
 10
324.963722
 20
202.052871
 30
0.0
  0
VERTEX
  5
1E3
100
AcDbEntity
  8
1
390
0
 62
     9
100
AcDbVertex
100
AcDb2dVertex
 10
324.942932
 20
202.070641
 30
0.0
  0
VERTEX
  5
1E4
100
AcDbEntity
  8
1
390
0
 62
     9
100
AcDbVertex
100
AcDb2dVertex
 10
324.92436
 20
202.085384
 30
0.0
  0
VERTEX
  5
1E5
100
AcDbEntity
  8
1
390
0
 62
     9
100
AcDbVertex
100
AcDb2dVertex
 10
324.908255
 20
202.097371
 30
0.0
  0
VERTEX
  5
1E6
100
AcDbEntity
  8
1
390
0
 62
     9
100
AcDbVertex
100
AcDb2dVertex
 10
324.891653
 20
202.109001
 30
0.0
  0
VERTEX
  5
1E7
100
AcDbEntity
  8
1
390
0
 62
     9
100
AcDbVertex
100
AcDb2dVertex
 10
324.878017
 20
202.118032
 30
0.0
  0
VERTEX
  5
1E8
100
AcDbEntity
  8
1
390
0
 62
     9
100
AcDbVertex
100
AcDb2dVertex
 10
324.862645
 20
202.127674
 30
0.0
  0
VERTEX
  5
1E9
100
AcDbEntity
  8
1
390
0
 62
     9
100
AcDbVertex
100
AcDb2dVertex
 10
324.845468
 20
202.137806
 30
0.0
  0
VERTEX
  5
1EA
100
AcDbEntity
  8
1
390
0
 62
     9
100
AcDbVertex
100
AcDb2dVertex
 10
324.826412
 20
202.14829
 30
0.0
  0
VERTEX
  5
1EB
100
AcDbEntity
  8
1
390
0
 62
     9
100
AcDbVertex
100
AcDb2dVertex
 10
324.804376
 20
202.159469
 30
0.0
  0
VERTEX
  5
1EC
100
AcDbEntity
  8
1
390
0
 62
     9
100
AcDbVertex
100
AcDb2dVertex
 10
324.780165
 20
202.170642
 30
0.0
  0
VERTEX
  5
1ED
100
AcDbEntity
  8
1
390
0
 62
     9
100
AcDbVertex
100
AcDb2dVertex
 10
324.753701
 20
202.181597
 30
0.0
  0
VERTEX
  5
1EE
100
AcDbEntity
  8
1
390
0
 62
     9
100
AcDbVertex
100
AcDb2dVertex
 10
324.731944
 20
202.189664
 30
0.0
  0
VERTEX
  5
1EF
100
AcDbEntity
  8
1
390
0
 62
     9
100
AcDbVertex
100
AcDb2dVertex
 10
324.708826
 20
202.197343
 30
0.0
  0
VERTEX
  5
1F0
100
AcDbEntity
  8
1
390
0
 62
     9
100
AcDbVertex
100
AcDb2dVertex
 10
324.684336
 20
202.204508
 30
0.0
  0
VERTEX
  5
1F1
100
AcDbEntity
  8
1
390
0
 62
     9
100
AcDbVertex
100
AcDb2dVertex
 10
324.65847
 20
202.211023
 30
0.0
  0
VERTEX
  5
1F2
100
AcDbEntity
  8
1
390
0
 62
     9
100
AcDbVertex
100
AcDb2dVertex
 10
324.63123
 20
202.216745
 30
0.0
  0
VERTEX
  5
1F3
100
AcDbEntity
  8
1
390
0
 62
     9
100
AcDbVertex
100
AcDb2dVertex
 10
324.608868
 20
202.220591
 30
0.0
  0
VERTEX
  5
1F4
100
AcDbEntity
  8
1
390
0
 62
     9
100
AcDbVertex
100
AcDb2dVertex
 10
324.585681
 20
202.223784
 30
0.0
  0
VERTEX
  5
1F5
100
AcDbEntity
  8
1
390
0
 62
     9
100
AcDbVertex
100
AcDb2dVertex
 10
324.561691
 20
202.226245
 30
0.0
  0
VERTEX
  5
1F6
100
AcDbEntity
  8
1
390
0
 62
     9
100
AcDbVertex
100
AcDb2dVertex
 10
324.536736
 20
202.227904
 30
0.0
  0
VERTEX
  5
1F7
100
AcDbEntity
  8
1
390
0
 62
     9
100
AcDbVertex
100
AcDb2dVertex
 10
324.510012
 20
202.228671
 30
0.0
  0
SEQEND
  5
1F8
100
AcDbEntity
  8
0
390
0
  0
POLYLINE
  5
1F9
100
AcDbEntity
  8
1
390
0
  6
DOT
 62
     9
100
AcDb2dPolyline
 66
     1
 10
0.0
 20
0.0
 30
0.0
 40
1.0
 41
1.0
  0
VERTEX
  5
1FA
100
AcDbEntity
  8
1
390
0
 62
     9
100
AcDbVertex
100
AcDb2dVertex
 10
323.912617
 20
208.687416
 30
0.0
  0
VERTEX
  5
1FB
100
AcDbEntity
  8
1
390
0
 62
     9
100
AcDbVertex
100
AcDb2dVertex
 10
323.920919
 20
208.673355
 30
0.0
  0
VERTEX
  5
1FC
100
AcDbEntity
  8
1
390
0
 62
     9
100
AcDbVertex
100
AcDb2dVertex
 10
323.935234
 20
208.650699
 30
0.0
  0
VERTEX
  5
1FD
100
AcDbEntity
  8
1
390
0
 62
     9
100
AcDbVertex
100
AcDb2dVertex
 10
323.94973
 20
208.629524
 30
0.0
  0
VERTEX
  5
1FE
100
AcDbEntity
  8
1
390
0
 62
     9
100
AcDbVertex
100
AcDb2dVertex
 10
323.964293
 20
208.609782
 30
0.0
  0
VERTEX
  5
1FF
100
AcDbEntity
  8
1
390
0
 62
     9
100
AcDbVertex
100
AcDb2dVertex
 10
323.978815
 20
208.591424
 30
0.0
  0
VERTEX
  5
200
100
AcDbEntity
  8
1
390
0
 62
     9
100
AcDbVertex
100
AcDb2dVertex
 10
323.997606
 20
208.569393
 30
0.0
  0
VERTEX
  5
201
100
AcDbEntity
  8
1
390
0
 62
     9
100
AcDbVertex
100
AcDb2dVertex
 10
324.015937
 20
208.549547
 30
0.0
  0
VERTEX
  5
202
100
AcDbEntity
  8
1
390
0
 62
     9
100
AcDbVertex
100
AcDb2dVertex
 10
324.033598
 20
208.531786
 30
0.0
  0
VERTEX
  5
203
100
AcDbEntity
  8
1
390
0
 62
     9
100
AcDbVertex
100
AcDb2dVertex
 10
324.056303
 20
208.510694
 30
0.0
  0
VERTEX
  5
204
100
AcDbEntity
  8
1
390
0
 62
     9
100
AcDbVertex
100
AcDb2dVertex
 10
324.077093
 20
208.492924
 30
0.0
  0
VERTEX
  5
205
100
AcDbEntity
  8
1
390
0
 62
     9
100
AcDbVertex
100
AcDb2dVertex
 10
324.095664
 20
208.478181
 30
0.0
  0
VERTEX
  5
206
100
AcDbEntity
  8
1
390
0
 62
     9
100
AcDbVertex
100
AcDb2dVertex
 10
324.11177
 20
208.466194
 30
0.0
  0
VERTEX
  5
207
100
AcDbEntity
  8
1
390
0
 62
     9
100
AcDbVertex
100
AcDb2dVertex
 10
324.128371
 20
208.454564
 30
0.0
  0
VERTEX
  5
208
100
AcDbEntity
  8
1
390
0
 62
     9
100
AcDbVertex
100
AcDb2dVertex
 10
324.142008
 20
208.445534
 30
0.0
  0
VERTEX
  5
209
100
AcDbEntity
  8
1
390
0
 62
     9
100
AcDbVertex
100
AcDb2dVertex
 10
324.157379
 20
208.435891
 30
0.0
  0
VERTEX
  5
20A
100
AcDbEntity
  8
1
390
0
 62
     9
100
AcDbVertex
100
AcDb2dVertex
 10
324.174556
 20
208.425759
 30
0.0
  0
VERTEX
  5
20B
100
AcDbEntity
  8
1
390
0
 62
     9
100
AcDbVertex
100
AcDb2dVertex
 10
324.193612
 20
208.415275
 30
0.0
  0
VERTEX
  5
20C
100
AcDbEntity
  8
1
390
0
 62
     9
100
AcDbVertex
100
AcDb2dVertex
 10
324.215648
 20
208.404097
 30
0.0
  0
VERTEX
  5
20D
100
AcDbEntity
  8
1
390
0
 62
     9
100
AcDbVertex
100
AcDb2dVertex
 10
324.239859
 20
208.392923
 30
0.0
  0
VERTEX
  5
20E
100
AcDbEntity
  8
1
390
0
 62
     9
100
AcDbVertex
100
AcDb2dVertex
 10
324.266323
 20
208.381968
 30
0.0
  0
VERTEX
  5
20F
100
AcDbEntity
  8
1
390
0
 62
     9
100
AcDbVertex
100
AcDb2dVertex
 10
324.28808
 20
208.373901
 30
0.0
  0
VERTEX
  5
210
100
AcDbEntity
  8
1
390
0
 62
     9
100
AcDbVertex
100
AcDb2dVertex
 10
324.311198
 20
208.366222
 30
0.0
  0
VERTEX
  5
211
100
AcDbEntity
  8
1
390
0
 62
     9
100
AcDbVertex
100
AcDb2dVertex
 10
324.335688
 20
208.359057
 30
0.0
  0
VERTEX
  5
212
100
AcDbEntity
  8
1
390
0
 62
     9
100
AcDbVertex
100
AcDb2dVertex
 10
324.361554
 20
208.352542
 30
0.0
  0
VERTEX
  5
213
100
AcDbEntity
  8
1
390
0
 62
     9
100
AcDbVertex
100
AcDb2dVertex
 10
324.388795
 20
208.34682
 30
0.0
  0
VERTEX
  5
214
100
AcDbEntity
  8
1
390
0
 62
     9
100
AcDbVertex
100
AcDb2dVertex
 10
324.411156
 20
208.342974
 30
0.0
  0
VERTEX
  5
215
100
AcDbEntity
  8
1
390
0
 62
     9
100
AcDbVertex
100
AcDb2dVertex
 10
324.434343
 20
208.339781
 30
0.0
  0
VERTEX
  5
216
100
AcDbEntity
  8
1
390
0
 62
     9
100
AcDbVertex
100
AcDb2dVertex
 10
324.458334
 20
208.337321
 30
0.0
  0
VERTEX
  5
217
100
AcDbEntity
  8
1
390
0
 62
     9
100
AcDbVertex
100
AcDb2dVertex
 10
324.483288
 20
208.335662
 30
0.0
  0
VERTEX
  5
218
100
AcDbEntity
  8
1
390
0
 62
     9
100
AcDbVertex
100
AcDb2dVertex
 10
324.510012
 20
208.334895
 30
0.0
  0
SEQEND
  5
219
100
AcDbEntity
  8
0
390
0
  0
ARC
  5
21A
100
AcDbEntity
  8
1
390
0
  6
DOT
 62
     9
100
AcDbCircle
 10
324.51623
 20
209.131783
 30
0.0
 40
0.7
210
0.0
220
0.0
230
1.0
100
AcDbArc
 50
223.218716
 51
269.491061
  0
ARC
  5
21B
100
AcDbEntity
  8
1
390
0
  6
DOT
 62
     9
100
AcDbCircle
 10
324.51623
 20
209.131783
 30
0.0
 40
0.7
210
0.0
220
0.0
230
1.0
100
AcDbArc
 50
210.0
 51
223.218716
  0
ARC
  5
21C
100
AcDbEntity
  8
1
390
0
  6
DOT
 62
     9
100
AcDbCircle
 10
324.51623
 20
201.431783
 30
0.0
 40
0.7
210
0.0
220
0.0
230
1.0
100
AcDbArc
 50
136.780023
 51
150.0
  0
ARC
  5
21D
100
AcDbEntity
  8
1
390
0
  6
DOT
 62
     9
100
AcDbCircle
 10
324.51623
 20
201.431783
 30
0.0
 40
0.7
210
0.0
220
0.0
230
1.0
100
AcDbArc
 50
132.955079
 51
136.780023
  0
ARC
  5
21E
100
AcDbEntity
  8
1
390
0
  6
DOT
 62
     9
100
AcDbCircle
 10
324.51623
 20
201.431783
 30
0.0
 40
0.7
210
0.0
220
0.0
230
1.0
100
AcDbArc
 50
90.508939
 51
132.955079
  0
POLYLINE
  5
21F
100
AcDbEntity
  8
1
390
0
  6
DOT
 62
     9
100
AcDb2dPolyline
 66
     1
 10
0.0
 20
0.0
 30
0.0
 40
1.0
 41
1.0
  0
VERTEX
  5
220
100
AcDbEntity
  8
1
390
0
 62
     9
100
AcDbVertex
100
AcDb2dVertex
 10
325.103105
 20
201.880526
 30
0.0
  0
VERTEX
  5
221
100
AcDbEntity
  8
1
390
0
 62
     9
100
AcDbVertex
100
AcDb2dVertex
 10
325.093397
 20
201.896729
 30
0.0
  0
VERTEX
  5
222
100
AcDbEntity
  8
1
390
0
 62
     9
100
AcDbVertex
100
AcDb2dVertex
 10
325.073448
 20
201.927255
 30
0.0
  0
VERTEX
  5
223
100
AcDbEntity
  8
1
390
0
 62
     9
100
AcDbVertex
100
AcDb2dVertex
 10
325.051929
 20
201.956741
 30
0.0
  0
VERTEX
  5
224
100
AcDbEntity
  8
1
390
0
 62
     9
100
AcDbVertex
100
AcDb2dVertex
 10
325.028905
 20
201.985094
 30
0.0
  0
VERTEX
  5
225
100
AcDbEntity
  8
1
390
0
 62
     9
100
AcDbVertex
100
AcDb2dVertex
 10
325.004422
 20
202.012241
 30
0.0
  0
VERTEX
  5
226
100
AcDbEntity
  8
1
390
0
 62
     9
100
AcDbVertex
100
AcDb2dVertex
 10
324.982938
 20
202.033892
 30
0.0
  0
VERTEX
  5
227
100
AcDbEntity
  8
1
390
0
 62
     9
100
AcDbVertex
100
AcDb2dVertex
 10
324.9605
 20
202.054614
 30
0.0
  0
VERTEX
  5
228
100
AcDbEntity
  8
1
390
0
 62
     9
100
AcDbVertex
100
AcDb2dVertex
 10
324.937151
 20
202.074359
 30
0.0
  0
VERTEX
  5
229
100
AcDbEntity
  8
1
390
0
 62
     9
100
AcDbVertex
100
AcDb2dVertex
 10
324.912947
 20
202.093073
 30
0.0
  0
VERTEX
  5
22A
100
AcDbEntity
  8
1
390
0
 62
     9
100
AcDbVertex
100
AcDb2dVertex
 10
324.887927
 20
202.110722
 30
0.0
  0
VERTEX
  5
22B
100
AcDbEntity
  8
1
390
0
 62
     9
100
AcDbVertex
100
AcDb2dVertex
 10
324.862132
 20
202.127269
 30
0.0
  0
VERTEX
  5
22C
100
AcDbEntity
  8
1
390
0
 62
     9
100
AcDbVertex
100
AcDb2dVertex
 10
324.8356
 20
202.142678
 30
0.0
  0
VERTEX
  5
22D
100
AcDbEntity
  8
1
390
0
 62
     9
100
AcDbVertex
100
AcDb2dVertex
 10
324.808388
 20
202.156907
 30
0.0
  0
VERTEX
  5
22E
100
AcDbEntity
  8
1
390
0
 62
     9
100
AcDbVertex
100
AcDb2dVertex
 10
324.780571
 20
202.169909
 30
0.0
  0
VERTEX
  5
22F
100
AcDbEntity
  8
1
390
0
 62
     9
100
AcDbVertex
100
AcDb2dVertex
 10
324.752167
 20
202.181676
 30
0.0
  0
VERTEX
  5
230
100
AcDbEntity
  8
1
390
0
 62
     9
100
AcDbVertex
100
AcDb2dVertex
 10
324.723241
 20
202.192172
 30
0.0
  0
VERTEX
  5
231
100
AcDbEntity
  8
1
390
0
 62
     9
100
AcDbVertex
100
AcDb2dVertex
 10
324.693858
 20
202.201363
 30
0.0
  0
VERTEX
  5
232
100
AcDbEntity
  8
1
390
0
 62
     9
100
AcDbVertex
100
AcDb2dVertex
 10
324.664078
 20
202.20923
 30
0.0
  0
VERTEX
  5
233
100
AcDbEntity
  8
1
390
0
 62
     9
100
AcDbVertex
100
AcDb2dVertex
 10
324.633962
 20
202.215754
 30
0.0
  0
VERTEX
  5
234
100
AcDbEntity
  8
1
390
0
 62
     9
100
AcDbVertex
100
AcDb2dVertex
 10
324.603571
 20
202.220916
 30
0.0
  0
VERTEX
  5
235
100
AcDbEntity
  8
1
390
0
 62
     9
100
AcDbVertex
100
AcDb2dVertex
 10
324.572967
 20
202.2247
 30
0.0
  0
VERTEX
  5
236
100
AcDbEntity
  8
1
390
0
 62
     9
100
AcDbVertex
100
AcDb2dVertex
 10
324.542171
 20
202.227101
 30
0.0
  0
VERTEX
  5
237
100
AcDbEntity
  8
1
390
0
 62
     9
100
AcDbVertex
100
AcDb2dVertex
 10
324.510012
 20
202.228117
 30
0.0
  0
SEQEND
  5
238
100
AcDbEntity
  8
0
390
0
  0
POLYLINE
  5
239
100
AcDbEntity
  8
1
390
0
  6
DOT
 62
     9
100
AcDb2dPolyline
 66
     1
 10
0.0
 20
0.0
 30
0.0
 40
1.0
 41
1.0
  0
VERTEX
  5
23A
100
AcDbEntity
  8
1
390
0
 62
     9
100
AcDbVertex
100
AcDb2dVertex
 10
323.91692
 20
208.68304
 30
0.0
  0
VERTEX
  5
23B
100
AcDbEntity
  8
1
390
0
 62
     9
100
AcDbVertex
100
AcDb2dVertex
 10
323.926628
 20
208.666836
 30
0.0
  0
VERTEX
  5
23C
100
AcDbEntity
  8
1
390
0
 62
     9
100
AcDbVertex
100
AcDb2dVertex
 10
323.946576
 20
208.636311
 30
0.0
  0
VERTEX
  5
23D
100
AcDbEntity
  8
1
390
0
 62
     9
100
AcDbVertex
100
AcDb2dVertex
 10
323.968095
 20
208.606824
 30
0.0
  0
VERTEX
  5
23E
100
AcDbEntity
  8
1
390
0
 62
     9
100
AcDbVertex
100
AcDb2dVertex
 10
323.991119
 20
208.578471
 30
0.0
  0
VERTEX
  5
23F
100
AcDbEntity
  8
1
390
0
 62
     9
100
AcDbVertex
100
AcDb2dVertex
 10
324.015602
 20
208.551324
 30
0.0
  0
VERTEX
  5
240
100
AcDbEntity
  8
1
390
0
 62
     9
100
AcDbVertex
100
AcDb2dVertex
 10
324.037086
 20
208.529673
 30
0.0
  0
VERTEX
  5
241
100
AcDbEntity
  8
1
390
0
 62
     9
100
AcDbVertex
100
AcDb2dVertex
 10
324.059524
 20
208.508951
 30
0.0
  0
VERTEX
  5
242
100
AcDbEntity
  8
1
390
0
 62
     9
100
AcDbVertex
100
AcDb2dVertex
 10
324.082874
 20
208.489207
 30
0.0
  0
VERTEX
  5
243
100
AcDbEntity
  8
1
390
0
 62
     9
100
AcDbVertex
100
AcDb2dVertex
 10
324.107078
 20
208.470492
 30
0.0
  0
VERTEX
  5
244
100
AcDbEntity
  8
1
390
0
 62
     9
100
AcDbVertex
100
AcDb2dVertex
 10
324.132097
 20
208.452844
 30
0.0
  0
VERTEX
  5
245
100
AcDbEntity
  8
1
390
0
 62
     9
100
AcDbVertex
100
AcDb2dVertex
 10
324.157893
 20
208.436296
 30
0.0
  0
VERTEX
  5
246
100
AcDbEntity
  8
1
390
0
 62
     9
100
AcDbVertex
100
AcDb2dVertex
 10
324.184424
 20
208.420887
 30
0.0
  0
VERTEX
  5
247
100
AcDbEntity
  8
1
390
0
 62
     9
100
AcDbVertex
100
AcDb2dVertex
 10
324.211636
 20
208.406658
 30
0.0
  0
VERTEX
  5
248
100
AcDbEntity
  8
1
390
0
 62
     9
100
AcDbVertex
100
AcDb2dVertex
 10
324.239453
 20
208.393656
 30
0.0
  0
VERTEX
  5
249
100
AcDbEntity
  8
1
390
0
 62
     9
100
AcDbVertex
100
AcDb2dVertex
 10
324.267857
 20
208.38189
 30
0.0
  0
VERTEX
  5
24A
100
AcDbEntity
  8
1
390
0
 62
     9
100
AcDbVertex
100
AcDb2dVertex
 10
324.296784
 20
208.371394
 30
0.0
  0
VERTEX
  5
24B
100
AcDbEntity
  8
1
390
0
 62
     9
100
AcDbVertex
100
AcDb2dVertex
 10
324.326166
 20
208.362202
 30
0.0
  0
VERTEX
  5
24C
100
AcDbEntity
  8
1
390
0
 62
     9
100
AcDbVertex
100
AcDb2dVertex
 10
324.355946
 20
208.354335
 30
0.0
  0
VERTEX
  5
24D
100
AcDbEntity
  8
1
390
0
 62
     9
100
AcDbVertex
100
AcDb2dVertex
 10
324.386062
 20
208.347812
 30
0.0
  0
VERTEX
  5
24E
100
AcDbEntity
  8
1
390
0
 62
     9
100
AcDbVertex
100
AcDb2dVertex
 10
324.416454
 20
208.34265
 30
0.0
  0
VERTEX
  5
24F
100
AcDbEntity
  8
1
390
0
 62
     9
100
AcDbVertex
100
AcDb2dVertex
 10
324.447057
 20
208.338865
 30
0.0
  0
VERTEX
  5
250
100
AcDbEntity
  8
1
390
0
 62
     9
100
AcDbVertex
100
AcDb2dVertex
 10
324.477853
 20
208.336465
 30
0.0
  0
VERTEX
  5
251
100
AcDbEntity
  8
1
390
0
 62
     9
100
AcDbVertex
100
AcDb2dVertex
 10
324.510012
 20
208.335448
 30
0.0
  0
SEQEND
  5
252
100
AcDbEntity
  8
0
390
0
  0
POLYLINE
  5
253
100
AcDbEntity
  8
1
390
0
  6
DOT
 62
     9
100
AcDb2dPolyline
 66
     1
 10
0.0
 20
0.0
 30
0.0
 40
1.0
 41
1.0
  0
VERTEX
  5
254
100
AcDbEntity
  8
1
390
0
 62
     9
100
AcDbVertex
100
AcDb2dVertex
 10
324.510012
 20
208.334895
 30
0.0
  0
VERTEX
  5
255
100
AcDbEntity
  8
1
390
0
 62
     9
100
AcDbVertex
100
AcDb2dVertex
 10
324.53936
 20
208.335792
 30
0.0
  0
VERTEX
  5
256
100
AcDbEntity
  8
1
390
0
 62
     9
100
AcDbVertex
100
AcDb2dVertex
 10
324.56635
 20
208.33773
 30
0.0
  0
VERTEX
  5
257
100
AcDbEntity
  8
1
390
0
 62
     9
100
AcDbVertex
100
AcDb2dVertex
 10
324.592015
 20
208.340571
 30
0.0
  0
VERTEX
  5
258
100
AcDbEntity
  8
1
390
0
 62
     9
100
AcDbVertex
100
AcDb2dVertex
 10
324.616437
 20
208.344187
 30
0.0
  0
VERTEX
  5
259
100
AcDbEntity
  8
1
390
0
 62
     9
100
AcDbVertex
100
AcDb2dVertex
 10
324.639596
 20
208.348451
 30
0.0
  0
VERTEX
  5
25A
100
AcDbEntity
  8
1
390
0
 62
     9
100
AcDbVertex
100
AcDb2dVertex
 10
324.667999
 20
208.354813
 30
0.0
  0
VERTEX
  5
25B
100
AcDbEntity
  8
1
390
0
 62
     9
100
AcDbVertex
100
AcDb2dVertex
 10
324.694235
 20
208.36183
 30
0.0
  0
VERTEX
  5
25C
100
AcDbEntity
  8
1
390
0
 62
     9
100
AcDbVertex
100
AcDb2dVertex
 10
324.718326
 20
208.369263
 30
0.0
  0
VERTEX
  5
25D
100
AcDbEntity
  8
1
390
0
 62
     9
100
AcDbVertex
100
AcDb2dVertex
 10
324.743141
 20
208.377944
 30
0.0
  0
VERTEX
  5
25E
100
AcDbEntity
  8
1
390
0
 62
     9
100
AcDbVertex
100
AcDb2dVertex
 10
324.765292
 20
208.386604
 30
0.0
  0
VERTEX
  5
25F
100
AcDbEntity
  8
1
390
0
 62
     9
100
AcDbVertex
100
AcDb2dVertex
 10
324.784849
 20
208.394994
 30
0.0
  0
VERTEX
  5
260
100
AcDbEntity
  8
1
390
0
 62
     9
100
AcDbVertex
100
AcDb2dVertex
 10
324.801888
 20
208.402893
 30
0.0
  0
VERTEX
  5
261
100
AcDbEntity
  8
1
390
0
 62
     9
100
AcDbVertex
100
AcDb2dVertex
 10
324.816522
 20
208.410134
 30
0.0
  0
VERTEX
  5
262
100
AcDbEntity
  8
1
390
0
 62
     9
100
AcDbVertex
100
AcDb2dVertex
 10
324.831571
 20
208.418036
 30
0.0
  0
VERTEX
  5
263
100
AcDbEntity
  8
1
390
0
 62
     9
100
AcDbVertex
100
AcDb2dVertex
 10
324.845772
 20
208.425932
 30
0.0
  0
VERTEX
  5
264
100
AcDbEntity
  8
1
390
0
 62
     9
100
AcDbVertex
100
AcDb2dVertex
 10
324.861322
 20
208.435087
 30
0.0
  0
VERTEX
  5
265
100
AcDbEntity
  8
1
390
0
 62
     9
100
AcDbVertex
100
AcDb2dVertex
 10
324.878137
 20
208.445611
 30
0.0
  0
VERTEX
  5
266
100
AcDbEntity
  8
1
390
0
 62
     9
100
AcDbVertex
100
AcDb2dVertex
 10
324.89612
 20
208.457623
 30
0.0
  0
VERTEX
  5
267
100
AcDbEntity
  8
1
390
0
 62
     9
100
AcDbVertex
100
AcDb2dVertex
 10
324.916093
 20
208.471939
 30
0.0
  0
VERTEX
  5
268
100
AcDbEntity
  8
1
390
0
 62
     9
100
AcDbVertex
100
AcDb2dVertex
 10
324.937085
 20
208.488171
 30
0.0
  0
VERTEX
  5
269
100
AcDbEntity
  8
1
390
0
 62
     9
100
AcDbVertex
100
AcDb2dVertex
 10
324.958932
 20
208.506474
 30
0.0
  0
VERTEX
  5
26A
100
AcDbEntity
  8
1
390
0
 62
     9
100
AcDbVertex
100
AcDb2dVertex
 10
324.976079
 20
208.521941
 30
0.0
  0
VERTEX
  5
26B
100
AcDbEntity
  8
1
390
0
 62
     9
100
AcDbVertex
100
AcDb2dVertex
 10
324.993528
 20
208.538775
 30
0.0
  0
VERTEX
  5
26C
100
AcDbEntity
  8
1
390
0
 62
     9
100
AcDbVertex
100
AcDb2dVertex
 10
325.011181
 20
208.557045
 30
0.0
  0
VERTEX
  5
26D
100
AcDbEntity
  8
1
390
0
 62
     9
100
AcDbVertex
100
AcDb2dVertex
 10
325.028924
 20
208.576814
 30
0.0
  0
VERTEX
  5
26E
100
AcDbEntity
  8
1
390
0
 62
     9
100
AcDbVertex
100
AcDb2dVertex
 10
325.046615
 20
208.598112
 30
0.0
  0
VERTEX
  5
26F
100
AcDbEntity
  8
1
390
0
 62
     9
100
AcDbVertex
100
AcDb2dVertex
 10
325.063818
 20
208.620566
 30
0.0
  0
VERTEX
  5
270
100
AcDbEntity
  8
1
390
0
 62
     9
100
AcDbVertex
100
AcDb2dVertex
 10
325.080725
 20
208.644592
 30
0.0
  0
VERTEX
  5
271
100
AcDbEntity
  8
1
390
0
 62
     9
100
AcDbVertex
100
AcDb2dVertex
 10
325.097205
 20
208.670234
 30
0.0
  0
VERTEX
  5
272
100
AcDbEntity
  8
1
390
0
 62
     9
100
AcDbVertex
100
AcDb2dVertex
 10
325.107413
 20
208.687425
 30
0.0
  0
SEQEND
  5
273
100
AcDbEntity
  8
0
390
0
  0
POLYLINE
  5
274
100
AcDbEntity
  8
1
390
0
  6
DOT
 62
     9
100
AcDb2dPolyline
 66
     1
 10
0.0
 20
0.0
 30
0.0
 40
1.0
 41
1.0
  0
VERTEX
  5
275
100
AcDbEntity
  8
1
390
0
 62
     9
100
AcDbVertex
100
AcDb2dVertex
 10
324.510012
 20
202.228671
 30
0.0
  0
VERTEX
  5
276
100
AcDbEntity
  8
1
390
0
 62
     9
100
AcDbVertex
100
AcDb2dVertex
 10
324.480665
 20
202.227773
 30
0.0
  0
VERTEX
  5
277
100
AcDbEntity
  8
1
390
0
 62
     9
100
AcDbVertex
100
AcDb2dVertex
 10
324.453674
 20
202.225835
 30
0.0
  0
VERTEX
  5
278
100
AcDbEntity
  8
1
390
0
 62
     9
100
AcDbVertex
100
AcDb2dVertex
 10
324.428009
 20
202.222994
 30
0.0
  0
VERTEX
  5
279
100
AcDbEntity
  8
1
390
0
 62
     9
100
AcDbVertex
100
AcDb2dVertex
 10
324.403587
 20
202.219378
 30
0.0
  0
VERTEX
  5
27A
100
AcDbEntity
  8
1
390
0
 62
     9
100
AcDbVertex
100
AcDb2dVertex
 10
324.380429
 20
202.215115
 30
0.0
  0
VERTEX
  5
27B
100
AcDbEntity
  8
1
390
0
 62
     9
100
AcDbVertex
100
AcDb2dVertex
 10
324.352026
 20
202.208752
 30
0.0
  0
VERTEX
  5
27C
100
AcDbEntity
  8
1
390
0
 62
     9
100
AcDbVertex
100
AcDb2dVertex
 10
324.32579
 20
202.201736
 30
0.0
  0
VERTEX
  5
27D
100
AcDbEntity
  8
1
390
0
 62
     9
100
AcDbVertex
100
AcDb2dVertex
 10
324.301699
 20
202.194302
 30
0.0
  0
VERTEX
  5
27E
100
AcDbEntity
  8
1
390
0
 62
     9
100
AcDbVertex
100
AcDb2dVertex
 10
324.276884
 20
202.185621
 30
0.0
  0
VERTEX
  5
27F
100
AcDbEntity
  8
1
390
0
 62
     9
100
AcDbVertex
100
AcDb2dVertex
 10
324.254733
 20
202.176961
 30
0.0
  0
VERTEX
  5
280
100
AcDbEntity
  8
1
390
0
 62
     9
100
AcDbVertex
100
AcDb2dVertex
 10
324.235175
 20
202.168572
 30
0.0
  0
VERTEX
  5
281
100
AcDbEntity
  8
1
390
0
 62
     9
100
AcDbVertex
100
AcDb2dVertex
 10
324.218137
 20
202.160672
 30
0.0
  0
VERTEX
  5
282
100
AcDbEntity
  8
1
390
0
 62
     9
100
AcDbVertex
100
AcDb2dVertex
 10
324.203502
 20
202.153432
 30
0.0
  0
VERTEX
  5
283
100
AcDbEntity
  8
1
390
0
 62
     9
100
AcDbVertex
100
AcDb2dVertex
 10
324.188453
 20
202.14553
 30
0.0
  0
VERTEX
  5
284
100
AcDbEntity
  8
1
390
0
 62
     9
100
AcDbVertex
100
AcDb2dVertex
 10
324.174252
 20
202.137633
 30
0.0
  0
VERTEX
  5
285
100
AcDbEntity
  8
1
390
0
 62
     9
100
AcDbVertex
100
AcDb2dVertex
 10
324.158702
 20
202.128478
 30
0.0
  0
VERTEX
  5
286
100
AcDbEntity
  8
1
390
0
 62
     9
100
AcDbVertex
100
AcDb2dVertex
 10
324.141887
 20
202.117954
 30
0.0
  0
VERTEX
  5
287
100
AcDbEntity
  8
1
390
0
 62
     9
100
AcDbVertex
100
AcDb2dVertex
 10
324.123904
 20
202.105942
 30
0.0
  0
VERTEX
  5
288
100
AcDbEntity
  8
1
390
0
 62
     9
100
AcDbVertex
100
AcDb2dVertex
 10
324.103931
 20
202.091627
 30
0.0
  0
VERTEX
  5
289
100
AcDbEntity
  8
1
390
0
 62
     9
100
AcDbVertex
100
AcDb2dVertex
 10
324.082939
 20
202.075394
 30
0.0
  0
VERTEX
  5
28A
100
AcDbEntity
  8
1
390
0
 62
     9
100
AcDbVertex
100
AcDb2dVertex
 10
324.061092
 20
202.057091
 30
0.0
  0
VERTEX
  5
28B
100
AcDbEntity
  8
1
390
0
 62
     9
100
AcDbVertex
100
AcDb2dVertex
 10
324.043945
 20
202.041625
 30
0.0
  0
VERTEX
  5
28C
100
AcDbEntity
  8
1
390
0
 62
     9
100
AcDbVertex
100
AcDb2dVertex
 10
324.026496
 20
202.024791
 30
0.0
  0
VERTEX
  5
28D
100
AcDbEntity
  8
1
390
0
 62
     9
100
AcDbVertex
100
AcDb2dVertex
 10
324.008843
 20
202.00652
 30
0.0
  0
VERTEX
  5
28E
100
AcDbEntity
  8
1
390
0
 62
     9
100
AcDbVertex
100
AcDb2dVertex
 10
323.9911
 20
201.986752
 30
0.0
  0
VERTEX
  5
28F
100
AcDbEntity
  8
1
390
0
 62
     9
100
AcDbVertex
100
AcDb2dVertex
 10
323.973409
 20
201.965454
 30
0.0
  0
VERTEX
  5
290
100
AcDbEntity
  8
1
390
0
 62
     9
100
AcDbVertex
100
AcDb2dVertex
 10
323.956206
 20
201.942999
 30
0.0
  0
VERTEX
  5
291
100
AcDbEntity
  8
1
390
0
 62
     9
100
AcDbVertex
100
AcDb2dVertex
 10
323.939299
 20
201.918974
 30
0.0
  0
VERTEX
  5
292
100
AcDbEntity
  8
1
390
0
 62
     9
100
AcDbVertex
100
AcDb2dVertex
 10
323.922819
 20
201.893331
 30
0.0
  0
VERTEX
  5
293
100
AcDbEntity
  8
1
390
0
 62
     9
100
AcDbVertex
100
AcDb2dVertex
 10
323.912612
 20
201.87614
 30
0.0
  0
SEQEND
  5
294
100
AcDbEntity
  8
0
390
0
  0
LINE
  5
295
100
AcDbEntity
  8
1
390
0
  6
CENTER
 62
     1
100
AcDbLine
 10
292.75044
 20
205.281783
 30
0.0
 11
302.269585
 21
205.281783
 31
0.0
  0
LINE
  5
296
100
AcDbEntity
  8
1
390
0
  6
CENTER
 62
     1
100
AcDbLine
 10
253.452886
 20
205.281783
 30
0.0
 11
292.710012
 21
205.281783
 31
0.0
  0
LINE
  5
297
100
AcDbEntity
  8
1
390
0
  6
CENTER
 62
     1
100
AcDbLine
 10
302.310012
 20
205.281783
 30
0.0
 11
327.710012
 21
205.281783
 31
0.0
  0
LINE
  5
298
100
AcDbEntity
  8
1
390
0
  6
Continuous
 62
     9
100
AcDbLine
 10
244.144748
 20
194.180044
 30
0.0
 11
251.438724
 21
212.976059
 31
0.0
  0
LINE
  5
299
100
AcDbEntity
  8
1
390
0
  6
Continuous
 62
     9
100
AcDbLine
 10
249.144748
 20
194.180044
 30
0.0
 11
256.438724
 21
212.976059
 31
0.0
  0
LINE
  5
29A
100
AcDbEntity
  8
1
390
0
  6
Continuous
 62
     7
100
AcDbLine
 10
202.492179
 20
114.294977
 30
0.0
 11
202.492179
 21
88.794977
 31
0.0
  0
LINE
  5
29B
100
AcDbEntity
  8
1
390
0
  6
Continuous
 62
     7
100
AcDbLine
 10
202.492179
 20
88.794977
 30
0.0
 11
201.492179
 21
88.794977
 31
0.0
  0
LINE
  5
29C
100
AcDbEntity
  8
1
390
0
  6
Continuous
 62
     7
100
AcDbLine
 10
118.492179
 20
90.794977
 30
0.0
 11
118.492179
 21
114.294977
 31
0.0
  0
LINE
  5
29D
100
AcDbEntity
  8
1
390
0
  6
Continuous
 62
     7
100
AcDbLine
 10
201.492179
 20
88.794977
 30
0.0
 11
120.492179
 21
88.794977
 31
0.0
  0
ARC
  5
29E
100
AcDbEntity
  8
1
390
0
  6
Continuous
 62
     7
100
AcDbCircle
 10
120.492179
 20
90.794977
 30
0.0
 40
2.0
210
0.0
220
0.0
230
1.0
100
AcDbArc
 50
180.0
 51
270.0
  0
LINE
  5
29F
100
AcDbEntity
  8
1
390
0
  6
Continuous
 62
     7
100
AcDbLine
 10
118.492179
 20
116.294977
 30
0.0
 11
200.492179
 21
116.294977
 31
0.0
  0
LINE
  5
2A0
100
AcDbEntity
  8
1
390
0
  6
Continuous
 62
     7
100
AcDbLine
 10
118.492179
 20
114.294977
 30
0.0
 11
118.492179
 21
116.294977
 31
0.0
  0
ARC
  5
2A1
100
AcDbEntity
  8
1
390
0
  6
DOT
 62
     9
100
AcDbCircle
 10
200.492179
 20
114.294977
 30
0.0
 40
2.0
210
0.0
220
0.0
230
0.9999999999999999
100
AcDbArc
 50
0.0
 51
90.0
  0
LINE
  5
2A2
100
AcDbEntity
  8
1
390
0
  6
Continuous
 62
     7
100
AcDbLine
 10
199.492179
 20
116.494977
 30
0.0
 11
197.492179
 21
116.494977
 31
0.0
  0
LINE
  5
2A3
100
AcDbEntity
  8
1
390
0
  6
Continuous
 62
     7
100
AcDbLine
 10
199.492179
 20
116.494977
 30
0.0
 11
199.492179
 21
116.294977
 31
0.0
  0
LINE
  5
2A4
100
AcDbEntity
  8
1
390
0
  6
Continuous
 62
     7
100
AcDbLine
 10
197.492179
 20
116.494977
 30
0.0
 11
123.492179
 21
116.494977
 31
0.0
  0
LINE
  5
2A5
100
AcDbEntity
  8
1
390
0
  6
Continuous
 62
     7
100
AcDbLine
 10
121.492179
 20
116.494977
 30
0.0
 11
121.492179
 21
116.294977
 31
0.0
  0
LINE
  5
2A6
100
AcDbEntity
  8
1
390
0
  6
Continuous
 62
     7
100
AcDbLine
 10
123.492179
 20
116.494977
 30
0.0
 11
121.492179
 21
116.494977
 31
0.0
  0
LINE
  5
2A7
100
AcDbEntity
  8
1
390
0
  6
Continuous
 62
     7
100
AcDbLine
 10
202.492179
 20
83.794977
 30
0.0
 11
186.492179
 21
83.794977
 31
0.0
  0
LINE
  5
2A8
100
AcDbEntity
  8
1
390
0
  6
Continuous
 62
     7
100
AcDbLine
 10
118.492179
 20
83.794977
 30
0.0
 11
134.492179
 21
83.794977
 31
0.0
  0
LINE
  5
2A9
100
AcDbEntity
  8
1
390
0
  6
DOT
 62
     9
100
AcDbLine
 10
132.992179
 20
116.494977
 30
0.0
 11
132.992179
 21
116.294977
 31
0.0
  0
LINE
  5
2AA
100
AcDbEntity
  8
1
390
0
  6
DOT
 62
     9
100
AcDbLine
 10
126.292179
 20
116.494977
 30
0.0
 11
126.292179
 21
116.294977
 31
0.0
  0
LINE
  5
2AB
100
AcDbEntity
  8
1
390
0
  6
Continuous
 62
     7
100
AcDbLine
 10
126.492179
 20
117.794977
 30
0.0
 11
126.492179
 21
116.494977
 31
0.0
  0
LINE
  5
2AC
100
AcDbEntity
  8
1
390
0
  6
DOT
 62
     9
100
AcDbLine
 10
126.492179
 20
116.494977
 30
0.0
 11
126.492179
 21
116.294977
 31
0.0
  0
LINE
  5
2AD
100
AcDbEntity
  8
1
390
0
  6
Continuous
 62
     7
100
AcDbLine
 10
132.792179
 20
117.794977
 30
0.0
 11
126.492179
 21
117.794977
 31
0.0
  0
LINE
  5
2AE
100
AcDbEntity
  8
1
390
0
  6
Continuous
 62
     7
100
AcDbLine
 10
132.792179
 20
117.794977
 30
0.0
 11
132.792179
 21
116.494977
 31
0.0
  0
LINE
  5
2AF
100
AcDbEntity
  8
1
390
0
  6
DOT
 62
     9
100
AcDbLine
 10
132.792179
 20
116.494977
 30
0.0
 11
132.792179
 21
116.294977
 31
0.0
  0
LINE
  5
2B0
100
AcDbEntity
  8
1
390
0
  6
DOT
 62
     9
100
AcDbLine
 10
127.992179
 20
117.794977
 30
0.0
 11
127.992179
 21
116.794977
 31
0.0
  0
LINE
  5
2B1
100
AcDbEntity
  8
1
390
0
  6
DOT
 62
     9
100
AcDbLine
 10
131.492179
 20
116.794977
 30
0.0
 11
127.992179
 21
116.794977
 31
0.0
  0
LINE
  5
2B2
100
AcDbEntity
  8
1
390
0
  6
DOT
 62
     9
100
AcDbLine
 10
131.492179
 20
117.794977
 30
0.0
 11
131.492179
 21
116.794977
 31
0.0
  0
LINE
  5
2B3
100
AcDbEntity
  8
1
390
0
  6
DOT
 62
     9
100
AcDbLine
 10
127.692179
 20
117.794977
 30
0.0
 11
127.692179
 21
116.294977
 31
0.0
  0
LINE
  5
2B4
100
AcDbEntity
  8
1
390
0
  6
DOT
 62
     9
100
AcDbLine
 10
129.692179
 20
116.794977
 30
0.0
 11
129.692179
 21
116.294977
 31
0.0
  0
LINE
  5
2B5
100
AcDbEntity
  8
1
390
0
  6
Continuous
 62
     7
100
AcDbLine
 10
203.992179
 20
102.794977
 30
0.0
 11
203.992179
 21
93.794977
 31
0.0
  0
LINE
  5
2B6
100
AcDbEntity
  8
1
390
0
  6
Continuous
 62
     7
100
AcDbLine
 10
207.492179
 20
95.294977
 30
0.0
 11
207.492179
 21
101.294977
 31
0.0
  0
ARC
  5
2B7
100
AcDbEntity
  8
1
390
0
  6
Continuous
 62
     7
100
AcDbCircle
 10
200.481784
 20
114.284581
 30
0.0
 40
2.010422
210
0.0
220
0.0
230
1.0
100
AcDbArc
 50
0.296265
 51
89.703735
  0
ARC
  5
2B8
100
AcDbEntity
  8
1
390
0
  6
Continuous
 62
     7
100
AcDbCircle
 10
120.492179
 20
86.794977
 30
0.0
 40
2.0
210
0.0
220
0.0
230
1.0
100
AcDbArc
 50
90.0
 51
180.0
  0
ARC
  5
2B9
100
AcDbEntity
  8
1
390
0
  6
Continuous
 62
     7
100
AcDbCircle
 10
132.492179
 20
86.794977
 30
0.0
 40
2.0
210
0.0
220
0.0
230
1.0
100
AcDbArc
 50
0.0
 51
90.0
  0
ARC
  5
2BA
100
AcDbEntity
  8
1
390
0
  6
Continuous
 62
     7
100
AcDbCircle
 10
188.492179
 20
86.794977
 30
0.0
 40
2.0
210
0.0
220
0.0
230
1.0
100
AcDbArc
 50
90.0
 51
180.0
  0
ARC
  5
2BB
100
AcDbEntity
  8
1
390
0
  6
Continuous
 62
     7
100
AcDbCircle
 10
200.492179
 20
86.794977
 30
0.0
 40
2.0
210
0.0
220
0.0
230
1.0
100
AcDbArc
 50
0.0
 51
90.0
  0
LINE
  5
2BC
100
AcDbEntity
  8
1
390
0
  6
Continuous
 62
     7
100
AcDbLine
 10
186.492179
 20
86.794977
 30
0.0
 11
186.492179
 21
83.794977
 31
0.0
  0
LINE
  5
2BD
100
AcDbEntity
  8
1
390
0
  6
Continuous
 62
     7
100
AcDbLine
 10
202.492179
 20
83.794977
 30
0.0
 11
202.492179
 21
86.794977
 31
0.0
  0
LINE
  5
2BE
100
AcDbEntity
  8
1
390
0
  6
Continuous
 62
     7
100
AcDbLine
 10
118.492179
 20
86.794977
 30
0.0
 11
118.492179
 21
83.794977
 31
0.0
  0
LINE
  5
2BF
100
AcDbEntity
  8
1
390
0
  6
Continuous
 62
     7
100
AcDbLine
 10
134.492179
 20
83.794977
 30
0.0
 11
134.492179
 21
86.794977
 31
0.0
  0
LINE
  5
2C0
100
AcDbEntity
  8
1
390
0
  6
Continuous
 62
     7
100
AcDbLine
 10
202.992179
 20
103.794977
 30
0.0
 11
202.492179
 21
103.794977
 31
0.0
  0
LINE
  5
2C1
100
AcDbEntity
  8
1
390
0
  6
Continuous
 62
     7
100
AcDbLine
 10
202.492179
 20
92.794977
 30
0.0
 11
202.992179
 21
92.794977
 31
0.0
  0
ARC
  5
2C2
100
AcDbEntity
  8
1
390
0
  6
Continuous
 62
     7
100
AcDbCircle
 10
202.992179
 20
102.794977
 30
0.0
 40
1.0
210
0.0
220
0.0
230
1.0
100
AcDbArc
 50
0.0
 51
90.0
  0
ARC
  5
2C3
100
AcDbEntity
  8
1
390
0
  6
Continuous
 62
     7
100
AcDbCircle
 10
202.992179
 20
93.794977
 30
0.0
 40
1.0
210
0.0
220
0.0
230
1.0
100
AcDbArc
 50
270.0
 51
360.0
  0
LINE
  5
2C4
100
AcDbEntity
  8
1
390
0
  6
Continuous
 62
     7
100
AcDbLine
 10
207.492179
 20
101.294977
 30
0.0
 11
203.992179
 21
101.294977
 31
0.0
  0
LINE
  5
2C5
100
AcDbEntity
  8
1
390
0
  6
Continuous
 62
     7
100
AcDbLine
 10
203.992179
 20
95.294977
 30
0.0
 11
207.492179
 21
95.294977
 31
0.0
  0
LINE
  5
2C6
100
AcDbEntity
  8
1
390
0
  6
Continuous
 62
     7
100
AcDbLine
 10
243.21408
 20
100.794977
 30
0.0
 11
207.492179
 21
100.794977
 31
0.0
  0
LINE
  5
2C7
100
AcDbEntity
  8
1
390
0
  6
Continuous
 62
     7
100
AcDbLine
 10
207.492179
 20
95.794977
 30
0.0
 11
240.075361
 21
95.794977
 31
0.0
  0
LINE
  5
2C8
100
AcDbEntity
  8
1
390
0
  6
CENTER
 62
     1
100
AcDbLine
 10
160.492179
 20
88.594977
 30
0.0
 11
160.492179
 21
116.494977
 31
0.0
  0
LINE
  5
2C9
100
AcDbEntity
  8
1
390
0
  6
CENTER
 62
     1
100
AcDbLine
 10
126.492179
 20
83.594977
 30
0.0
 11
126.492179
 21
86.994977
 31
0.0
  0
LINE
  5
2CA
100
AcDbEntity
  8
1
390
0
  6
CENTER
 62
     1
100
AcDbLine
 10
194.492179
 20
83.594977
 30
0.0
 11
194.492179
 21
86.994977
 31
0.0
  0
LINE
  5
2CB
100
AcDbEntity
  8
1
390
0
  6
CENTER
 62
     1
100
AcDbLine
 10
202.292179
 20
98.294977
 30
0.0
 11
203.192179
 21
98.294977
 31
0.0
  0
LINE
  5
2CC
100
AcDbEntity
  8
1
390
0
  6
CENTER
 62
     1
100
AcDbLine
 10
203.792179
 20
98.294977
 30
0.0
 11
244.144748
 21
98.294977
 31
0.0
  0
LINE
  5
2CD
100
AcDbEntity
  8
1
390
0
  6
Continuous
 62
     7
100
AcDbLine
 10
321.560012
 20
92.544977
 30
0.0
 11
321.560012
 21
98.294977
 31
0.0
  0
LINE
  5
2CE
100
AcDbEntity
  8
1
390
0
  6
Continuous
 62
     7
100
AcDbLine
 10
322.010012
 20
103.594977
 30
0.0
 11
322.010012
 21
98.294977
 31
0.0
  0
LINE
  5
2CF
100
AcDbEntity
  8
1
390
0
  6
Continuous
 62
     7
100
AcDbLine
 10
321.560012
 20
98.294977
 30
0.0
 11
321.560012
 21
104.044977
 31
0.0
  0
LINE
  5
2D0
100
AcDbEntity
  8
1
390
0
  6
Continuous
 62
     7
100
AcDbLine
 10
322.010012
 20
98.294977
 30
0.0
 11
322.010012
 21
92.994977
 31
0.0
  0
LINE
  5
2D1
100
AcDbEntity
  8
1
390
0
  6
Continuous
 62
     7
100
AcDbLine
 10
315.060012
 20
92.544977
 30
0.0
 11
315.060012
 21
98.294977
 31
0.0
  0
LINE
  5
2D2
100
AcDbEntity
  8
1
390
0
  6
Continuous
 62
     7
100
AcDbLine
 10
315.860012
 20
92.544977
 30
0.0
 11
315.860012
 21
98.294977
 31
0.0
  0
LINE
  5
2D3
100
AcDbEntity
  8
1
390
0
  6
Continuous
 62
     7
100
AcDbLine
 10
315.060012
 20
98.294977
 30
0.0
 11
315.060012
 21
104.044977
 31
0.0
  0
LINE
  5
2D4
100
AcDbEntity
  8
1
390
0
  6
Continuous
 62
     7
100
AcDbLine
 10
315.860012
 20
98.294977
 30
0.0
 11
315.860012
 21
104.044977
 31
0.0
  0
LINE
  5
2D5
100
AcDbEntity
  8
1
390
0
  6
Continuous
 62
     7
100
AcDbLine
 10
316.310012
 20
92.994977
 30
0.0
 11
316.310012
 21
98.294977
 31
0.0
  0
LINE
  5
2D6
100
AcDbEntity
  8
1
390
0
  6
Continuous
 62
     7
100
AcDbLine
 10
316.310012
 20
98.294977
 30
0.0
 11
316.310012
 21
103.594977
 31
0.0
  0
LINE
  5
2D7
100
AcDbEntity
  8
1
390
0
  6
Continuous
 62
     7
100
AcDbLine
 10
314.610012
 20
92.994977
 30
0.0
 11
314.610012
 21
98.294977
 31
0.0
  0
LINE
  5
2D8
100
AcDbEntity
  8
1
390
0
  6
Continuous
 62
     7
100
AcDbLine
 10
314.610012
 20
98.294977
 30
0.0
 11
314.610012
 21
103.594977
 31
0.0
  0
LINE
  5
2D9
100
AcDbEntity
  8
1
390
0
  6
Continuous
 62
     7
100
AcDbLine
 10
317.260012
 20
104.044977
 30
0.0
 11
317.260012
 21
92.544977
 31
0.0
  0
LINE
  5
2DA
100
AcDbEntity
  8
1
390
0
  6
Continuous
 62
     7
100
AcDbLine
 10
316.810012
 20
103.594977
 30
0.0
 11
316.810012
 21
92.994977
 31
0.0
  0
LINE
  5
2DB
100
AcDbEntity
  8
1
390
0
  6
Continuous
 62
     7
100
AcDbLine
 10
313.310012
 20
103.594977
 30
0.0
 11
313.310012
 21
92.994977
 31
0.0
  0
LINE
  5
2DC
100
AcDbEntity
  8
1
390
0
  6
Continuous
 62
     7
100
AcDbLine
 10
327.010012
 20
103.594977
 30
0.0
 11
327.010012
 21
98.294977
 31
0.0
  0
LINE
  5
2DD
100
AcDbEntity
  8
1
390
0
  6
Continuous
 62
     7
100
AcDbLine
 10
327.010012
 20
98.294977
 30
0.0
 11
327.010012
 21
92.994977
 31
0.0
  0
LINE
  5
2DE
100
AcDbEntity
  8
1
390
0
  6
Continuous
 62
     7
100
AcDbLine
 10
302.510012
 20
103.494977
 30
0.0
 11
302.510012
 21
93.094977
 31
0.0
  0
LINE
  5
2DF
100
AcDbEntity
  8
1
390
0
  6
Continuous
 62
     7
100
AcDbLine
 10
308.510012
 20
93.094977
 30
0.0
 11
308.510012
 21
98.294977
 31
0.0
  0
LINE
  5
2E0
100
AcDbEntity
  8
1
390
0
  6
Continuous
 62
     7
100
AcDbLine
 10
308.510012
 20
98.294977
 30
0.0
 11
308.510012
 21
103.494977
 31
0.0
  0
LINE
  5
2E1
100
AcDbEntity
  8
1
390
0
  6
Continuous
 62
     7
100
AcDbLine
 10
310.510012
 20
93.494977
 30
0.0
 11
310.510012
 21
103.094977
 31
0.0
  0
LINE
  5
2E2
100
AcDbEntity
  8
1
390
0
  6
Continuous
 62
     7
100
AcDbLine
 10
312.510012
 20
102.994977
 30
0.0
 11
312.510012
 21
93.594977
 31
0.0
  0
LINE
  5
2E3
100
AcDbEntity
  8
1
390
0
  6
Continuous
 62
     7
100
AcDbLine
 10
312.960012
 20
103.444977
 30
0.0
 11
312.960012
 21
93.144977
 31
0.0
  0
LINE
  5
2E4
100
AcDbEntity
  8
1
390
0
  6
DOT
 62
     9
100
AcDbLine
 10
326.410012
 20
103.094977
 30
0.0
 11
326.410012
 21
98.294977
 31
0.0
  0
LINE
  5
2E5
100
AcDbEntity
  8
1
390
0
  6
DOT
 62
     9
100
AcDbLine
 10
326.410012
 20
98.294977
 30
0.0
 11
326.410012
 21
93.494977
 31
0.0
  0
LINE
  5
2E6
100
AcDbEntity
  8
1
390
0
  6
DOT
 62
     9
100
AcDbLine
 10
325.510012
 20
102.734977
 30
0.0
 11
325.510012
 21
98.294977
 31
0.0
  0
LINE
  5
2E7
100
AcDbEntity
  8
1
390
0
  6
DOT
 62
     9
100
AcDbLine
 10
325.510012
 20
98.294977
 30
0.0
 11
325.510012
 21
93.854977
 31
0.0
  0
LINE
  5
2E8
100
AcDbEntity
  8
1
390
0
  6
DOT
 62
     9
100
AcDbLine
 10
321.710012
 20
102.734977
 30
0.0
 11
321.710012
 21
98.294977
 31
0.0
  0
LINE
  5
2E9
100
AcDbEntity
  8
1
390
0
  6
DOT
 62
     9
100
AcDbLine
 10
321.710012
 20
98.294977
 30
0.0
 11
321.710012
 21
93.854977
 31
0.0
  0
LINE
  5
2EA
100
AcDbEntity
  8
1
390
0
  6
DOT
 62
     9
100
AcDbLine
 10
321.210012
 20
98.294977
 30
0.0
 11
321.210012
 21
102.319977
 31
0.0
  0
LINE
  5
2EB
100
AcDbEntity
  8
1
390
0
  6
DOT
 62
     9
100
AcDbLine
 10
321.210012
 20
94.269977
 30
0.0
 11
321.210012
 21
98.294977
 31
0.0
  0
LINE
  5
2EC
100
AcDbEntity
  8
1
390
0
  6
Continuous
 62
     7
100
AcDbLine
 10
292.510012
 20
101.35139
 30
0.0
 11
292.510012
 21
98.294977
 31
0.0
  0
LINE
  5
2ED
100
AcDbEntity
  8
1
390
0
  6
Continuous
 62
     7
100
AcDbLine
 10
292.510012
 20
98.294977
 30
0.0
 11
292.510012
 21
95.238564
 31
0.0
  0
LINE
  5
2EE
100
AcDbEntity
  8
1
390
0
  6
DOT
 62
     9
100
AcDbLine
 10
324.510012
 20
97.294977
 30
0.0
 11
324.510012
 21
97.542736
 31
0.0
  0
SPLINE
  5
2EF
100
AcDbEntity
  8
1
390
0
  6
DOT
 62
     9
100
AcDbSpline
210
0.0
220
0.0
230
1.0
 70
     4
 71
     3
 72
    60
 73
    56
 74
     0
 42
0.000001
 43
0.000001
 40
0.0
 40
0.0
 40
0.0
 40
0.0
 40
0.0235523686452604
 40
0.0266492903969033
 40
0.0266492903969033
 40
0.0297581880473517
 40
0.041579911264107
 40
0.0534016344808623
 40
0.0534016344808623
 40
0.0667862568970408
 40
0.0750622345090881
 40
0.0801708793132193
 40
0.0801708793132193
 40
0.0903701800450668
 40
0.103764654511326
 40
0.10689299338434
 40
0.10689299338434
 40
0.111936729146258
 40
0.133532276374328
 40
0.133532276374328
 40
0.158283901424352
 40
0.160162294341048
 40
0.160162294341048
 40
0.162051224026841
 40
0.174496458171687
 40
0.186941692316533
 40
0.186941692316533
 40
0.200341776324371
 40
0.21104594917375
 40
0.213741860332209
 40
0.213741860332209
 40
0.219115718913678
 40
0.23684553533846
 40
0.240452739217062
 40
0.240452739217062
 40
0.242700947713118
 40
0.248226047660499
 40
0.25375114760788
 40
0.25375114760788
 40
0.260415210103961
 40
0.265654177970477
 40
0.267079272600041
 40
0.267079272600041
 40
0.272809872807661
 40
0.29387684599018
 40
0.29387684599018
 40
0.317074349255273
 40
0.320667029216623
 40
0.320667029216623
 40
0.327826349563341
 40
0.374053221677063
 40
0.374053221677063
 40
0.400662676533731
 40
0.400662676533731
 40
0.427254834158054
 40
0.427254834158054
 40
0.427254834158054
 40
0.427254834158054
 10
324.21866131158185
 20
97.29497675734352
 30
0.0
 41
1.0
 10
324.21083629328984
 20
97.294976757343548
 30
0.0
 41
1.0
 10
324.20195224008609
 20
97.29516783742443
 30
0.0
 41
1.0
 10
324.19306103943035
 20
97.295598118718161
 30
0.0
 41
1.0
 10
324.19099445016576
 20
97.295704667042855
 30
0.0
 41
1.0
 10
324.18603181262529
 20
97.295976225527426
 30
0.0
 41
1.0
 10
324.17714013606047
 20
97.296599345094123
 30
0.0
 41
1.0
 10
324.16929307614527
 20
97.297348504426537
 30
0.0
 41
1.0
 10
324.16094198012036
 20
97.298256583224557
 30
0.0
 41
1.0
 10
324.15377944288417
 20
97.299143256644513
 30
0.0
 41
1.0
 10
324.14496386991698
 20
97.300459099656791
 30
0.0
 41
1.0
 10
324.14056974193642
 20
97.301186329257987
 30
0.0
 41
1.0
 10
324.13554491935304
 20
97.302049683653877
 30
0.0
 41
1.0
 10
324.12781629608901
 20
97.303475615858645
 30
0.0
 41
1.0
 10
324.1191272282735
 20
97.305342850875533
 30
0.0
 41
1.0
 10
324.11378837079121
 20
97.306609289661395
 30
0.0
 41
1.0
 10
324.11114603198433
 20
97.307247421698264
 30
0.0
 41
1.0
 10
324.10253975474632
 20
97.309385763987862
 30
0.0
 41
1.0
 10
324.09403115083336
 20
97.311820568028892
 30
0.0
 41
1.0
 10
324.07940110624469
 20
97.316488163851304
 30
0.0
 41
1.0
 10
324.0710973485468
 20
97.319456092045883
 30
0.0
 41
1.0
 10
324.06288400803908
 20
97.322768477373643
 30
0.0
 41
1.0
 10
324.06172665613184
 20
97.323239040417818
 30
0.0
 41
1.0
 10
324.0573415276404
 20
97.325036520648069
 30
0.0
 41
1.0
 10
324.04921484933857
 20
97.328575248513715
 30
0.0
 41
1.0
 10
324.04179304628514
 20
97.332157198947229
 30
0.0
 41
1.0
 10
324.03417124147518
 20
97.336027699858533
 30
0.0
 41
1.0
 10
324.02714782804611
 20
97.339788977937587
 30
0.0
 41
1.0
 10
324.01953070891244
 20
97.344274607409417
 30
0.0
 41
1.0
 10
324.01578151965958
 20
97.346601374798482
 30
0.0
 41
1.0
 10
324.01352605279209
 20
97.348015899044512
 30
0.0
 41
1.0
 10
324.00710399281053
 20
97.352128428610072
 30
0.0
 41
1.0
 10
323.99990021915693
 20
97.357170875539381
 30
0.0
 41
1.0
 10
323.99433212527185
 20
97.3614071284819
 30
0.0
 41
1.0
 10
323.99281043396735
 20
97.362581242265847
 30
0.0
 41
1.0
 10
323.99079240765417
 20
97.364152044093984
 30
0.0
 41
1.0
 10
323.98738465129662
 20
97.366886440213264
 30
0.0
 41
1.0
 10
323.98460684801813
 20
97.369214414743908
 30
0.0
 41
1.0
 10
323.98157565646966
 20
97.371811019407943
 30
0.0
 41
1.0
 10
323.97864720478367
 20
97.374386474186551
 30
0.0
 41
1.0
 10
323.9754326461923
 20
97.377352124405618
 30
0.0
 41
1.0
 10
323.97384464830537
 20
97.378857556590802
 30
0.0
 41
1.0
 10
323.97215114584753
 20
97.380472410025732
 30
0.0
 41
1.0
 10
323.96588321016509
 20
97.38659064717217
 30
0.0
 41
1.0
 10
323.95995026342007
 20
97.393061004801524
 30
0.0
 41
1.0
 10
323.95067702057844
 20
97.404168273908624
 30
0.0
 41
1.0
 10
323.94541804718392
 20
97.41116779373651
 30
0.0
 41
1.0
 10
323.9406338464288
 20
97.41844178356834
 30
0.0
 41
1.0
 10
323.9387366855546
 20
97.421380441540066
 30
0.0
 41
1.0
 10
323.92956579920337
 20
97.436129981860489
 30
0.0
 41
1.0
 10
323.92236950619611
 20
97.451932703619818
 30
0.0
 41
1.0
 10
323.91533502416456
 20
97.474457843295298
 30
0.0
 41
1.0
 10
323.91335390397848
 20
97.482891693300019
 30
0.0
 41
1.0
 10
323.91069432769257
 20
97.499939813410563
 30
0.0
 41
1.0
 10
323.91001229725072
 20
97.508564076489918
 30
0.0
 41
1.0
 10
323.91001209276317
 20
97.517198998405263
 30
0.0
 41
1.0
  0
LINE
  5
2F0
100
AcDbEntity
  8
1
390
0
  6
DOT
 62
     9
100
AcDbLine
 10
324.510012
 20
99.047218
 30
0.0
 11
324.510012
 21
99.294977
 31
0.0
  0
SPLINE
  5
2F1
100
AcDbEntity
  8
1
390
0
  6
DOT
 62
     9
100
AcDbSpline
210
0.0
220
0.0
230
1.0
 70
     4
 71
     3
 72
    60
 73
    56
 74
     0
 42
0.000001
 43
0.000001
 40
0.0
 40
0.0
 40
0.0
 40
0.0
 40
0.0235523686464736
 40
0.0266492903969135
 40
0.0266492903969135
 40
0.0297581880461519
 40
0.0415799112635072
 40
0.0534016344808625
 40
0.0534016344808625
 40
0.0667862568970413
 40
0.0750622345040566
 40
0.0801708793132201
 40
0.0801708793132201
 40
0.0903701800551105
 40
0.103764654512011
 40
0.106892993384331
 40
0.106892993384331
 40
0.111936729148198
 40
0.133532276374312
 40
0.133532276374312
 40
0.158283901424276
 40
0.160162294341032
 40
0.160162294341032
 40
0.162051224026886
 40
0.174496458171698
 40
0.186941692316509
 40
0.186941692316509
 40
0.200341776324347
 40
0.21104594917293
 40
0.213741860332184
 40
0.213741860332184
 40
0.219115718915237
 40
0.236845535338955
 40
0.240452739217031
 40
0.240452739217031
 40
0.242700947712926
 40
0.248226047660386
 40
0.253751147607847
 40
0.253751147607847
 40
0.260415210103928
 40
0.265654177970294
 40
0.267079272600008
 40
0.267079272600008
 40
0.272809872808233
 40
0.293876845990147
 40
0.293876845990147
 40
0.317074348729513
 40
0.320667029216579
 40
0.320667029216579
 40
0.327826350610912
 40
0.374053221676953
 40
0.374053221676953
 40
0.400662676533617
 40
0.400662676533617
 40
0.427254834157936
 40
0.427254834157936
 40
0.427254834157936
 40
0.427254834157936
 10
324.80136299377824
 20
99.29497675734352
 30
0.0
 41
1.0
 10
324.80918801207116
 20
99.294976757343477
 30
0.0
 41
1.0
 10
324.81807206527492
 20
99.29478567726261
 30
0.0
 41
1.0
 10
324.8269632659302
 20
99.294355395968836
 30
0.0
 41
1.0
 10
324.82902985519434
 20
99.294248847644198
 30
0.0
 41
1.0
 10
324.83399249273435
 20
99.293977289159628
 30
0.0
 41
1.0
 10
324.84288416929917
 20
99.293354169592959
 30
0.0
 41
1.0
 10
324.85073122921528
 20
99.292605010260488
 30
0.0
 41
1.0
 10
324.85908232524019
 20
99.291696931462468
 30
0.0
 41
1.0
 10
324.86624486247462
 20
99.290810258042711
 30
0.0
 41
1.0
 10
324.87506043544181
 20
99.289494415030489
 30
0.0
 41
1.0
 10
324.87945456342237
 20
99.288767185429307
 30
0.0
 41
1.0
 10
324.88447938601064
 20
99.287903831032594
 30
0.0
 41
1.0
 10
324.89220800927467
 20
99.286477898827684
 30
0.0
 41
1.0
 10
324.90089707709058
 20
99.284610663810653
 30
0.0
 41
1.0
 10
324.90623593456934
 20
99.283344225025559
 30
0.0
 41
1.0
 10
324.90887827337667
 20
99.282706092988604
 30
0.0
 41
1.0
 10
324.91748455061463
 20
99.280567750698978
 30
0.0
 41
1.0
 10
324.92599315452765
 20
99.278132946657905
 30
0.0
 41
1.0
 10
324.94062319911541
 20
99.273465350835721
 30
0.0
 41
1.0
 10
324.9489269568133
 20
99.270497422641128
 30
0.0
 41
1.0
 10
324.95714029732102
 20
99.267185037313368
 30
0.0
 41
1.0
 10
324.95829764922865
 20
99.266714474269193
 30
0.0
 41
1.0
 10
324.96268277772009
 20
99.264916994038927
 30
0.0
 41
1.0
 10
324.97080945602198
 20
99.261378266173296
 30
0.0
 41
1.0
 10
324.97823125907502
 20
99.257796315739796
 30
0.0
 41
1.0
 10
324.98585306388537
 20
99.253925814828477
 30
0.0
 41
1.0
 10
324.99287647731398
 20
99.250164536749551
 30
0.0
 41
1.0
 10
325.00049359644765
 20
99.245678907277721
 30
0.0
 41
1.0
 10
325.00424278570051
 20
99.243352139888657
 30
0.0
 41
1.0
 10
325.00649825256846
 20
99.241937615642215
 30
0.0
 41
1.0
 10
325.01292031255048
 20
99.237825086076541
 30
0.0
 41
1.0
 10
325.02012408620408
 20
99.232782639147203
 30
0.0
 41
1.0
 10
325.0256921800887
 20
99.228546386205011
 30
0.0
 41
1.0
 10
325.0272138713932
 20
99.227372272421192
 30
0.0
 41
1.0
 10
325.02923189770593
 20
99.225801470593069
 30
0.0
 41
1.0
 10
325.03263965406393
 20
99.223067074473803
 30
0.0
 41
1.0
 10
325.03541745734196
 20
99.220739099943131
 30
0.0
 41
1.0
 10
325.03844864889089
 20
99.218142495279054
 30
0.0
 41
1.0
 10
325.04137710057648
 20
99.215567040500503
 30
0.0
 41
1.0
 10
325.04459165916779
 20
99.212601390281435
 30
0.0
 41
1.0
 10
325.04617965705472
 20
99.211095958096237
 30
0.0
 41
1.0
 10
325.04787315951302
 20
99.209481104661137
 30
0.0
 41
1.0
 10
325.05414109519546
 20
99.203362867514684
 30
0.0
 41
1.0
 10
325.06007404194048
 20
99.19689250988533
 30
0.0
 41
1.0
 10
325.06934728467195
 20
99.185785240910292
 30
0.0
 41
1.0
 10
325.07460625807448
 20
99.178785721088701
 30
0.0
 41
1.0
 10
325.07939045883893
 20
99.171511731262115
 30
0.0
 41
1.0
 10
325.08128761999023
 20
99.168573072861093
 30
0.0
 41
1.0
 10
325.09045850630145
 20
99.15382353252312
 30
0.0
 41
1.0
 10
325.09765479926568
 20
99.138020810742589
 30
0.0
 41
1.0
 10
325.10468928119553
 20
99.115495671391713
 30
0.0
 41
1.0
 10
325.10667040138162
 20
99.107061821386992
 30
0.0
 41
1.0
 10
325.10932997766793
 20
99.090013701276462
 30
0.0
 41
1.0
 10
325.11001200810938
 20
99.081389438197107
 30
0.0
 41
1.0
 10
325.11001221259693
 20
99.072754516281762
 30
0.0
 41
1.0
  0
SPLINE
  5
2F2
100
AcDbEntity
  8
1
390
0
  6
DOT
 62
     9
100
AcDbSpline
210
0.0
220
0.0
230
1.0
 70
     4
 71
     3
 72
    60
 73
    56
 74
     0
 42
0.000001
 43
0.000001
 40
0.0
 40
0.0
 40
0.0
 40
0.0
 40
0.0265919701754448
 40
0.0265919701754448
 40
0.0532012318700907
 40
0.0532012318700907
 40
0.0994398347979978
 40
0.106587101149482
 40
0.106587101149482
 40
0.110173741078342
 40
0.133377188572844
 40
0.133377188572844
 40
0.156736266457597
 40
0.160174654589848
 40
0.160174654589848
 40
0.161884787460895
 40
0.167693777806306
 40
0.173502768151717
 40
0.173502768151717
 40
0.180151897475905
 40
0.185070020565637
 40
0.186801026800092
 40
0.186801026800092
 40
0.193754721171655
 40
0.210395440346296
 40
0.213511510123079
 40
0.213511510123079
 40
0.217738421131246
 40
0.229024888396387
 40
0.240311355661528
 40
0.240311355661528
 40
0.253700970852843
 40
0.265674748546027
 40
0.267090586044158
 40
0.267090586044158
 40
0.269906470417382
 40
0.293720484058918
 40
0.293720484058918
 40
0.316508606727384
 40
0.320359569054401
 40
0.320359569054401
 40
0.324222519050158
 40
0.340774169649221
 40
0.347081578913683
 40
0.347081578913683
 40
0.354467886419724
 40
0.364159312481612
 40
0.3738507385435
 40
0.3738507385435
 40
0.387226842578266
 40
0.398274121811849
 40
0.400602946613031
 40
0.400602946613031
 40
0.405242646459394
 40
0.427252056414484
 40
0.427252056414484
 40
0.427252056414484
 40
0.427252056414484
 10
325.11001217482095
 20
97.51719916069051
 30
0.0
 41
1.0
 10
325.11001185364938
 20
97.508564299809905
 30
0.0
 41
1.0
 10
325.10932966529737
 20
97.499940113404563
 30
0.0
 41
1.0
 10
325.10666968483662
 20
97.482892158216444
 30
0.0
 41
1.0
 10
325.10468832521843
 20
97.474458440631523
 30
0.0
 41
1.0
 10
325.09765203217512
 20
97.451930081388667
 30
0.0
 41
1.0
 10
325.0904546735789
 20
97.436127819534832
 30
0.0
 41
1.0
 10
325.08128305997565
 20
97.421378738358101
 30
0.0
 41
1.0
 10
325.07938902931619
 20
97.418445047757615
 30
0.0
 41
1.0
 10
325.07460482249309
 20
97.41117109561138
 30
0.0
 41
1.0
 10
325.06934581256064
 20
97.404171461457167
 30
0.0
 41
1.0
 10
325.05959141749031
 20
97.39248783778271
 30
0.0
 41
1.0
 10
325.05362368747967
 20
97.38604485449531
 30
0.0
 41
1.0
 10
325.04732891579533
 20
97.379957337448829
 30
0.0
 41
1.0
 10
325.04610961327461
 20
97.378794611136556
 30
0.0
 41
1.0
 10
325.04431695798553
 20
97.377097068288492
 30
0.0
 41
1.0
 10
325.04109601015176
 20
97.374139102335519
 30
0.0
 41
1.0
 10
325.03823404268826
 20
97.371630481501825
 30
0.0
 41
1.0
 10
325.03513557930597
 20
97.368976212996571
 30
0.0
 41
1.0
 10
325.0322219380235
 20
97.366545283421942
 30
0.0
 41
1.0
 10
325.02880472521213
 20
97.363820915147969
 30
0.0
 41
1.0
 10
325.02707706269507
 20
97.362478870814698
 30
0.0
 41
1.0
 10
325.02482188853696
 20
97.360738854637589
 30
0.0
 41
1.0
 10
325.01863148649403
 20
97.356090483892913
 30
0.0
 41
1.0
 10
325.01137160303387
 20
97.351117645148747
 30
0.0
 41
1.0
 10
325.00586450552203
 20
97.347621914135075
 30
0.0
 41
1.0
 10
325.00381380101004
 20
97.346335870359198
 30
0.0
 41
1.0
 10
324.9994652277486
 20
97.343653342818868
 30
0.0
 41
1.0
 10
324.99181746986119
 20
97.339213717650864
 30
0.0
 41
1.0
 10
324.98522802790421
 20
97.335714061282076
 30
0.0
 41
1.0
 10
324.97795064628463
 20
97.332018559524784
 30
0.0
 41
1.0
 10
324.97038174011306
 20
97.328379960862861
 30
0.0
 41
1.0
 10
324.96224815295193
 20
97.324859061819197
 30
0.0
 41
1.0
 10
324.9581509583017
 20
97.323182928006503
 30
0.0
 41
1.0
 10
324.95684956740536
 20
97.322653772150232
 30
0.0
 41
1.0
 10
324.94863319401526
 20
97.319353455621822
 30
0.0
 41
1.0
 10
324.94032577927555
 20
97.316396097201704
 30
0.0
 41
1.0
 10
324.92561525484234
 20
97.311701981633874
 30
0.0
 41
1.0
 10
324.91710165893318
 20
97.309280290328545
 30
0.0
 41
1.0
 10
324.90849147101233
 20
97.307154505876056
 30
0.0
 41
1.0
 10
324.90599823203127
 20
97.306552195220178
 30
0.0
 41
1.0
 10
324.89940005121929
 20
97.304993191419825
 30
0.0
 41
1.0
 10
324.89069638723066
 20
97.303175906695643
 30
0.0
 41
1.0
 10
324.88320087014012
 20
97.301829073593012
 30
0.0
 41
1.0
 10
324.87870756256433
 20
97.30105693336678
 30
0.0
 41
1.0
 10
324.87309771718719
 20
97.300144186935356
 30
0.0
 41
1.0
 10
324.86427119588313
 20
97.2988895545557
 30
0.0
 41
1.0
 10
324.85785894701877
 20
97.298122546430406
 30
0.0
 41
1.0
 10
324.85021590128116
 20
97.29729164011529
 30
0.0
 41
1.0
 10
324.84210844522755
 20
97.296531981544092
 30
0.0
 41
1.0
 10
324.83321640046171
 20
97.295930698457994
 30
0.0
 41
1.0
 10
324.82877050057033
 20
97.29569103804414
 30
0.0
 41
1.0
 10
324.82644842601462
 20
97.295571363218428
 30
0.0
 41
1.0
 10
324.81755748189454
 20
97.295155263565334
 30
0.0
 41
1.0
 10
324.80867546113166
 20
97.29497675734352
 30
0.0
 41
1.0
 10
324.80136307812722
 20
97.29497675734352
 30
0.0
 41
1.0
  0
SPLINE
  5
2F3
100
AcDbEntity
  8
1
390
0
  6
DOT
 62
     9
100
AcDbSpline
210
0.0
220
0.0
230
1.0
 70
     4
 71
     3
 72
    60
 73
    56
 74
     0
 42
0.000001
 43
0.000001
 40
0.0
 40
0.0
 40
0.0
 40
0.0
 40
0.0265919701754457
 40
0.0265919701754457
 40
0.0532012318700926
 40
0.0532012318700926
 40
0.0994398330691695
 40
0.106587101149384
 40
0.106587101149384
 40
0.110173741945761
 40
0.133377188572745
 40
0.133377188572745
 40
0.156736266457382
 40
0.16017465458975
 40
0.16017465458975
 40
0.161884787460854
 40
0.167693777806237
 40
0.173502768151619
 40
0.173502768151619
 40
0.18015189747581
 40
0.185070020438309
 40
0.186801026800002
 40
0.186801026800002
 40
0.193754721682692
 40
0.210395440381863
 40
0.213511510122989
 40
0.213511510122989
 40
0.21773842119214
 40
0.229024888426784
 40
0.240311355661429
 40
0.240311355661429
 40
0.253700970852744
 40
0.265674748546152
 40
0.267090586044059
 40
0.267090586044059
 40
0.269906470416838
 40
0.293720484058819
 40
0.293720484058819
 40
0.316508606726475
 40
0.320359569054301
 40
0.320359569054301
 40
0.324222519050872
 40
0.340774169648143
 40
0.347081578913594
 40
0.347081578913594
 40
0.35446788642105
 40
0.36415931248223
 40
0.37385073854341
 40
0.37385073854341
 40
0.387226842578171
 40
0.398274121812833
 40
0.400602946612931
 40
0.400602946612931
 40
0.405242646457138
 40
0.427252056414384
 40
0.427252056414384
 40
0.427252056414384
 40
0.427252056414384
 10
323.9100121305396
 20
99.072754353996515
 30
0.0
 41
1.0
 10
323.91001245171111
 20
99.08138921487712
 30
0.0
 41
1.0
 10
323.91069464006273
 20
99.090013401282476
 30
0.0
 41
1.0
 10
323.91335462052393
 20
99.107061356470581
 30
0.0
 41
1.0
 10
323.91533598014212
 20
99.115495074055517
 30
0.0
 41
1.0
 10
323.92237227301757
 20
99.138023432762267
 30
0.0
 41
1.0
 10
323.92956963154273
 20
99.153825694651516
 30
0.0
 41
1.0
 10
323.93874124508028
 20
99.168574775857252
 30
0.0
 41
1.0
 10
323.9406352761971
 20
99.171508467166134
 30
0.0
 41
1.0
 10
323.94541948303578
 20
99.178782419303701
 30
0.0
 41
1.0
 10
323.95067849298152
 20
99.185782053447582
 30
0.0
 41
1.0
 10
323.96043288786979
 20
99.197465676904315
 30
0.0
 41
1.0
 10
323.96640061788082
 20
99.203908660191686
 30
0.0
 41
1.0
 10
323.97269538956522
 20
99.209996177238196
 30
0.0
 41
1.0
 10
323.97391469208594
 20
99.211158903550498
 30
0.0
 41
1.0
 10
323.97570734737457
 20
99.212856446398561
 30
0.0
 41
1.0
 10
323.97892829520879
 20
99.215814412351534
 30
0.0
 41
1.0
 10
323.98179026267184
 20
99.218323033185214
 30
0.0
 41
1.0
 10
323.98488872605503
 20
99.220977301690908
 30
0.0
 41
1.0
 10
323.98780236730596
 20
99.223408231239176
 30
0.0
 41
1.0
 10
323.99121958011602
 20
99.226132599513591
 30
0.0
 41
1.0
 10
323.99294724263262
 20
99.227474643846861
 30
0.0
 41
1.0
 10
323.99520241695592
 20
99.229214660151783
 30
0.0
 41
1.0
 10
324.00139281901352
 20
99.23386303089795
 30
0.0
 41
1.0
 10
324.00865270247903
 20
99.238835869635309
 30
0.0
 41
1.0
 10
324.01415979984824
 20
99.242331600558202
 30
0.0
 41
1.0
 10
324.01621050436734
 20
99.243617644338499
 30
0.0
 41
1.0
 10
324.0205590776377
 20
99.246300171883661
 30
0.0
 41
1.0
 10
324.02820683552557
 20
99.250739797050514
 30
0.0
 41
1.0
 10
324.03479627746481
 20
99.254239453409511
 30
0.0
 41
1.0
 10
324.04207365907587
 20
99.257934955162241
 30
0.0
 41
1.0
 10
324.0496425652475
 20
99.261573553824206
 30
0.0
 41
1.0
 10
324.05777615240862
 20
99.265094452867856
 30
0.0
 41
1.0
 10
324.06187334705885
 20
99.266770586680565
 30
0.0
 41
1.0
 10
324.06317473795474
 20
99.267299742536764
 30
0.0
 41
1.0
 10
324.07139111134484
 20
99.27060005906516
 30
0.0
 41
1.0
 10
324.07969852608454
 20
99.273557417485279
 30
0.0
 41
1.0
 10
324.09440905051781
 20
99.278251533053066
 30
0.0
 41
1.0
 10
324.10292264642692
 20
99.280673224358409
 30
0.0
 41
1.0
 10
324.11153283434737
 20
99.282799008810898
 30
0.0
 41
1.0
 10
324.11402607332928
 20
99.283401319466918
 30
0.0
 41
1.0
 10
324.12062425414081
 20
99.2849603232672
 30
0.0
 41
1.0
 10
324.12932791812989
 20
99.286777607991368
 30
0.0
 41
1.0
 10
324.13682343521998
 20
99.288124441093956
 30
0.0
 41
1.0
 10
324.14131674279622
 20
99.28889658132033
 30
0.0
 41
1.0
 10
324.14692658817381
 20
99.289809327751783
 30
0.0
 41
1.0
 10
324.15575310947787
 20
99.29106396013141
 30
0.0
 41
1.0
 10
324.16216535834172
 20
99.291830968256647
 30
0.0
 41
1.0
 10
324.16980840407894
 20
99.292661874571735
 30
0.0
 41
1.0
 10
324.17791586013345
 20
99.293421533142961
 30
0.0
 41
1.0
 10
324.18680790489884
 20
99.294022816229045
 30
0.0
 41
1.0
 10
324.19125380479062
 20
99.294262476642913
 30
0.0
 41
1.0
 10
324.19357587934508
 20
99.294382151468554
 30
0.0
 41
1.0
 10
324.2024668234651
 20
99.294798251121676
 30
0.0
 41
1.0
 10
324.21134884422798
 20
99.294976757343505
 30
0.0
 41
1.0
 10
324.21866122723287
 20
99.29497675734352
 30
0.0
 41
1.0
  0
LINE
  5
2F4
100
AcDbEntity
  8
1
390
0
  6
Continuous
 62
     7
100
AcDbLine
 10
327.310012
 20
94.794977
 30
0.0
 11
327.310012
 21
101.794977
 31
0.0
  0
LINE
  5
2F5
100
AcDbEntity
  8
1
390
0
  6
DOT
 62
     9
100
AcDbLine
 10
324.218661
 20
97.294977
 30
0.0
 11
324.801363
 21
97.294977
 31
0.0
  0
LINE
  5
2F6
100
AcDbEntity
  8
1
390
0
  6
DOT
 62
     9
100
AcDbLine
 10
325.110012
 20
98.294977
 30
0.0
 11
325.110012
 21
97.517199
 31
0.0
  0
LINE
  5
2F7
100
AcDbEntity
  8
1
390
0
  6
DOT
 62
     9
100
AcDbLine
 10
325.110012
 20
99.072755
 30
0.0
 11
325.110012
 21
98.294977
 31
0.0
  0
LINE
  5
2F8
100
AcDbEntity
  8
1
390
0
  6
DOT
 62
     9
100
AcDbLine
 10
324.218661
 20
99.294977
 30
0.0
 11
324.801363
 21
99.294977
 31
0.0
  0
LINE
  5
2F9
100
AcDbEntity
  8
1
390
0
  6
DOT
 62
     9
100
AcDbLine
 10
323.910012
 20
99.072754
 30
0.0
 11
323.910012
 21
97.517199
 31
0.0
  0
LINE
  5
2FA
100
AcDbEntity
  8
1
390
0
  6
DOT
 62
     9
100
AcDbLine
 10
322.010012
 20
100.971056
 30
0.0
 11
326.410012
 21
100.971056
 31
0.0
  0
LINE
  5
2FB
100
AcDbEntity
  8
1
390
0
  6
DOT
 62
     9
100
AcDbLine
 10
322.010012
 20
101.633764
 30
0.0
 11
326.410012
 21
101.633764
 31
0.0
  0
LINE
  5
2FC
100
AcDbEntity
  8
1
390
0
  6
DOT
 62
     9
100
AcDbLine
 10
322.010012
 20
96.538151
 30
0.0
 11
326.410012
 21
96.538151
 31
0.0
  0
LINE
  5
2FD
100
AcDbEntity
  8
1
390
0
  6
DOT
 62
     9
100
AcDbLine
 10
322.010012
 20
95.119574
 30
0.0
 11
326.410012
 21
95.119574
 31
0.0
  0
LINE
  5
2FE
100
AcDbEntity
  8
1
390
0
  6
DOT
 62
     9
100
AcDbLine
 10
322.010012
 20
94.808992
 30
0.0
 11
326.410012
 21
94.808992
 31
0.0
  0
LINE
  5
2FF
100
AcDbEntity
  8
1
390
0
  6
DOT
 62
     9
100
AcDbLine
 10
322.010012
 20
95.618898
 30
0.0
 11
326.410012
 21
95.618898
 31
0.0
  0
LINE
  5
300
100
AcDbEntity
  8
1
390
0
  6
DOT
 62
     9
100
AcDbLine
 10
322.010012
 20
96.538151
 30
0.0
 11
326.410012
 21
96.538151
 31
0.0
  0
LINE
  5
301
100
AcDbEntity
  8
1
390
0
  6
DOT
 62
     9
100
AcDbLine
 10
322.010012
 20
100.051803
 30
0.0
 11
326.410012
 21
100.051803
 31
0.0
  0
LINE
  5
302
100
AcDbEntity
  8
1
390
0
  6
DOT
 62
     9
100
AcDbLine
 10
323.910012
 20
99.072755
 30
0.0
 11
323.910012
 21
97.517199
 31
0.0
  0
LINE
  5
303
100
AcDbEntity
  8
1
390
0
  6
DOT
 62
     9
100
AcDbLine
 10
324.510012
 20
98.294977
 30
0.0
 11
324.510012
 21
99.047218
 31
0.0
  0
LINE
  5
304
100
AcDbEntity
  8
1
390
0
  6
DOT
 62
     9
100
AcDbLine
 10
324.510012
 20
97.542736
 30
0.0
 11
324.510012
 21
98.294977
 31
0.0
  0
LINE
  5
305
100
AcDbEntity
  8
1
390
0
  6
Continuous
 62
     7
100
AcDbLine
 10
327.510012
 20
94.994977
 30
0.0
 11
327.510012
 21
101.594977
 31
0.0
  0
LINE
  5
306
100
AcDbEntity
  8
1
390
0
  6
DOT
 62
     9
100
AcDbLine
 10
326.410012
 20
100.312377
 30
0.0
 11
322.010012
 21
100.312377
 31
0.0
  0
LINE
  5
307
100
AcDbEntity
  8
1
390
0
  6
DOT
 62
     9
100
AcDbLine
 10
326.410012
 20
96.277577
 30
0.0
 11
322.010012
 21
96.277577
 31
0.0
  0
LINE
  5
308
100
AcDbEntity
  8
1
390
0
  6
DOT
 62
     9
100
AcDbLine
 10
326.410012
 20
101.23163
 30
0.0
 11
322.010012
 21
101.23163
 31
0.0
  0
LINE
  5
309
100
AcDbEntity
  8
1
390
0
  6
DOT
 62
     9
100
AcDbLine
 10
326.410012
 20
95.358323
 30
0.0
 11
322.010012
 21
95.358323
 31
0.0
  0
LINE
  5
30A
100
AcDbEntity
  8
1
390
0
  6
DOT
 62
     9
100
AcDbLine
 10
321.010012
 20
95.444977
 30
0.0
 11
321.010012
 21
101.144977
 31
0.0
  0
LINE
  5
30B
100
AcDbEntity
  8
1
390
0
  6
DOT
 62
     9
100
AcDbLine
 10
321.510012
 20
95.494977
 30
0.0
 11
321.510012
 21
98.294977
 31
0.0
  0
LINE
  5
30C
100
AcDbEntity
  8
1
390
0
  6
DOT
 62
     9
100
AcDbLine
 10
321.510012
 20
98.294977
 30
0.0
 11
321.510012
 21
101.094977
 31
0.0
  0
LINE
  5
30D
100
AcDbEntity
  8
1
390
0
  6
DOT
 62
     9
100
AcDbLine
 10
326.410012
 20
102.050972
 30
0.0
 11
322.010012
 21
102.050972
 31
0.0
  0
LINE
  5
30E
100
AcDbEntity
  8
1
390
0
  6
DOT
 62
     9
100
AcDbLine
 10
326.410012
 20
94.417423
 30
0.0
 11
322.010012
 21
94.417423
 31
0.0
  0
LINE
  5
30F
100
AcDbEntity
  8
1
390
0
  6
DOT
 62
     9
100
AcDbLine
 10
326.410012
 20
94.728006
 30
0.0
 11
322.010012
 21
94.728006
 31
0.0
  0
LINE
  5
310
100
AcDbEntity
  8
1
390
0
  6
DOT
 62
     9
100
AcDbLine
 10
324.510012
 20
99.294977
 30
0.0
 11
324.510012
 21
99.047218
 31
0.0
  0
LINE
  5
311
100
AcDbEntity
  8
1
390
0
  6
DOT
 62
     9
100
AcDbLine
 10
324.510012
 20
97.294977
 30
0.0
 11
324.510012
 21
97.542736
 31
0.0
  0
LINE
  5
312
100
AcDbEntity
  8
1
390
0
  6
Continuous
 62
     7
100
AcDbLine
 10
321.560012
 20
92.544977
 30
0.0
 11
322.010012
 21
92.994977
 31
0.0
  0
LINE
  5
313
100
AcDbEntity
  8
1
390
0
  6
Continuous
 62
     7
100
AcDbLine
 10
322.010012
 20
103.594977
 30
0.0
 11
321.560012
 21
104.044977
 31
0.0
  0
LINE
  5
314
100
AcDbEntity
  8
1
390
0
  6
Continuous
 62
     7
100
AcDbLine
 10
315.060012
 20
92.544977
 30
0.0
 11
315.860012
 21
92.544977
 31
0.0
  0
LINE
  5
315
100
AcDbEntity
  8
1
390
0
  6
Continuous
 62
     7
100
AcDbLine
 10
315.860012
 20
104.044977
 30
0.0
 11
315.060012
 21
104.044977
 31
0.0
  0
LINE
  5
316
100
AcDbEntity
  8
1
390
0
  6
Continuous
 62
     7
100
AcDbLine
 10
315.860012
 20
92.544977
 30
0.0
 11
316.310012
 21
92.994977
 31
0.0
  0
LINE
  5
317
100
AcDbEntity
  8
1
390
0
  6
Continuous
 62
     7
100
AcDbLine
 10
316.310012
 20
103.594977
 30
0.0
 11
315.860012
 21
104.044977
 31
0.0
  0
LINE
  5
318
100
AcDbEntity
  8
1
390
0
  6
Continuous
 62
     7
100
AcDbLine
 10
315.060012
 20
104.044977
 30
0.0
 11
314.610012
 21
103.594977
 31
0.0
  0
LINE
  5
319
100
AcDbEntity
  8
1
390
0
  6
Continuous
 62
     7
100
AcDbLine
 10
314.610012
 20
92.994977
 30
0.0
 11
315.060012
 21
92.544977
 31
0.0
  0
LINE
  5
31A
100
AcDbEntity
  8
1
390
0
  6
Continuous
 62
     7
100
AcDbLine
 10
321.560012
 20
104.044977
 30
0.0
 11
317.260012
 21
104.044977
 31
0.0
  0
LINE
  5
31B
100
AcDbEntity
  8
1
390
0
  6
Continuous
 62
     7
100
AcDbLine
 10
317.260012
 20
92.544977
 30
0.0
 11
321.560012
 21
92.544977
 31
0.0
  0
LINE
  5
31C
100
AcDbEntity
  8
1
390
0
  6
Continuous
 62
     7
100
AcDbLine
 10
317.260012
 20
104.044977
 30
0.0
 11
316.810012
 21
103.594977
 31
0.0
  0
LINE
  5
31D
100
AcDbEntity
  8
1
390
0
  6
Continuous
 62
     7
100
AcDbLine
 10
316.810012
 20
92.994977
 30
0.0
 11
317.260012
 21
92.544977
 31
0.0
  0
ARC
  5
31E
100
AcDbEntity
  8
1
390
0
  6
Continuous
 62
     7
100
AcDbCircle
 10
313.050205
 20
103.744977
 30
0.0
 40
0.3
210
0.0
220
0.0
230
1.0
100
AcDbArc
 50
270.0
 51
330.0
  0
ARC
  5
31F
100
AcDbEntity
  8
1
390
0
  6
Continuous
 62
     7
100
AcDbCircle
 10
313.050205
 20
92.844977
 30
0.0
 40
0.3
210
0.0
220
0.0
230
1.0
100
AcDbArc
 50
30.0
 51
90.0
  0
LINE
  5
320
100
AcDbEntity
  8
1
390
0
  6
Continuous
 62
     7
100
AcDbLine
 10
316.310012
 20
92.994977
 30
0.0
 11
316.810012
 21
92.994977
 31
0.0
  0
LINE
  5
321
100
AcDbEntity
  8
1
390
0
  6
Continuous
 62
     7
100
AcDbLine
 10
316.810012
 20
103.594977
 30
0.0
 11
316.310012
 21
103.594977
 31
0.0
  0
LINE
  5
322
100
AcDbEntity
  8
1
390
0
  6
Continuous
 62
     7
100
AcDbLine
 10
322.010012
 20
92.994977
 30
0.0
 11
327.010012
 21
92.994977
 31
0.0
  0
LINE
  5
323
100
AcDbEntity
  8
1
390
0
  6
Continuous
 62
     7
100
AcDbLine
 10
327.010012
 20
103.594977
 30
0.0
 11
322.010012
 21
103.594977
 31
0.0
  0
LINE
  5
324
100
AcDbEntity
  8
1
390
0
  6
Continuous
 62
     7
100
AcDbLine
 10
313.310012
 20
92.994977
 30
0.0
 11
314.610012
 21
92.994977
 31
0.0
  0
LINE
  5
325
100
AcDbEntity
  8
1
390
0
  6
Continuous
 62
     7
100
AcDbLine
 10
314.610012
 20
103.594977
 30
0.0
 11
313.310012
 21
103.594977
 31
0.0
  0
LINE
  5
326
100
AcDbEntity
  8
1
390
0
  6
Continuous
 62
     7
100
AcDbLine
 10
308.510012
 20
103.494977
 30
0.0
 11
302.510012
 21
103.494977
 31
0.0
  0
LINE
  5
327
100
AcDbEntity
  8
1
390
0
  6
Continuous
 62
     7
100
AcDbLine
 10
302.510012
 20
93.094977
 30
0.0
 11
308.510012
 21
93.094977
 31
0.0
  0
LINE
  5
328
100
AcDbEntity
  8
1
390
0
  6
Continuous
 62
     7
100
AcDbLine
 10
308.510012
 20
93.094977
 30
0.0
 11
310.510012
 21
93.494977
 31
0.0
  0
LINE
  5
329
100
AcDbEntity
  8
1
390
0
  6
Continuous
 62
     7
100
AcDbLine
 10
310.510012
 20
103.094977
 30
0.0
 11
308.510012
 21
103.494977
 31
0.0
  0
LINE
  5
32A
100
AcDbEntity
  8
1
390
0
  6
Continuous
 62
     7
100
AcDbLine
 10
312.960012
 20
103.444977
 30
0.0
 11
312.510012
 21
102.994977
 31
0.0
  0
LINE
  5
32B
100
AcDbEntity
  8
1
390
0
  6
Continuous
 62
     7
100
AcDbLine
 10
312.510012
 20
93.594977
 30
0.0
 11
312.960012
 21
93.144977
 31
0.0
  0
ARC
  5
32C
100
AcDbEntity
  8
1
390
0
  6
Continuous
 62
     7
100
AcDbCircle
 10
302.010012
 20
103.438564
 30
0.0
 40
0.5
210
0.0
220
0.0
230
1.0
100
AcDbArc
 50
276.842773
 51
360.0
  0
ARC
  5
32D
100
AcDbEntity
  8
1
390
0
  6
Continuous
 62
     7
100
AcDbCircle
 10
302.010012
 20
93.15139
 30
0.0
 40
0.5
210
0.0
220
0.0
230
1.0
100
AcDbArc
 50
360.0
 51
83.157227
  0
LINE
  5
32E
100
AcDbEntity
  8
1
390
0
  6
DOT
 62
     9
100
AcDbLine
 10
326.410012
 20
93.494977
 30
0.0
 11
327.010012
 21
93.494977
 31
0.0
  0
LINE
  5
32F
100
AcDbEntity
  8
1
390
0
  6
DOT
 62
     9
100
AcDbLine
 10
327.010012
 20
103.094977
 30
0.0
 11
326.410012
 21
103.094977
 31
0.0
  0
LINE
  5
330
100
AcDbEntity
  8
1
390
0
  6
DOT
 62
     9
100
AcDbLine
 10
326.410012
 20
103.094977
 30
0.0
 11
325.510012
 21
102.734977
 31
0.0
  0
LINE
  5
331
100
AcDbEntity
  8
1
390
0
  6
DOT
 62
     9
100
AcDbLine
 10
325.510012
 20
93.854977
 30
0.0
 11
326.410012
 21
93.494977
 31
0.0
  0
LINE
  5
332
100
AcDbEntity
  8
1
390
0
  6
Continuous
 62
     7
100
AcDbLine
 10
302.069585
 20
102.942125
 30
0.0
 11
292.95044
 21
101.847828
 31
0.0
  0
LINE
  5
333
100
AcDbEntity
  8
1
390
0
  6
Continuous
 62
     7
100
AcDbLine
 10
292.95044
 20
94.742125
 30
0.0
 11
302.069585
 21
93.647828
 31
0.0
  0
LINE
  5
334
100
AcDbEntity
  8
1
390
0
  6
Continuous
 62
     7
100
AcDbLine
 10
310.510012
 20
93.794977
 30
0.0
 11
312.510012
 21
93.794977
 31
0.0
  0
LINE
  5
335
100
AcDbEntity
  8
1
390
0
  6
Continuous
 62
     7
100
AcDbLine
 10
312.510012
 20
102.794977
 30
0.0
 11
310.510012
 21
102.794977
 31
0.0
  0
LINE
  5
336
100
AcDbEntity
  8
1
390
0
  6
DOT
 62
     9
100
AcDbLine
 10
321.710012
 20
93.854977
 30
0.0
 11
325.510012
 21
93.854977
 31
0.0
  0
LINE
  5
337
100
AcDbEntity
  8
1
390
0
  6
DOT
 62
     9
100
AcDbLine
 10
325.510012
 20
102.734977
 30
0.0
 11
321.710012
 21
102.734977
 31
0.0
  0
LINE
  5
338
100
AcDbEntity
  8
1
390
0
  6
DOT
 62
     9
100
AcDbLine
 10
321.710012
 20
102.319977
 30
0.0
 11
321.210012
 21
102.319977
 31
0.0
  0
LINE
  5
339
100
AcDbEntity
  8
1
390
0
  6
DOT
 62
     9
100
AcDbLine
 10
321.210012
 20
94.269977
 30
0.0
 11
321.710012
 21
94.269977
 31
0.0
  0
LINE
  5
33A
100
AcDbEntity
  8
1
390
0
  6
DOT
 62
     9
100
AcDbLine
 10
322.010012
 20
102.294977
 30
0.0
 11
321.210012
 21
102.294977
 31
0.0
  0
LINE
  5
33B
100
AcDbEntity
  8
1
390
0
  6
DOT
 62
     9
100
AcDbLine
 10
321.210012
 20
94.294977
 30
0.0
 11
322.010012
 21
94.294977
 31
0.0
  0
ARC
  5
33C
100
AcDbEntity
  8
1
390
0
  6
Continuous
 62
     7
100
AcDbCircle
 10
293.010012
 20
101.35139
 30
0.0
 40
0.5
210
0.0
220
0.0
230
1.0
100
AcDbArc
 50
96.842773
 51
180.0
  0
ARC
  5
33D
100
AcDbEntity
  8
1
390
0
  6
Continuous
 62
     7
100
AcDbCircle
 10
293.010012
 20
95.238564
 30
0.0
 40
0.5
210
0.0
220
0.0
230
1.0
100
AcDbArc
 50
180.0
 51
263.157227
  0
LINE
  5
33E
100
AcDbEntity
  8
1
390
0
  6
Continuous
 62
     7
100
AcDbLine
 10
327.310012
 20
101.794977
 30
0.0
 11
327.010012
 21
101.794977
 31
0.0
  0
LINE
  5
33F
100
AcDbEntity
  8
1
390
0
  6
DOT
 62
     9
100
AcDbLine
 10
327.010012
 20
101.794977
 30
0.0
 11
326.410012
 21
101.794977
 31
0.0
  0
LINE
  5
340
100
AcDbEntity
  8
1
390
0
  6
DOT
 62
     9
100
AcDbLine
 10
322.010012
 20
94.794977
 30
0.0
 11
327.010012
 21
94.794977
 31
0.0
  0
LINE
  5
341
100
AcDbEntity
  8
1
390
0
  6
Continuous
 62
     7
100
AcDbLine
 10
327.010012
 20
94.794977
 30
0.0
 11
327.310012
 21
94.794977
 31
0.0
  0
LINE
  5
342
100
AcDbEntity
  8
1
390
0
  6
Continuous
 62
     7
100
AcDbLine
 10
327.310012
 20
94.794977
 30
0.0
 11
327.510012
 21
94.994977
 31
0.0
  0
LINE
  5
343
100
AcDbEntity
  8
1
390
0
  6
Continuous
 62
     7
100
AcDbLine
 10
327.510012
 20
101.594977
 30
0.0
 11
327.310012
 21
101.794977
 31
0.0
  0
LINE
  5
344
100
AcDbEntity
  8
1
390
0
  6
DOT
 62
     9
100
AcDbLine
 10
321.010012
 20
95.444977
 30
0.0
 11
327.510012
 21
95.444977
 31
0.0
  0
LINE
  5
345
100
AcDbEntity
  8
1
390
0
  6
DOT
 62
     9
100
AcDbLine
 10
327.510012
 20
101.144977
 30
0.0
 11
321.010012
 21
101.144977
 31
0.0
  0
LINE
  5
346
100
AcDbEntity
  8
1
390
0
  6
DOT
 62
     9
100
AcDbLine
 10
321.510012
 20
95.494977
 30
0.0
 11
321.710012
 21
95.694977
 31
0.0
  0
LINE
  5
347
100
AcDbEntity
  8
1
390
0
  6
DOT
 62
     9
100
AcDbLine
 10
321.710012
 20
100.894977
 30
0.0
 11
321.510012
 21
101.094977
 31
0.0
  0
LINE
  5
348
100
AcDbEntity
  8
1
390
0
  6
DOT
 62
     9
100
AcDbLine
 10
321.510012
 20
101.094977
 30
0.0
 11
321.010012
 21
101.094977
 31
0.0
  0
LINE
  5
349
100
AcDbEntity
  8
1
390
0
  6
DOT
 62
     9
100
AcDbLine
 10
321.010012
 20
95.494977
 30
0.0
 11
321.510012
 21
95.494977
 31
0.0
  0
LINE
  5
34A
100
AcDbEntity
  8
1
390
0
  6
Continuous
 62
     7
100
AcDbLine
 10
292.510012
 20
100.794977
 30
0.0
 11
247.661453
 21
100.794977
 31
0.0
  0
LINE
  5
34B
100
AcDbEntity
  8
1
390
0
  6
Continuous
 62
     7
100
AcDbLine
 10
244.600229
 20
95.794977
 30
0.0
 11
292.510012
 21
95.794977
 31
0.0
  0
LINE
  5
34C
100
AcDbEntity
  8
1
390
0
  6
DOT
 62
     9
100
AcDbLine
 10
326.410012
 20
102.194977
 30
0.0
 11
322.010012
 21
102.194977
 31
0.0
  0
LINE
  5
34D
100
AcDbEntity
  8
1
390
0
  6
CENTER
 62
     1
100
AcDbLine
 10
292.75044
 20
98.294977
 30
0.0
 11
302.269585
 21
98.294977
 31
0.0
  0
LINE
  5
34E
100
AcDbEntity
  8
1
390
0
  6
CENTER
 62
     1
100
AcDbLine
 10
249.144748
 20
98.294977
 30
0.0
 11
292.710012
 21
98.294977
 31
0.0
  0
LINE
  5
34F
100
AcDbEntity
  8
1
390
0
  6
CENTER
 62
     1
100
AcDbLine
 10
302.310012
 20
98.294977
 30
0.0
 11
327.710012
 21
98.294977
 31
0.0
  0
LINE
  5
350
100
AcDbEntity
  8
1
390
0
  6
Continuous
 62
     9
100
AcDbLine
 10
237.19083
 20
91.199898
 30
0.0
 11
246.185448
 21
105.528388
 31
0.0
  0
POINT
  5
352
100
AcDbEntity
  8
5
390
0
 62
     9
100
AcDbPoint
 10
237.764026
 20
90.840078
 30
0.0
  0
POINT
  5
353
100
AcDbEntity
  8
5
390
0
 62
     9
100
AcDbPoint
 10
247.342564
 20
104.802015
 30
0.0
  0
POINT
  5
354
100
AcDbEntity
  8
5
390
0
 62
     9
100
AcDbPoint
 10
242.472121
 20
90.840078
 30
0.0
  0
POINT
  5
355
100
AcDbEntity
  8
5
390
0
 62
     9
100
AcDbPoint
 10
251.888311
 20
104.314971
 30
0.0
  0
POINT
  5
356
100
AcDbEntity
  8
5
390
0
 62
     9
100
AcDbPoint
 10
250.413235
 20
105.289553
 30
0.0
  0
POINT
  5
357
100
AcDbEntity
  8
5
390
0
 62
     9
100
AcDbPoint
 10
241.957604
 20
91.478689
 30
0.0
  0
LINE
  5
358
100
AcDbEntity
  8
1
390
0
  6
Continuous
 62
     9
100
AcDbLine
 10
250.413235
 20
105.289553
 30
0.0
 11
241.957604
 21
91.478689
 31
0.0
  0
POLYLINE
  5
359
100
AcDbEntity
  8
1
390
0
  6
Continuous
 62
     9
100
AcDb3dPolyline
 66
     1
 10
0.0
 20
0.0
 30
0.0
 70
     8
 40
1.0
 41
1.0
  0
VERTEX
  5
35A
100
AcDbEntity
  8
1
390
0
 62
     9
100
AcDbVertex
100
AcDb3dPolylineVertex
 10
250.413235
 20
105.289553
 30
0.0
 70
    32
  0
VERTEX
  5
35B
100
AcDbEntity
  8
1
390
0
 62
     9
100
AcDbVertex
100
AcDb3dPolylineVertex
 10
241.957604
 20
91.478689
 30
0.0
 70
    32
  0
SEQEND
  5
35C
100
AcDbEntity
  8
0
390
0
  0
LINE
  5
35D
100
AcDbEntity
  8
1
390
0
  6
Continuous
 62
     7
100
AcDbLine
 10
48.488393
 20
164.281783
 30
0.0
 11
48.488393
 21
191.781783
 31
0.0
  0
LINE
  5
35E
100
AcDbEntity
  8
1
390
0
  6
Continuous
 62
     7
100
AcDbLine
 10
48.488393
 20
191.781783
 30
0.0
 11
48.488393
 21
219.281783
 31
0.0
  0
LINE
  5
35F
100
AcDbEntity
  8
1
390
0
  6
Continuous
 62
     7
100
AcDbLine
 10
48.488393
 20
219.281783
 30
0.0
 11
50.488393
 21
219.281783
 31
0.0
  0
LINE
  5
360
100
AcDbEntity
  8
1
390
0
  6
Continuous
 62
     7
100
AcDbLine
 10
50.488393
 20
164.281783
 30
0.0
 11
48.488393
 21
164.281783
 31
0.0
  0
ARC
  5
361
100
AcDbEntity
  8
1
390
0
  6
Continuous
 62
     7
100
AcDbCircle
 10
73.988393
 20
217.281783
 30
0.0
 40
2.0
210
0.0
220
0.0
230
1.0
100
AcDbArc
 50
0.0
 51
90.0
  0
ARC
  5
362
100
AcDbEntity
  8
1
390
0
  6
Continuous
 62
     7
100
AcDbCircle
 10
73.988393
 20
166.281783
 30
0.0
 40
2.0
210
0.0
220
0.0
230
1.0
100
AcDbArc
 50
270.0
 51
360.0
  0
LINE
  5
363
100
AcDbEntity
  8
1
390
0
  6
Continuous
 62
     7
100
AcDbLine
 10
50.488393
 20
164.281783
 30
0.0
 11
73.988393
 21
164.281783
 31
0.0
  0
LINE
  5
364
100
AcDbEntity
  8
1
390
0
  6
Continuous
 62
     7
100
AcDbLine
 10
50.488393
 20
219.281783
 30
0.0
 11
73.988393
 21
219.281783
 31
0.0
  0
LINE
  5
365
100
AcDbEntity
  8
1
390
0
  6
Continuous
 62
     7
100
AcDbLine
 10
75.988393
 20
166.281783
 30
0.0
 11
75.988393
 21
217.281783
 31
0.0
  0
LINE
  5
366
100
AcDbEntity
  8
1
390
0
  6
Continuous
 62
     7
100
AcDbLine
 10
43.488393
 20
199.781783
 30
0.0
 11
43.488393
 21
183.781783
 31
0.0
  0
LINE
  5
367
100
AcDbEntity
  8
1
390
0
  6
Continuous
 62
     7
100
AcDbLine
 10
76.188393
 20
216.781783
 30
0.0
 11
75.988393
 21
216.781783
 31
0.0
  0
LINE
  5
368
100
AcDbEntity
  8
1
390
0
  6
Continuous
 62
     7
100
AcDbLine
 10
76.188393
 20
214.781783
 30
0.0
 11
76.188393
 21
216.781783
 31
0.0
  0
LINE
  5
369
100
AcDbEntity
  8
1
390
0
  6
Continuous
 62
     7
100
AcDbLine
 10
76.188393
 20
168.781783
 30
0.0
 11
76.188393
 21
214.781783
 31
0.0
  0
LINE
  5
36A
100
AcDbEntity
  8
1
390
0
  6
Continuous
 62
     7
100
AcDbLine
 10
76.188393
 20
166.781783
 30
0.0
 11
75.988393
 21
166.781783
 31
0.0
  0
LINE
  5
36B
100
AcDbEntity
  8
1
390
0
  6
Continuous
 62
     7
100
AcDbLine
 10
76.188393
 20
166.781783
 30
0.0
 11
76.188393
 21
168.781783
 31
0.0
  0
LINE
  5
36C
100
AcDbEntity
  8
1
390
0
  6
DOT
 62
     9
100
AcDbLine
 10
76.188393
 20
192.081783
 30
0.0
 11
75.988393
 21
192.081783
 31
0.0
  0
LINE
  5
36D
100
AcDbEntity
  8
1
390
0
  6
DOT
 62
     9
100
AcDbLine
 10
76.188393
 20
207.981783
 30
0.0
 11
75.988393
 21
207.981783
 31
0.0
  0
LINE
  5
36E
100
AcDbEntity
  8
1
390
0
  6
Continuous
 62
     7
100
AcDbLine
 10
77.488393
 20
192.281783
 30
0.0
 11
76.188393
 21
192.281783
 31
0.0
  0
LINE
  5
36F
100
AcDbEntity
  8
1
390
0
  6
DOT
 62
     9
100
AcDbLine
 10
76.188393
 20
192.281783
 30
0.0
 11
75.988393
 21
192.281783
 31
0.0
  0
LINE
  5
370
100
AcDbEntity
  8
1
390
0
  6
Continuous
 62
     7
100
AcDbLine
 10
77.488393
 20
192.281783
 30
0.0
 11
77.488393
 21
207.781783
 31
0.0
  0
LINE
  5
371
100
AcDbEntity
  8
1
390
0
  6
Continuous
 62
     7
100
AcDbLine
 10
77.488393
 20
207.781783
 30
0.0
 11
76.188393
 21
207.781783
 31
0.0
  0
LINE
  5
372
100
AcDbEntity
  8
1
390
0
  6
DOT
 62
     9
100
AcDbLine
 10
76.188393
 20
207.781783
 30
0.0
 11
75.988393
 21
207.781783
 31
0.0
  0
LINE
  5
373
100
AcDbEntity
  8
1
390
0
  6
DOT
 62
     9
100
AcDbLine
 10
77.488393
 20
194.781783
 30
0.0
 11
75.988393
 21
194.781783
 31
0.0
  0
LINE
  5
374
100
AcDbEntity
  8
1
390
0
  6
DOT
 62
     9
100
AcDbLine
 10
77.488393
 20
197.781783
 30
0.0
 11
75.988393
 21
197.781783
 31
0.0
  0
LINE
  5
375
100
AcDbEntity
  8
1
390
0
  6
DOT
 62
     9
100
AcDbLine
 10
77.488393
 20
205.031783
 30
0.0
 11
75.988393
 21
205.031783
 31
0.0
  0
LINE
  5
376
100
AcDbEntity
  8
1
390
0
  6
DOT
 62
     9
100
AcDbLine
 10
77.488393
 20
202.531783
 30
0.0
 11
75.988393
 21
202.531783
 31
0.0
  0
LINE
  5
377
100
AcDbEntity
  8
1
390
0
  6
DOT
 62
     9
100
AcDbLine
 10
77.488393
 20
199.531783
 30
0.0
 11
76.488393
 21
199.531783
 31
0.0
  0
LINE
  5
378
100
AcDbEntity
  8
1
390
0
  6
DOT
 62
     9
100
AcDbLine
 10
77.488393
 20
207.031783
 30
0.0
 11
76.488393
 21
207.031783
 31
0.0
  0
LINE
  5
379
100
AcDbEntity
  8
1
390
0
  6
DOT
 62
     9
100
AcDbLine
 10
77.488393
 20
193.031783
 30
0.0
 11
76.488393
 21
193.031783
 31
0.0
  0
LINE
  5
37A
100
AcDbEntity
  8
1
390
0
  6
DOT
 62
     9
100
AcDbLine
 10
77.488393
 20
200.531783
 30
0.0
 11
76.488393
 21
200.531783
 31
0.0
  0
LINE
  5
37B
100
AcDbEntity
  8
1
390
0
  6
DOT
 62
     9
100
AcDbLine
 10
76.488393
 20
200.531783
 30
0.0
 11
76.488393
 21
202.531783
 31
0.0
  0
LINE
  5
37C
100
AcDbEntity
  8
1
390
0
  6
DOT
 62
     9
100
AcDbLine
 10
76.488393
 20
205.031783
 30
0.0
 11
76.488393
 21
207.031783
 31
0.0
  0
LINE
  5
37D
100
AcDbEntity
  8
1
390
0
  6
DOT
 62
     9
100
AcDbLine
 10
76.488393
 20
197.781783
 30
0.0
 11
76.488393
 21
199.531783
 31
0.0
  0
LINE
  5
37E
100
AcDbEntity
  8
1
390
0
  6
DOT
 62
     9
100
AcDbLine
 10
76.488393
 20
193.031783
 30
0.0
 11
76.488393
 21
194.781783
 31
0.0
  0
LINE
  5
37F
100
AcDbEntity
  8
1
390
0
  6
DOT
 62
     9
100
AcDbLine
 10
76.488393
 20
202.531783
 30
0.0
 11
76.488393
 21
205.031783
 31
0.0
  0
LINE
  5
380
100
AcDbEntity
  8
1
390
0
  6
DOT
 62
     9
100
AcDbLine
 10
76.488393
 20
194.781783
 30
0.0
 11
76.488393
 21
197.781783
 31
0.0
  0
CIRCLE
  5
381
100
AcDbEntity
  8
1
390
0
  6
DOT
 62
     9
100
AcDbCircle
 10
57.988393
 20
205.281783
 30
0.0
 40
5.5
210
0.0
220
0.0
230
1.0
  0
ARC
  5
382
100
AcDbEntity
  8
1
390
0
  6
DOT
 62
     9
100
AcDbCircle
 10
57.988393
 20
205.281783
 30
0.0
 40
5.5
210
0.0
220
0.0
230
1.0
100
AcDbArc
 50
360.0
 51
180.0
  0
CIRCLE
  5
383
100
AcDbEntity
  8
1
390
0
  6
DOT
 62
     9
100
AcDbCircle
 10
57.988393
 20
205.281783
 30
0.0
 40
3.0
210
0.0
220
0.0
230
1.0
  0
CIRCLE
  5
384
100
AcDbEntity
  8
1
390
0
  6
DOT
 62
     9
100
AcDbCircle
 10
57.988393
 20
205.281783
 30
0.0
 40
2.5
210
0.0
220
0.0
230
1.0
  0
CIRCLE
  5
385
100
AcDbEntity
  8
1
390
0
  6
DOT
 62
     9
100
AcDbCircle
 10
57.988393
 20
205.281783
 30
0.0
 40
5.2
210
0.0
220
0.0
230
1.0
  0
CIRCLE
  5
386
100
AcDbEntity
  8
1
390
0
  6
DOT
 62
     9
100
AcDbCircle
 10
57.988393
 20
205.281783
 30
0.0
 40
4.8
210
0.0
220
0.0
230
1.0
  0
ARC
  5
387
100
AcDbEntity
  8
1
390
0
  6
DOT
 62
     9
100
AcDbCircle
 10
57.988393
 20
205.281783
 30
0.0
 40
4.5
210
0.0
220
0.0
230
1.0
100
AcDbArc
 50
270.0
 51
180.0
  0
ARC
  5
388
100
AcDbEntity
  8
1
390
0
  6
DOT
 62
     9
100
AcDbCircle
 10
57.988393
 20
205.281783
 30
0.0
 40
4.5
210
0.0
220
0.0
230
1.0
100
AcDbArc
 50
180.0
 51
270.0
  0
CIRCLE
  5
389
100
AcDbEntity
  8
1
390
0
  6
DOT
 62
     9
100
AcDbCircle
 10
57.988393
 20
205.281783
 30
0.0
 40
4.7
210
0.0
220
0.0
230
1.0
  0
CIRCLE
  5
38A
100
AcDbEntity
  8
1
390
0
  6
DOT
 62
     9
100
AcDbCircle
 10
57.988393
 20
205.281783
 30
0.0
 40
5.15
210
0.0
220
0.0
230
1.0
  0
CIRCLE
  5
38B
100
AcDbEntity
  8
1
390
0
  6
DOT
 62
     9
100
AcDbCircle
 10
57.988393
 20
205.281783
 30
0.0
 40
5.3
210
0.0
220
0.0
230
1.0
  0
CIRCLE
  5
38C
100
AcDbEntity
  8
1
390
0
  6
DOT
 62
     9
100
AcDbCircle
 10
57.988393
 20
205.281783
 30
0.0
 40
5.75
210
0.0
220
0.0
230
1.0
  0
ARC
  5
38D
100
AcDbEntity
  8
1
390
0
  6
DOT
 62
     9
100
AcDbCircle
 10
57.988393
 20
205.281783
 30
0.0
 40
2.8
210
0.0
220
0.0
230
1.0
100
AcDbArc
 50
270.0
 51
360.0
  0
ARC
  5
38E
100
AcDbEntity
  8
1
390
0
  6
DOT
 62
     9
100
AcDbCircle
 10
57.988393
 20
205.281783
 30
0.0
 40
2.8
210
0.0
220
0.0
230
1.0
100
AcDbArc
 50
360.0
 51
90.0
  0
CIRCLE
  5
38F
100
AcDbEntity
  8
1
390
0
  6
DOT
 62
     9
100
AcDbCircle
 10
57.988393
 20
205.281783
 30
0.0
 40
2.85
210
0.0
220
0.0
230
1.0
  0
ARC
  5
390
100
AcDbEntity
  8
1
390
0
  6
DOT
 62
     9
100
AcDbCircle
 10
57.988393
 20
205.281783
 30
0.0
 40
2.8
210
0.0
220
0.0
230
1.0
100
AcDbArc
 50
90.0
 51
270.0
  0
ARC
  5
391
100
AcDbEntity
  8
1
390
0
  6
DOT
 62
     9
100
AcDbCircle
 10
57.988393
 20
205.281783
 30
0.0
 40
4.025
210
0.0
220
0.0
230
1.0
100
AcDbArc
 50
270.0
 51
90.0
  0
ARC
  5
392
100
AcDbEntity
  8
1
390
0
  6
DOT
 62
     9
100
AcDbCircle
 10
57.988393
 20
205.281783
 30
0.0
 40
4.025
210
0.0
220
0.0
230
1.0
100
AcDbArc
 50
90.0
 51
270.0
  0
ARC
  5
393
100
AcDbEntity
  8
1
390
0
  6
DOT
 62
     9
100
AcDbCircle
 10
57.988393
 20
205.281783
 30
0.0
 40
4.0
210
0.0
220
0.0
230
1.0
100
AcDbArc
 50
90.0
 51
270.0
  0
ARC
  5
394
100
AcDbEntity
  8
1
390
0
  6
DOT
 62
     9
100
AcDbCircle
 10
57.988393
 20
205.281783
 30
0.0
 40
4.0
210
0.0
220
0.0
230
1.0
100
AcDbArc
 50
270.0
 51
90.0
  0
CIRCLE
  5
395
100
AcDbEntity
  8
1
390
0
  6
DOT
 62
     9
100
AcDbCircle
 10
57.988393
 20
205.281783
 30
0.0
 40
2.6
210
0.0
220
0.0
230
1.0
  0
CIRCLE
  5
396
100
AcDbEntity
  8
1
390
0
  6
DOT
 62
     9
100
AcDbCircle
 10
57.988393
 20
205.281783
 30
0.0
 40
4.44
210
0.0
220
0.0
230
1.0
  0
ARC
  5
397
100
AcDbEntity
  8
1
390
0
  6
DOT
 62
     9
100
AcDbCircle
 10
57.988393
 20
205.281783
 30
0.0
 40
3.9
210
0.0
220
0.0
230
1.0
100
AcDbArc
 50
344.381502
 51
15.618498
  0
LINE
  5
398
100
AcDbEntity
  8
1
390
0
  6
DOT
 62
     9
100
AcDbLine
 10
55.05174
 20
202.71545
 30
0.0
 11
55.312314
 21
203.02599
 31
0.0
  0
ARC
  5
399
100
AcDbEntity
  8
1
390
0
  6
DOT
 62
     9
100
AcDbCircle
 10
57.988393
 20
205.281783
 30
0.0
 40
3.9
210
0.0
220
0.0
230
1.0
100
AcDbArc
 50
301.150117
 51
318.849883
  0
LINE
  5
39A
100
AcDbEntity
  8
1
390
0
  6
DOT
 62
     9
100
AcDbLine
 10
60.664473
 20
203.02599
 30
0.0
 11
60.925047
 21
202.71545
 31
0.0
  0
LINE
  5
39B
100
AcDbEntity
  8
1
390
0
  6
DOT
 62
     9
100
AcDbLine
 10
61.744389
 20
204.231783
 30
0.0
 11
61.327181
 21
204.231783
 31
0.0
  0
ARC
  5
39C
100
AcDbEntity
  8
1
390
0
  6
DOT
 62
     9
100
AcDbCircle
 10
57.988393
 20
205.281783
 30
0.0
 40
3.9
210
0.0
220
0.0
230
1.0
100
AcDbArc
 50
156.150117
 51
173.849883
  0
LINE
  5
39D
100
AcDbEntity
  8
1
390
0
  6
DOT
 62
     9
100
AcDbLine
 10
61.327181
 20
206.331783
 30
0.0
 11
61.744389
 21
206.331783
 31
0.0
  0
LINE
  5
39E
100
AcDbEntity
  8
1
390
0
  6
DOT
 62
     9
100
AcDbLine
 10
56.231568
 20
202.254645
 30
0.0
 11
55.970993
 21
201.944104
 31
0.0
  0
ARC
  5
39F
100
AcDbEntity
  8
1
390
0
  6
DOT
 62
     9
100
AcDbCircle
 10
57.988393
 20
205.281783
 30
0.0
 40
3.5
210
0.0
220
0.0
230
1.0
100
AcDbArc
 50
319.87089
 51
342.542397
  0
ARC
  5
3A0
100
AcDbEntity
  8
1
390
0
  6
DOT
 62
     9
100
AcDbCircle
 10
57.988393
 20
205.281783
 30
0.0
 40
3.5
210
0.0
220
0.0
230
1.0
100
AcDbArc
 50
239.87089
 51
300.12911
  0
ARC
  5
3A1
100
AcDbEntity
  8
1
390
0
  6
DOT
 62
     9
100
AcDbCircle
 10
57.988393
 20
205.281783
 30
0.0
 40
3.5
210
0.0
220
0.0
230
1.0
100
AcDbArc
 50
174.87089
 51
220.12911
  0
ARC
  5
3A2
100
AcDbEntity
  8
1
390
0
  6
DOT
 62
     9
100
AcDbCircle
 10
57.988393
 20
205.281783
 30
0.0
 40
3.5
210
0.0
220
0.0
230
0.9999999999999999
100
AcDbArc
 50
139.87089
 51
155.12911
  0
ARC
  5
3A3
100
AcDbEntity
  8
1
390
0
  6
DOT
 62
     9
100
AcDbCircle
 10
57.988393
 20
205.281783
 30
0.0
 40
3.5
210
0.0
220
0.0
230
0.9999999999999999
100
AcDbArc
 50
17.457603
 51
120.12911
  0
ARC
  5
3A4
100
AcDbEntity
  8
1
390
0
  6
DOT
 62
     9
100
AcDbCircle
 10
57.988393
 20
205.281783
 30
0.0
 40
3.9
210
0.0
220
0.0
230
1.0
100
AcDbArc
 50
121.150117
 51
138.849883
  0
LINE
  5
3A5
100
AcDbEntity
  8
1
390
0
  6
DOT
 62
     9
100
AcDbLine
 10
54.502408
 20
205.594684
 30
0.0
 11
54.110839
 21
205.699604
 31
0.0
  0
LINE
  5
3A6
100
AcDbEntity
  8
1
390
0
  6
DOT
 62
     9
100
AcDbLine
 10
55.312314
 20
207.537575
 30
0.0
 11
55.05174
 21
207.848116
 31
0.0
  0
LINE
  5
3A7
100
AcDbEntity
  8
1
390
0
  6
DOT
 62
     9
100
AcDbLine
 10
60.005794
 20
201.944104
 30
0.0
 11
59.745219
 21
202.254645
 31
0.0
  0
LINE
  5
3A8
100
AcDbEntity
  8
1
390
0
  6
DOT
 62
     9
100
AcDbLine
 10
55.970993
 20
208.619461
 30
0.0
 11
56.231568
 21
208.30892
 31
0.0
  0
LINE
  5
3A9
100
AcDbEntity
  8
1
390
0
  6
DOT
 62
     9
100
AcDbLine
 10
54.421422
 20
206.858715
 30
0.0
 11
54.812991
 21
206.753795
 31
0.0
  0
ARC
  5
3AA
100
AcDbEntity
  8
1
390
0
  6
DOT
 62
     9
100
AcDbCircle
 10
57.988393
 20
205.281783
 30
0.0
 40
3.9
210
0.0
220
0.0
230
1.0
100
AcDbArc
 50
221.150117
 51
238.849883
  0
ARC
  5
3AB
100
AcDbEntity
  8
1
390
0
  6
DOT
 62
     9
100
AcDbCircle
 10
58.788397
 20
208.534882
 30
0.0
 40
0.199996
210
0.0
220
0.0
230
1.0
100
AcDbArc
 50
256.18312
 51
359.999115
  0
LINE
  5
3AC
100
AcDbEntity
  8
1
390
0
  6
DOT
 62
     9
100
AcDbLine
 10
58.988393
 20
208.635885
 30
0.0
 11
58.988393
 21
208.534878
 31
0.0
  0
ARC
  5
3AD
100
AcDbEntity
  8
1
390
0
  6
DOT
 62
     9
100
AcDbCircle
 10
57.18839
 20
202.028684
 30
0.0
 40
0.199996
210
0.0
220
0.0
230
1.0
100
AcDbArc
 50
76.18312
 51
179.999115
  0
LINE
  5
3AE
100
AcDbEntity
  8
1
390
0
  6
DOT
 62
     9
100
AcDbLine
 10
56.988393
 20
201.927681
 30
0.0
 11
56.988393
 21
202.028687
 31
0.0
  0
LINE
  5
3AF
100
AcDbEntity
  8
1
390
0
  6
DOT
 62
     9
100
AcDbLine
 10
58.988393
 20
202.028687
 30
0.0
 11
58.988393
 21
201.927681
 31
0.0
  0
ARC
  5
3B0
100
AcDbEntity
  8
1
390
0
  6
DOT
 62
     9
100
AcDbCircle
 10
58.788397
 20
202.028684
 30
0.0
 40
0.199996
210
0.0
220
0.0
230
1.0
100
AcDbArc
 50
0.000885
 51
103.81688
  0
LINE
  5
3B1
100
AcDbEntity
  8
1
390
0
  6
DOT
 62
     9
100
AcDbLine
 10
56.988393
 20
208.534878
 30
0.0
 11
56.988393
 21
208.635885
 31
0.0
  0
ARC
  5
3B2
100
AcDbEntity
  8
1
390
0
  6
DOT
 62
     9
100
AcDbCircle
 10
57.18839
 20
208.534882
 30
0.0
 40
0.199996
210
0.0
220
0.0
230
1.0
100
AcDbArc
 50
180.000885
 51
283.81688
  0
ARC
  5
3B3
100
AcDbEntity
  8
1
390
0
  6
DOT
 62
     9
100
AcDbCircle
 10
57.988393
 20
205.281783
 30
0.0
 40
3.150028
210
0.0
220
0.0
230
1.0
100
AcDbArc
 50
90.0
 51
103.815996
  0
ARC
  5
3B4
100
AcDbEntity
  8
1
390
0
  6
DOT
 62
     9
100
AcDbCircle
 10
57.988393
 20
205.281783
 30
0.0
 40
3.150028
210
0.0
220
0.0
230
1.0
100
AcDbArc
 50
76.184004
 51
90.0
  0
ARC
  5
3B5
100
AcDbEntity
  8
1
390
0
  6
DOT
 62
     9
100
AcDbCircle
 10
57.988393
 20
205.281783
 30
0.0
 40
3.150028
210
0.0
220
0.0
230
1.0
100
AcDbArc
 50
270.0
 51
283.815996
  0
ARC
  5
3B6
100
AcDbEntity
  8
1
390
0
  6
DOT
 62
     9
100
AcDbCircle
 10
57.988393
 20
205.281783
 30
0.0
 40
3.150028
210
0.0
220
0.0
230
1.0
100
AcDbArc
 50
256.184004
 51
270.0
  0
ARC
  5
3B7
100
AcDbEntity
  8
1
390
0
  6
DOT
 62
     9
100
AcDbCircle
 10
57.988393
 20
205.281783
 30
0.0
 40
3.5
210
0.0
220
0.0
230
1.0
100
AcDbArc
 50
120.12911
 51
139.87089
  0
ARC
  5
3B8
100
AcDbEntity
  8
1
390
0
  6
DOT
 62
     9
100
AcDbCircle
 10
57.988393
 20
205.281783
 30
0.0
 40
3.5
210
0.0
220
0.0
230
1.0
100
AcDbArc
 50
220.12911
 51
239.87089
  0
ARC
  5
3B9
100
AcDbEntity
  8
1
390
0
  6
DOT
 62
     9
100
AcDbCircle
 10
57.988393
 20
205.281783
 30
0.0
 40
3.5
210
0.0
220
0.0
230
1.0
100
AcDbArc
 50
342.542397
 51
17.457603
  0
ARC
  5
3BA
100
AcDbEntity
  8
1
390
0
  6
DOT
 62
     9
100
AcDbCircle
 10
57.988393
 20
205.281783
 30
0.0
 40
3.5
210
0.0
220
0.0
230
1.0
100
AcDbArc
 50
155.12911
 51
174.87089
  0
ARC
  5
3BB
100
AcDbEntity
  8
1
390
0
  6
DOT
 62
     9
100
AcDbCircle
 10
57.988393
 20
205.281783
 30
0.0
 40
3.5
210
0.0
220
0.0
230
1.0
100
AcDbArc
 50
300.12911
 51
319.87089
  0
CIRCLE
  5
3BC
100
AcDbEntity
  8
1
390
0
  6
DOT
 62
     9
100
AcDbCircle
 10
57.988393
 20
205.281783
 30
0.0
 40
3.3
210
0.0
220
0.0
230
1.0
  0
ARC
  5
3BD
100
AcDbEntity
  8
1
390
0
  6
Continuous
 62
     7
100
AcDbCircle
 10
46.488393
 20
197.781783
 30
0.0
 40
2.0
210
0.0
220
0.0
230
1.0
100
AcDbArc
 50
0.0
 51
90.0
  0
ARC
  5
3BE
100
AcDbEntity
  8
1
390
0
  6
Continuous
 62
     7
100
AcDbCircle
 10
46.488393
 20
185.781783
 30
0.0
 40
2.0
210
0.0
220
0.0
230
1.0
100
AcDbArc
 50
270.0
 51
360.0
  0
LINE
  5
3BF
100
AcDbEntity
  8
1
390
0
  6
Continuous
 62
     7
100
AcDbLine
 10
46.488393
 20
199.781783
 30
0.0
 11
43.488393
 21
199.781783
 31
0.0
  0
LINE
  5
3C0
100
AcDbEntity
  8
1
390
0
  6
Continuous
 62
     7
100
AcDbLine
 10
43.488393
 20
183.781783
 30
0.0
 11
46.488393
 21
183.781783
 31
0.0
  0
LINE
  5
3C1
100
AcDbEntity
  8
1
390
0
  6
CENTER
 62
     1
100
AcDbLine
 10
48.288393
 20
191.781783
 30
0.0
 11
74.188393
 21
191.781783
 31
0.0
  0
LINE
  5
3C2
100
AcDbEntity
  8
1
390
0
  6
CENTER
 62
     1
100
AcDbLine
 10
52.038393
 20
205.281783
 30
0.0
 11
63.938393
 21
205.281783
 31
0.0
  0
LINE
  5
3C3
100
AcDbEntity
  8
1
390
0
  6
CENTER
 62
     1
100
AcDbLine
 10
57.988393
 20
199.331783
 30
0.0
 11
57.988393
 21
211.231783
 31
0.0
  0
INSERT
  5
3D5
100
AcDbEntity
  8
1
390
0
100
AcDbBlockReference
  2
AID2329
 10
0.0
 20
0.0
 30
0.0
  0
INSERT
  5
3E7
100
AcDbEntity
  8
1
390
0
100
AcDbBlockReference
  2
AID2337
 10
0.0
 20
0.0
 30
0.0
  0
INSERT
  5
3FA
100
AcDbEntity
  8
1
390
0
100
AcDbBlockReference
  2
AID2345
 10
0.0
 20
0.0
 30
0.0
  0
INSERT
  5
40C
100
AcDbEntity
  8
1
390
0
100
AcDbBlockReference
  2
AID2354
 10
0.0
 20
0.0
 30
0.0
  0
INSERT
  5
41F
100
AcDbEntity
  8
1
390
0
100
AcDbBlockReference
  2
AID2362
 10
0.0
 20
0.0
 30
0.0
  0
INSERT
  5
431
100
AcDbEntity
  8
1
390
0
100
AcDbBlockReference
  2
AID2371
 10
0.0
 20
0.0
 30
0.0
  0
INSERT
  5
443
100
AcDbEntity
  8
1
390
0
100
AcDbBlockReference
  2
AID2379
 10
0.0
 20
0.0
 30
0.0
  0
INSERT
  5
455
100
AcDbEntity
  8
1
390
0
100
AcDbBlockReference
  2
AID2387
 10
0.0
 20
0.0
 30
0.0
  0
INSERT
  5
466
100
AcDbEntity
  8
1
390
0
100
AcDbBlockReference
  2
AID2395
 10
0.0
 20
0.0
 30
0.0
  0
INSERT
  5
46C
100
AcDbEntity
  8
1
390
0
100
AcDbBlockReference
  2
AID2402
 10
0.0
 20
0.0
 30
0.0
  0
INSERT
  5
471
100
AcDbEntity
  8
1
390
0
100
AcDbBlockReference
  2
AID2408
 10
0.0
 20
0.0
 30
0.0
  0
INSERT
  5
476
100
AcDbEntity
  8
1
390
0
100
AcDbBlockReference
  2
AID2412
 10
0.0
 20
0.0
 30
0.0
  0
ENDSEC
  0
SECTION
  2
OBJECTS
  0
DICTIONARY
  5
19
100
AcDbDictionary
280
     0
281
     1
  3
ACAD_GROUP
350
1A
  3
ACAD_MLINESTYLE
350
1B
  3
ACAD_LAYOUT
350
1E
  3
ACAD_PLOTSETTINGS
350
22
  3
ACAD_PLOTSTYLENAME
350
1F
  3
ACAD_WIPEOUT_VARS
350
23
  0
DICTIONARY
  5
1A
102
{ACAD_REACTORS
330
19
102
}
100
AcDbDictionary
280
     0
281
     1
  0
DICTIONARY
  5
1B
102
{ACAD_REACTORS
330
19
102
}
100
AcDbDictionary
280
     0
281
     1
  3
Standard
350
1C
  0
MLINESTYLE
  5
1C
102
{ACAD_REACTORS
330
1B
102
}
100
AcDbMlineStyle
  2
Standard
 70
     0
  3

 62
     0
 51
90.0
 52
90.0
 71
     2
 49
0.5
 62
   256
  6
ByLayer
 49
-0.5
 62
   256
  6
ByLayer
  0
ACDBDICTIONARYWDFLT
  5
1F
102
{ACAD_REACTORS
330
19
102
}
100
AcDbDictionary
281
     1
  3
Normal
350
1D
100
AcDbDictionaryWithDefault
340
1D
  0
ACDBPLACEHOLDER
  5
1D
102
{ACAD_REACTORS
330
1F
102
}
  0
LAYOUT
  5
20
102
{ACAD_REACTORS
330
1E
102
}
100
AcDbPlotSettings
  1

  2

  4

  6

 40
0.0
 41
0.0
 42
0.0
 43
0.0
 44
0.0
 45
0.0
 46
0.0
 47
0.0
 48
0.0
 49
0.0
140
0.0
141
0.0
142
1.0
143
1.0
 70
  1024
 72
     0
 73
     0
 74
     0
  7

 75
     0
147
1.0
148
0.0
149
0.0
100
AcDbLayout
  1
Model
 70
     0
 71
     0
 10
0.0
 20
0.0
 11
0.0
 21
0.0
 12
0.0
 22
0.0
 32
0.0
 14
0.0
 24
0.0
 34
0.0
 15
0.0
 25
0.0
 35
0.0
146
0.0
 13
0.0
 23
0.0
 33
0.0
 16
0.0
 26
0.0
 36
0.0
 17
0.0
 27
0.0
 37
0.0
 76
     0
330
A
331
0
345
0
346
0
  0
LAYOUT
  5
21
102
{ACAD_REACTORS
330
1E
102
}
100
AcDbPlotSettings
  1

  2

  4

  6

 40
0.0
 41
0.0
 42
0.0
 43
0.0
 44
0.0
 45
0.0
 46
0.0
 47
0.0
 48
0.0
 49
0.0
140
0.0
141
0.0
142
1.0
143
1.0
 70
     0
 72
     0
 73
     0
 74
     0
  7

 75
     0
147
1.0
148
0.0
149
0.0
100
AcDbLayout
  1
Layout1
 70
     0
 71
     0
 10
0.0
 20
0.0
 11
0.0
 21
0.0
 12
0.0
 22
0.0
 32
0.0
 14
0.0
 24
0.0
 34
0.0
 15
0.0
 25
0.0
 35
0.0
146
0.0
 13
0.0
 23
0.0
 33
0.0
 16
0.0
 26
0.0
 36
0.0
 17
0.0
 27
0.0
 37
0.0
 76
     0
330
B
331
0
345
0
346
0
  0
DICTIONARY
  5
1E
102
{ACAD_REACTORS
330
19
102
}
100
AcDbDictionary
280
     0
281
     1
  3
Layout1
350
21
  3
Model
350
20
  0
DICTIONARY
  5
22
102
{ACAD_REACTORS
330
19
102
}
100
AcDbDictionary
280
     0
281
     1
  0
WIPEOUTVARIABLES
  5
23
100
AcDbWipeoutVariables
 70
     1
  0
ENDSEC
  0
EOF
