  0
SECTION
  2
HEADER
  9
$ACADVER
  1
AC1015
  9
$ACADMAINTVER
 70
     6
  9
$DWGCODEPAGE
  3
DOS932
  9
$INSBASE
 10
0.0
 20
0.0
 30
0.0
  9
$EXTMIN
 10
0.0
 20
0.0
 30
0.0
  9
$EXTMAX
 10
420.0
 20
297.0
 30
5.0
  9
$LIMMIN
 10
0.0
 20
0.0
  9
$LIMMAX
 10
420.0
 20
297.0
  9
$ORTHOMODE
 70
     0
  9
$REGENMODE
 70
     1
  9
$FILLMODE
 70
     1
  9
$QTEXTMODE
 70
     0
  9
$MIRRTEXT
 70
     1
  9
$LTSCALE
 40
10.0
  9
$ATTMODE
 70
     1
  9
$TEXTSIZE
 40
0.2
  9
$TRACEWID
 40
0.05
  9
$TEXTSTYLE
  7
Standard
  9
$CLAYER
  8
0
  9
$CELTYPE
  6
Continuous
  9
$CECOLOR
 62
   256
  9
$CELTSCALE
 40
1.0
  9
$DISPSILH
 70
     0
  9
$DIMSCALE
 40
1.0
  9
$DIMASZ
 40
1.8
  9
$DIMEXO
 40
1.8
  9
$DIMDLI
 40
0.38
  9
$DIMRND
 40
0.0
  9
$DIMDLE
 40
0.0
  9
$DIMEXE
 40
1.8
  9
$DIMTP
 40
0.0
  9
$DIMTM
 40
0.0
  9
$DIMTXT
 40
6.0
  9
$DIMCEN
 40
0.09
  9
$DIMTSZ
 40
0.0
  9
$DIMTOL
 70
     0
  9
$DIMLIM
 70
     0
  9
$DIMTIH
 70
     0
  9
$DIMTOH
 70
     0
  9
$DIMSE1
 70
     0
  9
$DIMSE2
 70
     0
  9
$DIMTAD
 70
     1
  9
$DIMZIN
 70
     0
  9
$DIMBLK
  1

  9
$DIMASO
 70
     1
  9
$DIMSHO
 70
     1
  9
$DIMPOST
  1

  9
$DIMAPOST
  1

  9
$DIMALT
 70
     0
  9
$DIMALTD
 70
     2
  9
$DIMALTF
 40
25.4
  9
$DIMLFAC
 40
1.0
  9
$DIMTOFL
 70
     0
  9
$DIMTVP
 40
0.0
  9
$DIMTIX
 70
     0
  9
$DIMSOXD
 70
     0
  9
$DIMSAH
 70
     0
  9
$DIMBLK1
  1

  9
$DIMBLK2
  1

  9
$DIMSTYLE
  2
Standard
  9
$DIMCLRD
 70
     7
  9
$DIMCLRE
 70
     7
  9
$DIMCLRT
 70
     7
  9
$DIMTFAC
 40
0.7
  9
$DIMGAP
 40
1.2
  9
$DIMJUST
 70
     0
  9
$DIMSD1
 70
     0
  9
$DIMSD2
 70
     0
  9
$DIMTOLJ
 70
     1
  9
$DIMTZIN
 70
     0
  9
$DIMALTZ
 70
     0
  9
$DIMALTTZ
 70
     0
  9
$DIMUPT
 70
     0
  9
$DIMDEC
 70
     7
  9
$DIMTDEC
 70
     4
  9
$DIMALTU
 70
     2
  9
$DIMALTTD
 70
     2
  9
$DIMTXSTY
  7
Standard
  9
$DIMAUNIT
 70
     0
  9
$DIMADEC
 70
     0
  9
$DIMALTRND
 40
0.0
  9
$DIMAZIN
 70
     0
  9
$DIMDSEP
 70
     0
  9
$DIMATFIT
 70
     3
  9
$DIMFRAC
 70
     0
  9
$DIMLDRBLK
  1

  9
$DIMLUNIT
 70
     2
  9
$DIMLWD
 70
     0
  9
$DIMLWE
 70
     0
  9
$DIMTMOVE
 70
     0
  9
$LUNITS
 70
     2
  9
$LUPREC
 70
     4
  9
$SKETCHINC
 40
0.1
  9
$FILLETRAD
 40
0.0
  9
$AUNITS
 70
     0
  9
$AUPREC
 70
     0
  9
$MENU
  1
acad
  9
$ELEVATION
 40
0.0
  9
$PELEVATION
 40
0.0
  9
$THICKNESS
 40
0.0
  9
$LIMCHECK
 70
     0
  9
$CHAMFERA
 40
0.0
  9
$CHAMFERB
 40
0.0
  9
$CHAMFERC
 40
0.0
  9
$CHAMFERD
 40
0.0
  9
$SKPOLY
 70
     0
  9
$TDCREATE
 40
2458677.604444445
  9
$TDUCREATE
 40
0.000000000
  9
$TDUPDATE
 40
2458677.229293982
  9
$TDUUPDATE
 40
0.000000000
  9
$TDINDWG
 40
0.0000000000
  9
$TDUSRTIMER
 40
0.0000000000
  9
$USRTIMER
 70
     1
  9
$ANGBASE
 50
0.0
  9
$ANGDIR
 70
     0
  9
$PDMODE
 70
     0
  9
$PDSIZE
 40
0.0
  9
$PLINEWID
 40
0.0
  9
$SPLFRAME
 70
     0
  9
$SPLINETYPE
 70
     6
  9
$SPLINESEGS
 70
     8
  9
$HANDSEED
  5
64A
  9
$SURFTAB1
 70
     6
  9
$SURFTAB2
 70
     6
  9
$SURFTYPE
 70
     6
  9
$SURFU
 70
     6
  9
$SURFV
 70
     6
  9
$UCSBASE
  2

  9
$UCSNAME
  2

  9
$UCSORG
 10
0.0
 20
0.0
 30
0.0
  9
$UCSXDIR
 10
1.0
 20
0.0
 30
0.0
  9
$UCSYDIR
 10
0.0
 20
1.0
 30
0.0
  9
$UCSORTHOREF
  2

  9
$UCSORTHOVIEW
 70
     0
  9
$UCSORGTOP
 10
0.0
 20
0.0
 30
0.0
  9
$UCSORGBOTTOM
 10
0.0
 20
0.0
 30
0.0
  9
$UCSORGLEFT
 10
0.0
 20
0.0
 30
0.0
  9
$UCSORGRIGHT
 10
0.0
 20
0.0
 30
0.0
  9
$UCSORGFRONT
 10
0.0
 20
0.0
 30
0.0
  9
$UCSORGBACK
 10
0.0
 20
0.0
 30
0.0
  9
$PUCSBASE
  2

  9
$PUCSNAME
  2

  9
$PUCSORG
 10
0.0
 20
0.0
 30
0.0
  9
$PUCSXDIR
 10
1.0
 20
0.0
 30
0.0
  9
$PUCSYDIR
 10
0.0
 20
1.0
 30
0.0
  9
$PUCSORTHOREF
  2

  9
$PUCSORTHOVIEW
 70
     0
  9
$PUCSORGTOP
 10
0.0
 20
0.0
 30
0.0
  9
$PUCSORGBOTTOM
 10
0.0
 20
0.0
 30
0.0
  9
$PUCSORGLEFT
 10
0.0
 20
0.0
 30
0.0
  9
$PUCSORGRIGHT
 10
0.0
 20
0.0
 30
0.0
  9
$PUCSORGFRONT
 10
0.0
 20
0.0
 30
0.0
  9
$PUCSORGBACK
 10
0.0
 20
0.0
 30
0.0
  9
$USERI1
 70
     0
  9
$USERI2
 70
     0
  9
$USERI3
 70
     0
  9
$USERI4
 70
     0
  9
$USERI5
 70
     0
  9
$USERR1
 40
0.0
  9
$USERR2
 40
0.0
  9
$USERR3
 40
0.0
  9
$USERR4
 40
0.0
  9
$USERR5
 40
0.0
  9
$WORLDVIEW
 70
     1
  9
$SHADEDGE
 70
     3
  9
$SHADEDIF
 70
    70
  9
$TILEMODE
 70
     1
  9
$MAXACTVP
 70
    16
  9
$PINSBASE
 10
0.0
 20
0.0
 30
0.0
  9
$PLIMCHECK
 70
     0
  9
$PEXTMIN
 10
1.000000E+20
 20
1.000000E+20
 30
1.000000E+20
  9
$PEXTMAX
 10
-1.000000E+20
 20
-1.000000E+20
 30
-1.000000E+20
  9
$PLIMMIN
 10
0.0
 20
0.0
  9
$PLIMMAX
 10
12.0
 20
9.0
  9
$UNITMODE
 70
     0
  9
$VISRETAIN
 70
     0
  9
$PLINEGEN
 70
     1
  9
$PSLTSCALE
 70
     0
  9
$TREEDEPTH
 70
  3020
  9
$CMLSTYLE
  2
Standard
  9
$CMLJUST
 70
     0
  9
$CMLSCALE
 40
1.0
  9
$PROXYGRAPHICS
 70
     0
  9
$MEASUREMENT
 70
     0
  9
$CELWEIGHT
370
     0
  9
$ENDCAPS
280
     0
  9
$JOINSTYLE
280
     0
  9
$LWDISPLAY
290
     0
  9
$INSUNITS
 70
     0
  9
$HYPERLINKBASE
  1

  9
$STYLESHEET
  1

  9
$XEDIT
290
     1
  9
$CEPSNTYPE
380
     0
  9
$PSTYLEMODE
290
     1
  9
$FINGERPRINTGUID
  2

  9
$VERSIONGUID
  2

  9
$EXTNAMES
290
     1
  9
$PSVPSCALE
 40
0.0
  0
ENDSEC
  0
SECTION
  2
CLASSES
  0
CLASS
  1
LWPOLYLINE
  2
AcDbPolyline
  3
AutoCAD 2000
 90
        0
280
     0
281
     1
  0
CLASS
  1
IMAGE
  2
AcDbRasterImage
  3
ISM
 90
      127
280
     0
281
     1
  0
CLASS
  1
OLE2FRAME
  2
AcDbOle2Frame
  3
AutoCAD 2000
 90
        0
280
     0
281
     1
  0
CLASS
  1
HATCH
  2
AcDbHatch
  3
AutoCAD 2000
 90
        0
280
     0
281
     1
  0
CLASS
  1
DICTIONARYVAR
  2
AcDbDictionaryVar
  3
AutoCAD 2000
 90
        0
280
     0
281
     0
  0
CLASS
  1
RASTERVARIABLES
  2
AcDbRasterVariables
  3
ISM
 90
        0
280
     0
281
     0
  0
CLASS
  1
IMAGEDEF
  2
AcDbRasterImageDef
  3
ISM
 90
        0
280
     0
281
     0
  0
CLASS
  1
IMAGEDEF_REACTOR
  2
AcDbRasterImageDefReactor
  3
ISM
 90
        1
280
     0
281
     0
  0
CLASS
  1
IDBUFFER
  2
AcDbIdBuffer
  3
AutoCAD 2000
 90
        0
280
     0
281
     0
  0
CLASS
  1
SPATIAL_FILTER
  2
AcDbSpatialFilter
  3
AutoCAD 2000
 90
        0
280
     0
281
     0
  0
CLASS
  1
XRECORD
  2
AcDbXrecord
  3
AutoCAD 2000
 90
        0
280
     0
281
     0
  0
CLASS
  1
SORTENTSTABLE
  2
AcDbSortentsTable
  3
AutoCAD 2000
 90
        0
280
     0
281
     0
  0
CLASS
  1
LAYER_INDEX
  2
AcDbLayerIndex
  3
AutoCAD 2000
 90
        0
280
     0
281
     0
  0
CLASS
  1
SPATIAL_INDEX
  2
AcDbSpatialIndex
  3
AutoCAD 2000
 90
        0
280
     0
281
     0
  0
CLASS
  1
OBJECT_PTR
  2
CAseDLPNTableRecord
  3
"ASE-LPNTableRecord"
 90
        1
280
     0
281
     0
  0
CLASS
  1
LAYOUT
  2
AcDbLayout
  3
AutoCAD 2000
 90
        0
280
     0
281
     0
  0
CLASS
  1
PLOTSETTINGS
  2
AcDbPlotSettings
  3
AutoCAD 2000
 90
        0
280
     0
281
     0
  0
CLASS
  1
ACDBDICTIONARYWDFLT
  2
AcDbDictionaryWithDefault
  3
AutoCAD 2000
 90
        0
280
     0
281
     0
  0
CLASS
  1
ACDBPLACEHOLDER
  2
AcDbPlaceHolder
  3
AutoCAD 2000
 90
        0
280
     0
281
     0
  0
CLASS
  1
VBA_PROJECT
  2
AcDbVbaProject
  3
acadvba
 90
        0
280
     0
281
     0
  0
CLASS
  1
WIPEOUT
  2
AcDbWipeout
  3
WipeOut|AutoCAD Express Tool|expresstools@autodesk.com
 90
      127
280
     0
281
     1
  0
CLASS
  1
WIPEOUTVARIABLES
  2
AcDbWipeoutVariables
  3
WipeOut|AutoCAD Express Tool|expresstools@autodesk.com
 90
        0
280
     0
281
     0
  0
CLASS
  1
RTEXT
  2
RText
  3
RText|AutoCAD Express Tool|expresstools@autodesk.com
 90
        0
280
     0
281
     1
  0
CLASS
  1
ARCALIGNEDTEXT
  2
AcDbArcAlignedText
  3
ATEXT|AutoCAD Express Tool|expresstools@autodesk.com
 90
        0
280
     0
281
     1
  0
ENDSEC
  0
SECTION
  2
TABLES
  0
TABLE
  2
VPORT
  5
7
100
AcDbSymbolTable
 70
     1
  0
VPORT
  5
15
100
AcDbSymbolTableRecord
100
AcDbViewportTableRecord
  2
*ACTIVE
 70
     0
 10
0.0
 20
0.0
 11
1.0
 21
1.0
 12
6.591288
 22
4.579184
 13
0.0
 23
0.0
 14
1.0
 24
1.0
 15
0.0
 25
0.0
 16
0.0
 26
0.0
 36
1.0
 17
0.0
 27
0.0
 37
0.0
 40
9.158369
 41
0.688564
 42
50.0
 43
0.0
 44
0.0
 50
0.0
 51
0.0
 71
     0
 72
   100
 73
     1
 74
     1
 75
     0
 76
     0
 77
     0
 78
     0
281
     0
 65
     0
110
0.0
120
0.0
130
0.0
111
1.0
121
0.0
131
0.0
112
0.0
122
1.0
132
0.0
345
0
346
0
 79
     0
146
0.0
  0
ENDTAB
  0
TABLE
  2
LTYPE
  5
4
100
AcDbSymbolTable
 70
     5
  0
LTYPE
  5
11
100
AcDbSymbolTableRecord
100
AcDbLinetypeTableRecord
  2
ByBlock
 70
    64
  3

 72
    65
 73
     0
 40
0.0
  0
LTYPE
  5
12
100
AcDbSymbolTableRecord
100
AcDbLinetypeTableRecord
  2
ByLayer
 70
    64
  3

 72
    65
 73
     0
 40
0.0
  0
LTYPE
  5
13
100
AcDbSymbolTableRecord
100
AcDbLinetypeTableRecord
  2
Continuous
 70
    64
  3
Solid line
 72
    65
 73
     0
 40
0.0
  0
LTYPE
  5
E3
100
AcDbSymbolTableRecord
100
AcDbLinetypeTableRecord
  2
DOT
 70
    64
  3
..............................................
 72
    65
 73
     2
 40
0.5
 49
0.25
 74
     0
 49
-0.25
 74
     0
  0
LTYPE
  5
62E
100
AcDbSymbolTableRecord
100
AcDbLinetypeTableRecord
  2
CENTER
 70
    64
  3
____ _ ____ _ ____ _ ____ _ ____ _ ____ _ ____
 72
    65
 73
     4
 40
2.0
 49
1.25
 74
     0
 49
-0.25
 74
     0
 49
0.25
 74
     0
 49
-0.25
 74
     0
  0
ENDTAB
  0
TABLE
  2
LAYER
  5
2
100
AcDbSymbolTable
 70
     4
  0
LAYER
  5
14
100
AcDbSymbolTableRecord
100
AcDbLayerTableRecord
  2
0
 70
     0
 62
     7
  6
Continuous
290
     1
370
    -3
390
1D
  0
LAYER
  5
2B
100
AcDbSymbolTableRecord
100
AcDbLayerTableRecord
  2
256
 70
     0
 62
     7
  6
Continuous
290
     1
370
    -3
390
1D
  0
LAYER
  5
BC
100
AcDbSymbolTableRecord
100
AcDbLayerTableRecord
  2
1
 70
     0
 62
     7
  6
Continuous
290
     1
370
    -3
390
1D
  0
LAYER
  5
633
100
AcDbSymbolTableRecord
100
AcDbLayerTableRecord
  2
5
 70
     0
 62
    -7
  6
Continuous
290
     1
370
    -3
390
1D
  0
ENDTAB
  0
TABLE
  2
STYLE
  5
3
100
AcDbSymbolTable
 70
     1
  0
STYLE
  5
17
100
AcDbSymbolTableRecord
100
AcDbTextStyleTableRecord
  2
Standard
 70
     0
 40
0.0
 41
1.0
 50
0.0
 71
     0
 42
0.0
  3
ＭＳ Ｐゴシック
  4

1001
ACAD
1000
ＭＳ Ｐゴシック
1071
        0
  0
ENDTAB
  0
TABLE
  2
VIEW
  5
5
100
AcDbSymbolTable
 70
     0
  0
ENDTAB
  0
TABLE
  2
UCS
  5
6
100
AcDbSymbolTable
 70
     0
  0
ENDTAB
  0
TABLE
  2
APPID
  5
8
100
AcDbSymbolTable
 70
     2
  0
APPID
  5
16
100
AcDbSymbolTableRecord
100
AcDbRegAppTableRecord
  2
ACAD
 70
     0
  0
APPID
  5
26
100
AcDbSymbolTableRecord
100
AcDbRegAppTableRecord
  2
TOPsolid_Draft
 70
     0
  0
ENDTAB
  0
TABLE
  2
DIMSTYLE
  5
9
100
AcDbSymbolTable
 70
     1
100
AcDbDimStyleTable
 71
     0
  0
DIMSTYLE
105
18
100
AcDbSymbolTableRecord
100
AcDbDimStyleTableRecord
  2
Standard
 70
     0
  3

  4

 40
1.0
 41
1.8
 42
1.8
 43
0.38
 44
1.8
 45
0.0
 46
0.0
 47
0.0
 48
0.0
 71
     0
 72
     0
 73
     0
 74
     0
 75
     0
 76
     0
 77
     1
 78
     0
 79
     0
140
6.0
141
0.09
142
0.0
143
25.4
144
1.0
145
0.0
146
0.7
147
1.2
148
0.0
170
     0
171
     2
172
     0
173
     0
174
     0
175
     0
176
     7
177
     7
178
     7
179
     0
271
     7
272
     4
273
     2
274
     2
275
     0
276
     0
277
     2
278
    46
279
     0
280
     0
281
     0
282
     0
283
     1
284
     0
285
     0
286
     0
288
     0
289
     3
340
17
341
0
342
0
343
0
344
0
371
    -2
372
    -2
  0
ENDTAB
  0
TABLE
  2
BLOCK_RECORD
  5
1
100
AcDbSymbolTable
 70
     9
  0
BLOCK_RECORD
  5
A
100
AcDbSymbolTableRecord
100
AcDbBlockTableRecord
  2
*MODEL_SPACE
340
20
  0
BLOCK_RECORD
  5
B
100
AcDbSymbolTableRecord
100
AcDbBlockTableRecord
  2
*PAPER_SPACE
340
21
  0
BLOCK_RECORD
  5
B7
100
AcDbSymbolTableRecord
100
AcDbBlockTableRecord
  2
AID287
340
0
102
{BLKREFS
331
BB
102
}
  0
BLOCK_RECORD
  5
5D4
100
AcDbSymbolTableRecord
100
AcDbBlockTableRecord
  2
AID2179
340
0
102
{BLKREFS
331
5E5
102
}
  0
BLOCK_RECORD
  5
5E6
100
AcDbSymbolTableRecord
100
AcDbBlockTableRecord
  2
AID2187
340
0
102
{BLKREFS
331
5F7
102
}
  0
BLOCK_RECORD
  5
5F8
100
AcDbSymbolTableRecord
100
AcDbBlockTableRecord
  2
AID2195
340
0
102
{BLKREFS
331
609
102
}
  0
BLOCK_RECORD
  5
60A
100
AcDbSymbolTableRecord
100
AcDbBlockTableRecord
  2
AID2203
340
0
102
{BLKREFS
331
61B
102
}
  0
BLOCK_RECORD
  5
61C
100
AcDbSymbolTableRecord
100
AcDbBlockTableRecord
  2
AID2211
340
0
102
{BLKREFS
331
62D
102
}
  0
BLOCK_RECORD
  5
63B
100
AcDbSymbolTableRecord
100
AcDbBlockTableRecord
  2
AID2243
340
0
102
{BLKREFS
331
63F
102
}
  0
BLOCK_RECORD
  5
640
100
AcDbSymbolTableRecord
100
AcDbBlockTableRecord
  2
AID2247
340
0
102
{BLKREFS
331
644
102
}
  0
BLOCK_RECORD
  5
645
100
AcDbSymbolTableRecord
100
AcDbBlockTableRecord
  2
AID2251
340
0
102
{BLKREFS
331
649
102
}
  0
ENDTAB
  0
ENDSEC
  0
SECTION
  2
BLOCKS
  0
BLOCK
  5
D
100
AcDbEntity
  8
0
390
0
100
AcDbBlockBegin
  2
*MODEL_SPACE
 70
     0
 10
0.0
 20
0.0
 30
0.0
  3
*MODEL_SPACE
  1

  0
ENDBLK
  5
E
100
AcDbEntity
  8
0
390
0
100
AcDbBlockEnd
  0
BLOCK
  5
F
100
AcDbEntity
 67
     1
  8
0
390
0
100
AcDbBlockBegin
  2
*PAPER_SPACE
 70
     0
 10
0.0
 20
0.0
 30
0.0
  3
*PAPER_SPACE
  1

  0
ENDBLK
  5
10
100
AcDbEntity
 67
     1
  8
0
390
0
100
AcDbBlockEnd
  0
BLOCK
  5
B8
100
AcDbEntity
  8
0
390
0
100
AcDbBlockBegin
  2
AID287
 70
     0
 10
0.0
 20
0.0
 30
0.0
  3
DNote#note referencing elements
  1

  0
MTEXT
  5
B9
100
AcDbEntity
  8
256
390
0
 62
     2
100
AcDbMText
 10
406.171318
 20
6.951938
 30
0.0
 40
3.0
 41
7.472727
 71
     7
 72
     1
  1
A3
210
0.0
220
0.0
230
1.0
 73
     1
 44
1.0
  0
ENDBLK
  5
BA
100
AcDbEntity
  8
0
390
0
100
AcDbBlockEnd
  0
BLOCK
  5
5D5
100
AcDbEntity
  8
0
390
0
100
AcDbBlockBegin
  2
AID2179
 70
     0
 10
0.0
 20
0.0
 30
0.0
  3
DIMENS
  1

  0
MTEXT
  5
5D6
100
AcDbEntity
  8
1
390
0
 62
     2
100
AcDbMText
 10
49.108712
 20
105.050273
 30
0.0
 40
6.0
 41
13.472727
 71
     7
 72
     1
  1
2.1
210
0.0
220
0.0
230
1.0
 11
0.0
 21
1.0
 31
0.0
 73
     1
 44
1.0
  0
LINE
  5
5D7
100
AcDbEntity
  8
1
390
0
  6
Continuous
 62
    11
100
AcDbLine
 10
50.226893
 20
129.541182
 30
0.0
 11
50.226893
 21
104.804819
 31
0.0
  0
LINE
  5
5D8
100
AcDbEntity
  8
1
390
0
  6
Continuous
 62
    11
100
AcDbLine
 10
66.65405
 20
120.541182
 30
0.0
 11
48.426893
 21
120.541182
 31
0.0
  0
LINE
  5
5D9
100
AcDbEntity
  8
1
390
0
  6
Continuous
 62
    11
100
AcDbLine
 10
77.80405
 20
118.441182
 30
0.0
 11
48.426893
 21
118.441182
 31
0.0
  0
POLYLINE
  5
5DA
100
AcDbEntity
  8
1
390
0
  6
Continuous
 62
    11
100
AcDb2dPolyline
 66
     1
 10
0.0
 20
0.0
 30
0.0
 40
1.0
 41
1.0
  0
VERTEX
  5
5DB
100
AcDbEntity
  8
1
390
0
 62
    11
100
AcDbVertex
100
AcDb2dVertex
 10
49.326893
 20
125.041182
 30
0.0
  0
VERTEX
  5
5DC
100
AcDbEntity
  8
1
390
0
 62
    11
100
AcDbVertex
100
AcDb2dVertex
 10
50.226893
 20
120.541182
 30
0.0
  0
VERTEX
  5
5DD
100
AcDbEntity
  8
1
390
0
 62
    11
100
AcDbVertex
100
AcDb2dVertex
 10
51.126893
 20
125.041182
 30
0.0
  0
SEQEND
  5
5DE
100
AcDbEntity
  8
0
390
0
  0
POLYLINE
  5
5DF
100
AcDbEntity
  8
1
390
0
  6
Continuous
 62
    11
100
AcDb2dPolyline
 66
     1
 10
0.0
 20
0.0
 30
0.0
 40
1.0
 41
1.0
  0
VERTEX
  5
5E0
100
AcDbEntity
  8
1
390
0
 62
    11
100
AcDbVertex
100
AcDb2dVertex
 10
51.126893
 20
113.941182
 30
0.0
  0
VERTEX
  5
5E1
100
AcDbEntity
  8
1
390
0
 62
    11
100
AcDbVertex
100
AcDb2dVertex
 10
50.226893
 20
118.441182
 30
0.0
  0
VERTEX
  5
5E2
100
AcDbEntity
  8
1
390
0
 62
    11
100
AcDbVertex
100
AcDb2dVertex
 10
49.326893
 20
113.941182
 30
0.0
  0
SEQEND
  5
5E3
100
AcDbEntity
  8
0
390
0
  0
ENDBLK
  5
5E4
100
AcDbEntity
  8
0
390
0
100
AcDbBlockEnd
  0
BLOCK
  5
5E7
100
AcDbEntity
  8
0
390
0
100
AcDbBlockBegin
  2
AID2187
 70
     0
 10
0.0
 20
0.0
 30
0.0
  3
DIMENS
  1

  0
MTEXT
  5
5E8
100
AcDbEntity
  8
1
390
0
 62
     2
100
AcDbMText
 10
192.268709
 20
168.127546
 30
0.0
 40
6.0
 41
18.709091
 71
     7
 72
     1
  1
106
210
0.0
220
0.0
230
1.0
 11
0.0
 21
1.0
 31
0.0
 73
     1
 44
1.0
  0
LINE
  5
5E9
100
AcDbEntity
  8
1
390
0
  6
Continuous
 62
    11
100
AcDbLine
 10
193.441437
 20
120.541182
 30
0.0
 11
193.441437
 21
226.541182
 31
0.0
  0
LINE
  5
5EA
100
AcDbEntity
  8
1
390
0
  6
Continuous
 62
    11
100
AcDbLine
 10
171.25405
 20
120.541182
 30
0.0
 11
195.241437
 21
120.541182
 31
0.0
  0
LINE
  5
5EB
100
AcDbEntity
  8
1
390
0
  6
Continuous
 62
    11
100
AcDbLine
 10
171.25405
 20
226.541182
 30
0.0
 11
195.241437
 21
226.541182
 31
0.0
  0
POLYLINE
  5
5EC
100
AcDbEntity
  8
1
390
0
  6
Continuous
 62
    11
100
AcDb2dPolyline
 66
     1
 10
0.0
 20
0.0
 30
0.0
 40
1.0
 41
1.0
  0
VERTEX
  5
5ED
100
AcDbEntity
  8
1
390
0
 62
    11
100
AcDbVertex
100
AcDb2dVertex
 10
194.341437
 20
125.041182
 30
0.0
  0
VERTEX
  5
5EE
100
AcDbEntity
  8
1
390
0
 62
    11
100
AcDbVertex
100
AcDb2dVertex
 10
193.441437
 20
120.541182
 30
0.0
  0
VERTEX
  5
5EF
100
AcDbEntity
  8
1
390
0
 62
    11
100
AcDbVertex
100
AcDb2dVertex
 10
192.541437
 20
125.041182
 30
0.0
  0
SEQEND
  5
5F0
100
AcDbEntity
  8
0
390
0
  0
POLYLINE
  5
5F1
100
AcDbEntity
  8
1
390
0
  6
Continuous
 62
    11
100
AcDb2dPolyline
 66
     1
 10
0.0
 20
0.0
 30
0.0
 40
1.0
 41
1.0
  0
VERTEX
  5
5F2
100
AcDbEntity
  8
1
390
0
 62
    11
100
AcDbVertex
100
AcDb2dVertex
 10
192.541437
 20
222.041182
 30
0.0
  0
VERTEX
  5
5F3
100
AcDbEntity
  8
1
390
0
 62
    11
100
AcDbVertex
100
AcDb2dVertex
 10
193.441437
 20
226.541182
 30
0.0
  0
VERTEX
  5
5F4
100
AcDbEntity
  8
1
390
0
 62
    11
100
AcDbVertex
100
AcDb2dVertex
 10
194.341437
 20
222.041182
 30
0.0
  0
SEQEND
  5
5F5
100
AcDbEntity
  8
0
390
0
  0
ENDBLK
  5
5F6
100
AcDbEntity
  8
0
390
0
100
AcDbBlockEnd
  0
BLOCK
  5
5F9
100
AcDbEntity
  8
0
390
0
100
AcDbBlockBegin
  2
AID2195
 70
     0
 10
0.0
 20
0.0
 30
0.0
  3
DIMENS
  1

  0
MTEXT
  5
5FA
100
AcDbEntity
  8
1
390
0
 62
     2
100
AcDbMText
 10
192.268709
 20
61.8105
 30
0.0
 40
6.0
 41
12.763636
 71
     7
 72
     1
  1
30
210
0.0
220
0.0
230
1.0
 11
0.0
 21
1.0
 31
0.0
 73
     1
 44
1.0
  0
LINE
  5
5FB
100
AcDbEntity
  8
1
390
0
  6
Continuous
 62
    11
100
AcDbLine
 10
193.441437
 20
80.355954
 30
0.0
 11
193.441437
 21
50.355954
 31
0.0
  0
LINE
  5
5FC
100
AcDbEntity
  8
1
390
0
  6
Continuous
 62
    11
100
AcDbLine
 10
171.25405
 20
80.355954
 30
0.0
 11
195.241437
 21
80.355954
 31
0.0
  0
LINE
  5
5FD
100
AcDbEntity
  8
1
390
0
  6
Continuous
 62
    11
100
AcDbLine
 10
171.25405
 20
50.355954
 30
0.0
 11
195.241437
 21
50.355954
 31
0.0
  0
POLYLINE
  5
5FE
100
AcDbEntity
  8
1
390
0
  6
Continuous
 62
    11
100
AcDb2dPolyline
 66
     1
 10
0.0
 20
0.0
 30
0.0
 40
1.0
 41
1.0
  0
VERTEX
  5
5FF
100
AcDbEntity
  8
1
390
0
 62
    11
100
AcDbVertex
100
AcDb2dVertex
 10
192.541437
 20
75.855954
 30
0.0
  0
VERTEX
  5
600
100
AcDbEntity
  8
1
390
0
 62
    11
100
AcDbVertex
100
AcDb2dVertex
 10
193.441437
 20
80.355954
 30
0.0
  0
VERTEX
  5
601
100
AcDbEntity
  8
1
390
0
 62
    11
100
AcDbVertex
100
AcDb2dVertex
 10
194.341437
 20
75.855954
 30
0.0
  0
SEQEND
  5
602
100
AcDbEntity
  8
0
390
0
  0
POLYLINE
  5
603
100
AcDbEntity
  8
1
390
0
  6
Continuous
 62
    11
100
AcDb2dPolyline
 66
     1
 10
0.0
 20
0.0
 30
0.0
 40
1.0
 41
1.0
  0
VERTEX
  5
604
100
AcDbEntity
  8
1
390
0
 62
    11
100
AcDbVertex
100
AcDb2dVertex
 10
194.341437
 20
54.855954
 30
0.0
  0
VERTEX
  5
605
100
AcDbEntity
  8
1
390
0
 62
    11
100
AcDbVertex
100
AcDb2dVertex
 10
193.441437
 20
50.355954
 30
0.0
  0
VERTEX
  5
606
100
AcDbEntity
  8
1
390
0
 62
    11
100
AcDbVertex
100
AcDb2dVertex
 10
192.541437
 20
54.855954
 30
0.0
  0
SEQEND
  5
607
100
AcDbEntity
  8
0
390
0
  0
ENDBLK
  5
608
100
AcDbEntity
  8
0
390
0
100
AcDbBlockEnd
  0
BLOCK
  5
60B
100
AcDbEntity
  8
0
390
0
100
AcDbBlockBegin
  2
AID2203
 70
     0
 10
0.0
 20
0.0
 30
0.0
  3
DIMENS
  1

  0
MTEXT
  5
60C
100
AcDbEntity
  8
1
390
0
 62
     2
100
AcDbMText
 10
113.526778
 20
36.238289
 30
0.0
 40
6.0
 41
18.763636
 71
     7
 72
     1
  1
103
210
0.0
220
0.0
230
0.9999999999999999
 11
1.0
 21
0.0
 31
0.0
 73
     1
 44
1.0
  0
LINE
  5
60D
100
AcDbEntity
  8
1
390
0
  6
Continuous
 62
    11
100
AcDbLine
 10
170.45405
 20
35.065562
 30
0.0
 11
67.45405
 21
35.065562
 31
0.0
  0
LINE
  5
60E
100
AcDbEntity
  8
1
390
0
  6
Continuous
 62
    11
100
AcDbLine
 10
170.45405
 20
49.555954
 30
0.0
 11
170.45405
 21
33.265562
 31
0.0
  0
LINE
  5
60F
100
AcDbEntity
  8
1
390
0
  6
Continuous
 62
    11
100
AcDbLine
 10
67.45405
 20
49.555954
 30
0.0
 11
67.45405
 21
33.265562
 31
0.0
  0
POLYLINE
  5
610
100
AcDbEntity
  8
1
390
0
  6
Continuous
 62
    11
100
AcDb2dPolyline
 66
     1
 10
0.0
 20
0.0
 30
0.0
 40
1.0
 41
1.0
  0
VERTEX
  5
611
100
AcDbEntity
  8
1
390
0
 62
    11
100
AcDbVertex
100
AcDb2dVertex
 10
165.95405
 20
35.965562
 30
0.0
  0
VERTEX
  5
612
100
AcDbEntity
  8
1
390
0
 62
    11
100
AcDbVertex
100
AcDb2dVertex
 10
170.45405
 20
35.065562
 30
0.0
  0
VERTEX
  5
613
100
AcDbEntity
  8
1
390
0
 62
    11
100
AcDbVertex
100
AcDb2dVertex
 10
165.95405
 20
34.165562
 30
0.0
  0
SEQEND
  5
614
100
AcDbEntity
  8
0
390
0
  0
POLYLINE
  5
615
100
AcDbEntity
  8
1
390
0
  6
Continuous
 62
    11
100
AcDb2dPolyline
 66
     1
 10
0.0
 20
0.0
 30
0.0
 40
1.0
 41
1.0
  0
VERTEX
  5
616
100
AcDbEntity
  8
1
390
0
 62
    11
100
AcDbVertex
100
AcDb2dVertex
 10
71.95405
 20
34.165562
 30
0.0
  0
VERTEX
  5
617
100
AcDbEntity
  8
1
390
0
 62
    11
100
AcDbVertex
100
AcDb2dVertex
 10
67.45405
 20
35.065562
 30
0.0
  0
VERTEX
  5
618
100
AcDbEntity
  8
1
390
0
 62
    11
100
AcDbVertex
100
AcDb2dVertex
 10
71.95405
 20
35.965562
 30
0.0
  0
SEQEND
  5
619
100
AcDbEntity
  8
0
390
0
  0
ENDBLK
  5
61A
100
AcDbEntity
  8
0
390
0
100
AcDbBlockEnd
  0
BLOCK
  5
61D
100
AcDbEntity
  8
0
390
0
100
AcDbBlockBegin
  2
AID2211
 70
     0
 10
0.0
 20
0.0
 30
0.0
  3
DIMENS
  1

  0
MTEXT
  5
61E
100
AcDbEntity
  8
1
390
0
 62
     2
100
AcDbMText
 10
108.260953
 20
23.375807
 30
0.0
 40
6.0
 41
28.527273
 71
     7
 72
     1
  1
108.6
210
0.0
220
0.0
230
1.0
 73
     1
 44
1.0
  0
LINE
  5
61F
100
AcDbEntity
  8
1
390
0
  6
Continuous
 62
    11
100
AcDbLine
 10
170.45405
 20
22.203079
 30
0.0
 11
61.804219
 21
22.203079
 31
0.0
  0
LINE
  5
620
100
AcDbEntity
  8
1
390
0
  6
Continuous
 62
    11
100
AcDbLine
 10
170.45405
 20
49.555954
 30
0.0
 11
170.45405
 21
20.403079
 31
0.0
  0
LINE
  5
621
100
AcDbEntity
  8
1
390
0
  6
Continuous
 62
    11
100
AcDbLine
 10
61.804219
 20
57.555954
 30
0.0
 11
61.804219
 21
20.403079
 31
0.0
  0
POLYLINE
  5
622
100
AcDbEntity
  8
1
390
0
  6
Continuous
 62
    11
100
AcDb2dPolyline
 66
     1
 10
0.0
 20
0.0
 30
0.0
 40
1.0
 41
1.0
  0
VERTEX
  5
623
100
AcDbEntity
  8
1
390
0
 62
    11
100
AcDbVertex
100
AcDb2dVertex
 10
165.95405
 20
23.103079
 30
0.0
  0
VERTEX
  5
624
100
AcDbEntity
  8
1
390
0
 62
    11
100
AcDbVertex
100
AcDb2dVertex
 10
170.45405
 20
22.203079
 30
0.0
  0
VERTEX
  5
625
100
AcDbEntity
  8
1
390
0
 62
    11
100
AcDbVertex
100
AcDb2dVertex
 10
165.95405
 20
21.303079
 30
0.0
  0
SEQEND
  5
626
100
AcDbEntity
  8
0
390
0
  0
POLYLINE
  5
627
100
AcDbEntity
  8
1
390
0
  6
Continuous
 62
    11
100
AcDb2dPolyline
 66
     1
 10
0.0
 20
0.0
 30
0.0
 40
1.0
 41
1.0
  0
VERTEX
  5
628
100
AcDbEntity
  8
1
390
0
 62
    11
100
AcDbVertex
100
AcDb2dVertex
 10
66.304219
 20
21.303079
 30
0.0
  0
VERTEX
  5
629
100
AcDbEntity
  8
1
390
0
 62
    11
100
AcDbVertex
100
AcDb2dVertex
 10
61.804219
 20
22.203079
 30
0.0
  0
VERTEX
  5
62A
100
AcDbEntity
  8
1
390
0
 62
    11
100
AcDbVertex
100
AcDb2dVertex
 10
66.304219
 20
23.103079
 30
0.0
  0
SEQEND
  5
62B
100
AcDbEntity
  8
0
390
0
  0
ENDBLK
  5
62C
100
AcDbEntity
  8
0
390
0
100
AcDbBlockEnd
  0
BLOCK
  5
63C
100
AcDbEntity
  8
0
390
0
100
AcDbBlockBegin
  2
AID2243
 70
     0
 10
0.0
 20
0.0
 30
0.0
  3
DNote#note referencing elements
  1

  0
MTEXT
  5
63D
100
AcDbEntity
  8
1
390
0
 62
     2
100
AcDbMText
 10
361.790395
 20
39.501813
 30
0.0
 40
4.0
 41
68.872727
 71
     7
 72
     1
  1
型開き中継アンプ
210
0.0
220
0.0
230
1.0
 73
     1
 44
1.0
  0
ENDBLK
  5
63E
100
AcDbEntity
  8
0
390
0
100
AcDbBlockEnd
  0
BLOCK
  5
641
100
AcDbEntity
  8
0
390
0
100
AcDbBlockBegin
  2
AID2247
 70
     0
 10
0.0
 20
0.0
 30
0.0
  3
DNote#note referencing elements
  1

  0
MTEXT
  5
642
100
AcDbEntity
  8
1
390
0
 62
     2
100
AcDbMText
 10
370.237429
 20
29.240392
 30
0.0
 40
4.0
 41
36.909091
 71
     7
 72
     1
  1
MPD200F
210
0.0
220
0.0
230
1.0
 73
     1
 44
1.0
  0
ENDBLK
  5
643
100
AcDbEntity
  8
0
390
0
100
AcDbBlockEnd
  0
BLOCK
  5
646
100
AcDbEntity
  8
0
390
0
100
AcDbBlockBegin
  2
AID2251
 70
     0
 10
0.0
 20
0.0
 30
0.0
  3
DNote#note referencing elements
  1

  0
MTEXT
  5
647
100
AcDbEntity
  8
1
390
0
 62
     2
100
AcDbMText
 10
324.36518
 20
32.283771
 30
0.0
 40
4.0
 41
11.236364
 71
     7
 72
     1
  1
1：1
210
0.0
220
0.0
230
1.0
 73
     1
 44
1.0
  0
ENDBLK
  5
648
100
AcDbEntity
  8
0
390
0
100
AcDbBlockEnd
  0
ENDSEC
  0
SECTION
  2
ENTITIES
  0
LINE
  5
2C
100
AcDbEntity
  8
256
390
0
  6
Continuous
 62
     8
100
AcDbLine
 10
222.0
 20
34.5
 30
0.0
 11
271.0
 21
34.5
 31
0.0
  0
LINE
  5
2D
100
AcDbEntity
  8
256
390
0
  6
Continuous
 62
     8
100
AcDbLine
 10
390.25
 20
277.0
 30
0.0
 11
390.25
 21
287.0
 31
0.0
  0
LINE
  5
2E
100
AcDbEntity
  8
256
390
0
  6
Continuous
 62
     8
100
AcDbLine
 10
229.511017
 20
262.368011
 30
0.0
 11
234.511017
 21
262.368011
 31
0.0
  0
LINE
  5
2F
100
AcDbEntity
  8
256
390
0
  6
Continuous
 62
     8
100
AcDbLine
 10
222.0
 20
38.0
 30
0.0
 11
271.0
 21
38.0
 31
0.0
  0
LINE
  5
30
100
AcDbEntity
  8
256
390
0
  6
Continuous
 62
     8
100
AcDbLine
 10
237.0
 20
287.0
 30
0.0
 11
237.0
 21
257.0
 31
0.0
  0
LINE
  5
31
100
AcDbEntity
  8
256
390
0
  6
Continuous
 62
     8
100
AcDbLine
 10
303.8
 20
48.0
 30
0.0
 11
303.8
 21
10.0
 31
0.0
  0
LINE
  5
32
100
AcDbEntity
  8
256
390
0
  6
Continuous
 62
     8
100
AcDbLine
 10
385.25
 20
277.0
 30
0.0
 11
385.25
 21
287.0
 31
0.0
  0
LINE
  5
33
100
AcDbEntity
  8
256
390
0
  6
Continuous
 62
     8
100
AcDbLine
 10
287.4
 20
31.0
 30
0.0
 11
287.4
 21
10.0
 31
0.0
  0
LINE
  5
34
100
AcDbEntity
  8
256
390
0
  6
Continuous
 62
     8
100
AcDbLine
 10
253.750031
 20
44.0
 30
0.0
 11
253.750031
 21
10.0
 31
0.0
  0
LINE
  5
35
100
AcDbEntity
  8
256
390
0
  6
Continuous
 62
     8
100
AcDbLine
 10
410.0
 20
10.0
 30
0.0
 11
410.0
 21
287.0
 31
0.0
  0
LINE
  5
36
100
AcDbEntity
  8
256
390
0
  6
Continuous
 62
     8
100
AcDbLine
 10
335.25
 20
15.666667
 30
0.0
 11
335.25
 21
48.0
 31
0.0
  0
LINE
  5
37
100
AcDbEntity
  8
256
390
0
  6
Continuous
 62
     8
100
AcDbLine
 10
410.0
 20
287.0
 30
0.0
 11
10.0
 21
287.0
 31
0.0
  0
LINE
  5
38
100
AcDbEntity
  8
256
390
0
  6
Continuous
 62
     8
100
AcDbLine
 10
362.0
 20
287.0
 30
0.0
 11
362.0
 21
257.0
 31
0.0
  0
LINE
  5
39
100
AcDbEntity
  8
256
390
0
  6
Continuous
 62
     8
100
AcDbLine
 10
410.0
 20
267.0
 30
0.0
 11
227.0
 21
267.0
 31
0.0
  0
LINE
  5
3A
100
AcDbEntity
  8
256
390
0
  6
Continuous
 62
     8
100
AcDbLine
 10
410.0
 20
277.0
 30
0.0
 11
227.0
 21
277.0
 31
0.0
  0
LINE
  5
3B
100
AcDbEntity
  8
256
390
0
  6
Continuous
 62
     8
100
AcDbLine
 10
271.0
 20
41.0
 30
0.0
 11
335.25
 21
41.0
 31
0.0
  0
LINE
  5
3C
100
AcDbEntity
  8
256
390
0
  6
Continuous
 62
     8
100
AcDbLine
 10
222.0
 20
44.0
 30
0.0
 11
271.0
 21
44.0
 31
0.0
  0
LINE
  5
3D
100
AcDbEntity
  8
256
390
0
  6
Continuous
 62
     8
100
AcDbLine
 10
232.011017
 20
261.664886
 30
0.0
 11
229.511017
 21
257.368011
 31
0.0
  0
LINE
  5
3E
100
AcDbEntity
  8
256
390
0
  6
Continuous
 62
     8
100
AcDbLine
 10
248.000031
 20
38.0
 30
0.0
 11
222.0
 21
44.0
 31
0.0
  0
LINE
  5
3F
100
AcDbEntity
  8
256
390
0
  6
Continuous
 62
     8
100
AcDbLine
 10
357.0
 20
262.0
 30
0.0
 11
227.0
 21
262.0
 31
0.0
  0
LINE
  5
40
100
AcDbEntity
  8
256
390
0
  6
Continuous
 62
     8
100
AcDbLine
 10
222.0
 20
31.0
 30
0.0
 11
320.25
 21
31.0
 31
0.0
  0
LINE
  5
41
100
AcDbEntity
  8
256
390
0
  6
Continuous
 62
     8
100
AcDbLine
 10
234.511017
 20
267.368011
 30
0.0
 11
232.011017
 21
271.664886
 31
0.0
  0
LINE
  5
42
100
AcDbEntity
  8
256
390
0
  6
Continuous
 62
     8
100
AcDbLine
 10
385.25
 20
282.0
 30
0.0
 11
362.0
 21
282.0
 31
0.0
  0
LINE
  5
43
100
AcDbEntity
  8
256
390
0
  6
Continuous
 62
     8
100
AcDbLine
 10
10.0
 20
10.0
 30
0.0
 11
410.0
 21
10.0
 31
0.0
  0
LINE
  5
44
100
AcDbEntity
  8
256
390
0
  6
Continuous
 62
     8
100
AcDbLine
 10
222.0
 20
48.0
 30
0.0
 11
410.0
 21
48.0
 31
0.0
  0
LINE
  5
45
100
AcDbEntity
  8
256
390
0
  6
Continuous
 62
     8
100
AcDbLine
 10
227.000031
 20
10.0
 30
0.0
 11
410.0
 21
10.0
 31
0.0
  0
LINE
  5
46
100
AcDbEntity
  8
256
390
0
  6
Continuous
 62
     8
100
AcDbLine
 10
342.0
 20
287.0
 30
0.0
 11
342.0
 21
257.0
 31
0.0
  0
LINE
  5
47
100
AcDbEntity
  8
256
390
0
  6
Continuous
 62
     8
100
AcDbLine
 10
222.0
 20
13.5
 30
0.0
 11
271.000031
 21
13.5
 31
0.0
  0
LINE
  5
48
100
AcDbEntity
  8
256
390
0
  6
Continuous
 62
     8
100
AcDbLine
 10
222.0
 20
20.5
 30
0.0
 11
271.0
 21
20.5
 31
0.0
  0
LINE
  5
49
100
AcDbEntity
  8
256
390
0
  6
Continuous
 62
     8
100
AcDbLine
 10
222.0
 20
27.5
 30
0.0
 11
271.0
 21
27.5
 31
0.0
  0
LINE
  5
4A
100
AcDbEntity
  8
256
390
0
  6
Continuous
 62
     8
100
AcDbLine
 10
248.000031
 20
44.0
 30
0.0
 11
248.000031
 21
10.0
 31
0.0
  0
LINE
  5
4B
100
AcDbEntity
  8
256
390
0
  6
Continuous
 62
     8
100
AcDbLine
 10
222.0
 20
48.0
 30
0.0
 11
222.0
 21
10.0
 31
0.0
  0
LINE
  5
4C
100
AcDbEntity
  8
256
390
0
  6
Continuous
 62
     8
100
AcDbLine
 10
232.011017
 20
276.664886
 30
0.0
 11
229.511017
 21
272.368011
 31
0.0
  0
LINE
  5
4D
100
AcDbEntity
  8
256
390
0
  6
Continuous
 62
     8
100
AcDbLine
 10
357.0
 20
282.0
 30
0.0
 11
227.0
 21
282.0
 31
0.0
  0
LINE
  5
4E
100
AcDbEntity
  8
256
390
0
  6
Continuous
 62
     8
100
AcDbLine
 10
229.511017
 20
267.368011
 30
0.0
 11
234.511017
 21
267.368011
 31
0.0
  0
LINE
  5
4F
100
AcDbEntity
  8
256
390
0
  6
Continuous
 62
     8
100
AcDbLine
 10
222.0
 20
24.0
 30
0.0
 11
271.0
 21
24.0
 31
0.0
  0
LINE
  5
50
100
AcDbEntity
  8
256
390
0
  6
Continuous
 62
     8
100
AcDbLine
 10
232.011017
 20
281.664886
 30
0.0
 11
229.511017
 21
277.368011
 31
0.0
  0
LINE
  5
51
100
AcDbEntity
  8
256
390
0
  6
Continuous
 62
     8
100
AcDbLine
 10
265.250031
 20
44.0
 30
0.0
 11
265.250031
 21
10.0
 31
0.0
  0
LINE
  5
52
100
AcDbEntity
  8
256
390
0
  6
Continuous
 62
     8
100
AcDbLine
 10
229.511017
 20
277.368011
 30
0.0
 11
234.511017
 21
277.368011
 31
0.0
  0
LINE
  5
53
100
AcDbEntity
  8
256
390
0
  6
Continuous
 62
     8
100
AcDbLine
 10
320.25
 20
10.0
 30
0.0
 11
320.25
 21
48.0
 31
0.0
  0
LINE
  5
54
100
AcDbEntity
  8
256
390
0
  6
Continuous
 62
     8
100
AcDbLine
 10
232.011017
 20
271.664886
 30
0.0
 11
229.511017
 21
267.368011
 31
0.0
  0
LINE
  5
55
100
AcDbEntity
  8
256
390
0
  6
Continuous
 62
     8
100
AcDbLine
 10
234.511017
 20
277.368011
 30
0.0
 11
232.011017
 21
281.664886
 31
0.0
  0
LINE
  5
56
100
AcDbEntity
  8
256
390
0
  6
Continuous
 62
     8
100
AcDbLine
 10
222.0
 20
17.0
 30
0.0
 11
271.0
 21
17.0
 31
0.0
  0
LINE
  5
57
100
AcDbEntity
  8
256
390
0
  6
Continuous
 62
     8
100
AcDbLine
 10
271.0
 20
48.0
 30
0.0
 11
271.0
 21
10.0
 31
0.0
  0
LINE
  5
58
100
AcDbEntity
  8
256
390
0
  6
Continuous
 62
     8
100
AcDbLine
 10
357.0
 20
287.0
 30
0.0
 11
357.0
 21
257.0
 31
0.0
  0
LINE
  5
59
100
AcDbEntity
  8
256
390
0
  6
Continuous
 62
     8
100
AcDbLine
 10
335.25
 20
35.0
 30
0.0
 11
410.0
 21
35.0
 31
0.0
  0
LINE
  5
5A
100
AcDbEntity
  8
256
390
0
  6
Continuous
 62
     8
100
AcDbLine
 10
227.0
 20
287.0
 30
0.0
 11
227.0
 21
257.0
 31
0.0
  0
LINE
  5
5B
100
AcDbEntity
  8
256
390
0
  6
Continuous
 62
     8
100
AcDbLine
 10
327.0
 20
287.0
 30
0.0
 11
327.0
 21
257.0
 31
0.0
  0
LINE
  5
5C
100
AcDbEntity
  8
256
390
0
  6
Continuous
 62
     8
100
AcDbLine
 10
229.511017
 20
272.368011
 30
0.0
 11
234.511017
 21
272.368011
 31
0.0
  0
LINE
  5
5D
100
AcDbEntity
  8
256
390
0
  6
Continuous
 62
     8
100
AcDbLine
 10
259.500031
 20
44.0
 30
0.0
 11
259.500031
 21
10.0
 31
0.0
  0
LINE
  5
5E
100
AcDbEntity
  8
256
390
0
  6
Continuous
 62
     8
100
AcDbLine
 10
320.25
 20
15.666667
 30
0.0
 11
410.0
 21
15.666667
 31
0.0
  0
LINE
  5
5F
100
AcDbEntity
  8
256
390
0
  6
Continuous
 62
     8
100
AcDbLine
 10
229.511017
 20
257.368011
 30
0.0
 11
234.511017
 21
257.368011
 31
0.0
  0
LINE
  5
60
100
AcDbEntity
  8
256
390
0
  6
Continuous
 62
     8
100
AcDbLine
 10
232.011017
 20
266.664886
 30
0.0
 11
229.511017
 21
262.368011
 31
0.0
  0
LINE
  5
61
100
AcDbEntity
  8
256
390
0
  6
Continuous
 62
     8
100
AcDbLine
 10
410.0
 20
257.0
 30
0.0
 11
227.0
 21
257.0
 31
0.0
  0
LINE
  5
62
100
AcDbEntity
  8
256
390
0
  6
Continuous
 62
     8
100
AcDbLine
 10
234.511017
 20
257.368011
 30
0.0
 11
232.011017
 21
261.664886
 31
0.0
  0
LINE
  5
63
100
AcDbEntity
  8
256
390
0
  6
Continuous
 62
     8
100
AcDbLine
 10
271.0
 20
26.5
 30
0.0
 11
410.0
 21
26.5
 31
0.0
  0
LINE
  5
64
100
AcDbEntity
  8
256
390
0
  6
Continuous
 62
     8
100
AcDbLine
 10
10.0
 20
10.0
 30
0.0
 11
10.0
 21
287.0
 31
0.0
  0
LINE
  5
65
100
AcDbEntity
  8
256
390
0
  6
Continuous
 62
     8
100
AcDbLine
 10
234.511017
 20
262.368011
 30
0.0
 11
232.011017
 21
266.664886
 31
0.0
  0
LINE
  5
66
100
AcDbEntity
  8
256
390
0
  6
Continuous
 62
     8
100
AcDbLine
 10
350.25
 20
15.666667
 30
0.0
 11
350.25
 21
48.0
 31
0.0
  0
LINE
  5
67
100
AcDbEntity
  8
256
390
0
  6
Continuous
 62
     8
100
AcDbLine
 10
307.164695
 20
32.573373
 30
0.0
 11
314.235801
 21
39.644442
 31
0.0
  0
LINE
  5
68
100
AcDbEntity
  8
256
390
0
  6
Continuous
 62
     8
100
AcDbLine
 10
357.0
 20
272.0
 30
0.0
 11
227.0
 21
272.0
 31
0.0
  0
LINE
  5
69
100
AcDbEntity
  8
256
390
0
  6
Continuous
 62
     8
100
AcDbLine
 10
234.511017
 20
272.368011
 30
0.0
 11
232.011017
 21
276.664886
 31
0.0
  0
MTEXT
  5
6A
100
AcDbEntity
  8
256
390
0
 62
     8
100
AcDbMText
 10
262.375031
 20
28.244792
 30
0.0
 40
1.75
 41
4.55
 71
     8
 72
     1
  1
0.5  
210
0.0
220
0.0
230
1.0
 73
     1
 44
1.0
  0
MTEXT
  5
6B
100
AcDbEntity
  8
256
390
0
 62
     8
100
AcDbMText
 10
250.875031
 20
21.244792
 30
0.0
 40
1.75
 41
4.55
 71
     8
 72
     1
  1
0.2  
210
0.0
220
0.0
230
1.0
 73
     1
 44
1.0
  0
MTEXT
  5
6C
100
AcDbEntity
  8
256
390
0
 62
     8
100
AcDbMText
 10
250.875031
 20
28.244792
 30
0.0
 40
1.75
 41
3.993182
 71
     8
 72
     1
  1
0.1  
210
0.0
220
0.0
230
1.0
 73
     1
 44
1.0
  0
MTEXT
  5
6D
100
AcDbEntity
  8
256
390
0
 62
     8
100
AcDbMText
 10
250.875031
 20
17.744792
 30
0.0
 40
1.75
 41
4.55
 71
     8
 72
     1
  1
0.3  
210
0.0
220
0.0
230
1.0
 73
     1
 44
1.0
  0
MTEXT
  5
6E
100
AcDbEntity
  8
256
390
0
 62
     8
100
AcDbMText
 10
287.02719
 20
42.856306
 30
0.0
 40
3.386667
 41
24.56873
 71
     8
 72
     1
  1
材    質  
210
0.0
220
0.0
230
1.0
 73
     1
 44
1.0
  0
MTEXT
  5
6F
100
AcDbEntity
  8
256
390
0
 62
     8
100
AcDbMText
 10
256.625031
 20
35.244792
 30
0.0
 40
1.75
 41
3.993182
 71
     8
 72
     1
  1
0.1  
210
0.0
220
0.0
230
1.0
 73
     1
 44
1.0
  0
MTEXT
  5
70
100
AcDbEntity
  8
256
390
0
 62
     8
100
AcDbMText
 10
268.125015
 20
14.244792
 30
0.0
 40
1.75
 41
1.590909
 71
     8
 72
     1
  1
6  
210
0.0
220
0.0
230
1.0
 73
     1
 44
1.0
  0
MTEXT
  5
71
100
AcDbEntity
  8
256
390
0
 62
     8
100
AcDbMText
 10
268.125015
 20
21.244792
 30
0.0
 40
1.75
 41
4.486364
 71
     8
 72
     1
  1
2.5  
210
0.0
220
0.0
230
1.0
 73
     1
 44
1.0
  0
MTEXT
  5
72
100
AcDbEntity
  8
256
390
0
 62
     8
100
AcDbMText
 10
312.52208
 20
42.980576
 30
0.0
 40
3.386667
 41
17.518305
 71
     8
 72
     1
  1
個 数  
210
0.0
220
0.0
230
1.0
 73
     1
 44
1.0
  0
MTEXT
  5
73
100
AcDbEntity
  8
256
390
0
 62
     8
100
AcDbMText
 10
360.130196
 20
257.742347
 30
0.0
 40
2.822222
 41
5.926666
 71
     8
 72
     1
  1
理  
210
0.0
220
0.0
230
1.0
 73
     1
 44
1.0
  0
MTEXT
  5
74
100
AcDbEntity
  8
256
390
0
 62
     8
100
AcDbMText
 10
257.063488
 20
41.133356
 30
0.0
 40
1.7952
 41
7.6704
 71
     8
 72
     1
  1
中級  
210
0.0
220
0.0
230
1.0
 73
     1
 44
1.0
  0
MTEXT
  5
75
100
AcDbEntity
  8
256
390
0
 62
     8
100
AcDbMText
 10
268.763424
 20
39.076539
 30
0.0
 40
2.0
 41
7.581818
 71
     8
 72
     1
  1
v %%p  
210
0.0
220
0.0
230
1.0
 73
     1
 44
1.0
  0
MTEXT
  5
76
100
AcDbEntity
  8
256
390
0
 62
     8
100
AcDbMText
 10
246.361108
 20
10.744792
 30
0.0
 40
1.75
 41
35.111364
 71
     9
 72
     1
  1
2000を超え4000以下  
210
0.0
220
0.0
230
1.0
 73
     1
 44
1.0
  0
MTEXT
  5
77
100
AcDbEntity
  8
256
390
0
 62
     8
100
AcDbMText
 10
315.229673
 20
32.880846
 30
0.0
 40
3.386667
 41
10.375516
 71
     8
 72
     1
  1
1台  
210
0.0
220
0.0
230
1.0
 73
     1
 44
1.0
  0
MTEXT
  5
78
100
AcDbEntity
  8
256
390
0
 62
     8
100
AcDbMText
 10
246.383663
 20
21.244792
 30
0.0
 40
1.75
 41
32.056818
 71
     9
 72
     1
  1
 120を超え 400以下  
210
0.0
220
0.0
230
1.0
 73
     1
 44
1.0
  0
MTEXT
  5
79
100
AcDbEntity
  8
256
390
0
 62
     8
100
AcDbMText
 10
388.380196
 20
278.047566
 30
0.0
 40
3.386667
 41
6.958061
 71
     8
 72
     1
  1
取  
210
0.0
220
0.0
230
1.0
 73
     1
 44
1.0
  0
MTEXT
  5
7A
100
AcDbEntity
  8
256
390
0
 62
     8
100
AcDbMText
 10
388.380196
 20
282.575181
 30
0.0
 40
3.386667
 41
6.68097
 71
     8
 72
     1
  1
面  
210
0.0
220
0.0
230
1.0
 73
     1
 44
1.0
  0
MTEXT
  5
7B
100
AcDbEntity
  8
256
390
0
 62
     8
100
AcDbMText
 10
230.223858
 20
38.623908
 30
0.0
 40
1.5
 41
24.272727
 71
     8
 72
     1
  1
寸法の区分(mm)  
210
0.0
220
0.0
230
1.0
 73
     1
 44
1.0
  0
MTEXT
  5
7C
100
AcDbEntity
  8
256
390
0
 62
     8
100
AcDbMText
 10
343.211504
 20
19.692223
 30
0.0
 40
3.386667
 41
16.902547
 71
     8
 72
     1
  1
図 番  
210
0.0
220
0.0
230
1.0
 73
     1
 44
1.0
  0
MTEXT
  5
7D
100
AcDbEntity
  8
256
390
0
 62
     8
100
AcDbMText
 10
262.375031
 20
31.744792
 30
0.0
 40
1.75
 41
4.55
 71
     8
 72
     1
  1
0.3  
210
0.0
220
0.0
230
1.0
 73
     1
 44
1.0
  0
MTEXT
  5
7E
100
AcDbEntity
  8
256
390
0
 62
     8
100
AcDbMText
 10
360.130196
 20
268.089407
 30
0.0
 40
3.386667
 41
7.112001
 71
     8
 72
     1
  1
理  
210
0.0
220
0.0
230
1.0
 73
     1
 44
1.0
  0
MTEXT
  5
7F
100
AcDbEntity
  8
256
390
0
 62
     8
100
AcDbMText
 10
246.369552
 20
14.244792
 30
0.0
 40
1.75
 41
34.888636
 71
     9
 72
     1
  1
1000を超え2000以下  
210
0.0
220
0.0
230
1.0
 73
     1
 44
1.0
  0
MTEXT
  5
80
100
AcDbEntity
  8
256
390
0
 62
     8
100
AcDbMText
 10
268.125015
 20
24.744792
 30
0.0
 40
1.75
 41
4.263636
 71
     8
 72
     1
  1
1.5  
210
0.0
220
0.0
230
1.0
 73
     1
 44
1.0
  0
MTEXT
  5
81
100
AcDbEntity
  8
256
390
0
 62
     8
100
AcDbMText
 10
262.375031
 20
35.244792
 30
0.0
 40
1.75
 41
4.55
 71
     8
 72
     1
  1
0.2  
210
0.0
220
0.0
230
1.0
 73
     1
 44
1.0
  0
MTEXT
  5
82
100
AcDbEntity
  8
256
390
0
 62
     8
100
AcDbMText
 10
351.983257
 20
283.013492
 30
0.0
 40
3.386667
 41
21.551517
 71
     8
 72
     1
  1
年月日     
210
0.0
220
0.0
230
1.0
 73
     1
 44
1.0
  0
MTEXT
  5
83
100
AcDbEntity
  8
256
390
0
 62
     8
100
AcDbMText
 10
250.875031
 20
31.744792
 30
0.0
 40
1.75
 41
6.586364
 71
     8
 72
     1
  1
0.05  
210
0.0
220
0.0
230
1.0
 73
     1
 44
1.0
  0
MTEXT
  5
84
100
AcDbEntity
  8
256
390
0
 62
     8
100
AcDbMText
 10
250.875031
 20
35.244792
 30
0.0
 40
1.75
 41
6.586364
 71
     8
 72
     1
  1
0.05  
210
0.0
220
0.0
230
1.0
 73
     1
 44
1.0
  0
MTEXT
  5
85
100
AcDbEntity
  8
256
390
0
 62
     8
100
AcDbMText
 10
262.375031
 20
10.744792
 30
0.0
 40
1.75
 41
1.765909
 71
     8
 72
     1
  1
4  
210
0.0
220
0.0
230
1.0
 73
     1
 44
1.0
  0
MTEXT
  5
86
100
AcDbEntity
  8
256
390
0
 62
     8
100
AcDbMText
 10
343.259623
 20
40.051182
 30
0.0
 40
3.386667
 41
17.210426
 71
     8
 72
     1
  1
名 称  
210
0.0
220
0.0
230
1.0
 73
     1
 44
1.0
  0
MTEXT
  5
87
100
AcDbEntity
  8
256
390
0
 62
     8
100
AcDbMText
 10
280.042689
 20
27.073014
 30
0.0
 40
3.386667
 41
17.241214
 71
     8
 72
     1
  1
設 計  
210
0.0
220
0.0
230
1.0
 73
     1
 44
1.0
  0
MTEXT
  5
88
100
AcDbEntity
  8
256
390
0
 62
     8
100
AcDbMText
 10
268.125015
 20
17.744792
 30
0.0
 40
1.75
 41
1.765909
 71
     8
 72
     1
  1
4  
210
0.0
220
0.0
230
1.0
 73
     1
 44
1.0
  0
MTEXT
  5
89
100
AcDbEntity
  8
256
390
0
 62
     8
100
AcDbMText
 10
256.625031
 20
28.244792
 30
0.0
 40
1.75
 41
4.55
 71
     8
 72
     1
  1
0.2  
210
0.0
220
0.0
230
1.0
 73
     1
 44
1.0
  0
MTEXT
  5
8A
100
AcDbEntity
  8
256
390
0
 62
     8
100
AcDbMText
 10
246.368174
 20
17.744792
 30
0.0
 40
1.75
 41
33.138636
 71
     9
 72
     1
  1
 400を超え1000以下  
210
0.0
220
0.0
230
1.0
 73
     1
 44
1.0
  0
MTEXT
  5
8B
100
AcDbEntity
  8
256
390
0
 62
     8
100
AcDbMText
 10
250.875031
 20
14.244792
 30
0.0
 40
1.75
 41
4.55
 71
     8
 72
     1
  1
0.5  
210
0.0
220
0.0
230
1.0
 73
     1
 44
1.0
  0
MTEXT
  5
8C
100
AcDbEntity
  8
256
390
0
 62
     8
100
AcDbMText
 10
257.26344
 20
39.076539
 30
0.0
 40
2.0
 41
8.563636
 71
     8
 72
     1
  1
m %%p  
210
0.0
220
0.0
230
1.0
 73
     1
 44
1.0
  0
MTEXT
  5
8D
100
AcDbEntity
  8
256
390
0
 62
     8
100
AcDbMText
 10
246.444454
 20
35.244792
 30
0.0
 40
1.75
 41
29.543182
 71
     9
 72
     1
  1
 0.5を超え   3以下  
210
0.0
220
0.0
230
1.0
 73
     1
 44
1.0
  0
MTEXT
  5
8E
100
AcDbEntity
  8
256
390
0
 62
     8
100
AcDbMText
 10
246.445896
 20
31.744792
 30
0.0
 40
1.75
 41
26.615909
 71
     9
 72
     1
  1
   3を超え   6以下  
210
0.0
220
0.0
230
1.0
 73
     1
 44
1.0
  0
MTEXT
  5
8F
100
AcDbEntity
  8
256
390
0
 62
     8
100
AcDbMText
 10
343.228244
 20
29.512776
 30
0.0
 40
2.54
 41
22.998545
 71
     8
 72
     1
  1
部品番号  
210
0.0
220
0.0
230
1.0
 73
     1
 44
1.0
  0
MTEXT
  5
90
100
AcDbEntity
  8
256
390
0
 62
     8
100
AcDbMText
 10
251.19527
 20
41.133356
 30
0.0
 40
1.7952
 41
8.04576
 71
     8
 72
     1
  1
精級  
210
0.0
220
0.0
230
1.0
 73
     1
 44
1.0
  0
MTEXT
  5
91
100
AcDbEntity
  8
256
390
0
 62
     8
100
AcDbMText
 10
246.399214
 20
24.744792
 30
0.0
 40
1.75
 41
30.243182
 71
     9
 72
     1
  1
  30を超え 120以下  
210
0.0
220
0.0
230
1.0
 73
     1
 44
1.0
  0
MTEXT
  5
92
100
AcDbEntity
  8
256
390
0
 62
     8
100
AcDbMText
 10
262.375031
 20
24.744792
 30
0.0
 40
1.75
 41
4.565909
 71
     8
 72
     1
  1
0.8  
210
0.0
220
0.0
230
1.0
 73
     1
 44
1.0
  0
MTEXT
  5
93
100
AcDbEntity
  8
256
390
0
 62
     8
100
AcDbMText
 10
242.4153
 20
40.925781
 30
0.0
 40
1.5
 41
13.636364
 71
     8
 72
     1
  1
公差等級  
210
0.0
220
0.0
230
1.0
 73
     1
 44
1.0
  0
MTEXT
  5
94
100
AcDbEntity
  8
256
390
0
 62
     8
100
AcDbMText
 10
246.430153
 20
28.244792
 30
0.0
 40
1.75
 41
27.395455
 71
     9
 72
     1
  1
   6を超え  30以下  
210
0.0
220
0.0
230
1.0
 73
     1
 44
1.0
  0
MTEXT
  5
95
100
AcDbEntity
  8
256
390
0
 62
     8
100
AcDbMText
 10
285.330511
 20
282.942152
 30
0.0
 40
3.386667
 41
59.482188
 71
     8
 72
     1
  1
訂    正    内    容  
210
0.0
220
0.0
230
1.0
 73
     1
 44
1.0
  0
MTEXT
  5
96
100
AcDbEntity
  8
256
390
0
 62
     8
100
AcDbMText
 10
256.625031
 20
24.744792
 30
0.0
 40
1.75
 41
4.55
 71
     8
 72
     1
  1
0.3  
210
0.0
220
0.0
230
1.0
 73
     1
 44
1.0
  0
MTEXT
  5
97
100
AcDbEntity
  8
256
390
0
 62
     8
100
AcDbMText
 10
262.375031
 20
17.744792
 30
0.0
 40
1.75
 41
1.622727
 71
     8
 72
     1
  1
2  
210
0.0
220
0.0
230
1.0
 73
     1
 44
1.0
  0
MTEXT
  5
98
100
AcDbEntity
  8
256
390
0
 62
     8
100
AcDbMText
 10
262.375031
 20
14.244792
 30
0.0
 40
1.75
 41
1.622727
 71
     8
 72
     1
  1
3  
210
0.0
220
0.0
230
1.0
 73
     1
 44
1.0
  0
MTEXT
  5
99
100
AcDbEntity
  8
256
390
0
 62
     8
100
AcDbMText
 10
328.687321
 20
19.668163
 30
0.0
 40
3.386667
 41
22.536729
 71
     8
 72
     1
  1
三角法  
210
0.0
220
0.0
230
1.0
 73
     1
 44
1.0
  0
MTEXT
  5
9A
100
AcDbEntity
  8
256
390
0
 62
     8
100
AcDbMText
 10
365.92539
 20
11.0735
 30
0.0
 40
3.386667
 41
99.506434
 71
     8
 72
     1
  1
双 葉 電 子 工 業 株 式 会 社  
210
0.0
220
0.0
230
1.0
 73
     1
 44
1.0
  0
MTEXT
  5
9B
100
AcDbEntity
  8
256
390
0
 62
     8
100
AcDbMText
 10
256.625031
 20
17.744792
 30
0.0
 40
1.75
 41
4.565909
 71
     8
 72
     1
  1
0.8  
210
0.0
220
0.0
230
1.0
 73
     1
 44
1.0
  0
MTEXT
  5
9C
100
AcDbEntity
  8
256
390
0
 62
     8
100
AcDbMText
 10
312.769883
 20
27.273035
 30
0.0
 40
3.386667
 41
17.518305
 71
     8
 72
     1
  1
承 認  
210
0.0
220
0.0
230
1.0
 73
     1
 44
1.0
  0
MTEXT
  5
9D
100
AcDbEntity
  8
256
390
0
 62
     8
100
AcDbMText
 10
268.125015
 20
28.244792
 30
0.0
 40
1.75
 41
0.843182
 71
     8
 72
     1
  1
1  
210
0.0
220
0.0
230
1.0
 73
     1
 44
1.0
  0
MTEXT
  5
9E
100
AcDbEntity
  8
256
390
0
 62
     8
100
AcDbMText
 10
247.07562
 20
45.235875
 30
0.0
 40
1.7
 41
74.846364
 71
     8
 72
     1
  1
削り加工寸法の普通許容差 JIS B 0405-1991  
210
0.0
220
0.0
230
1.0
 73
     1
 44
1.0
  0
MTEXT
  5
9F
100
AcDbEntity
  8
256
390
0
 62
     8
100
AcDbMText
 10
250.875031
 20
24.744792
 30
0.0
 40
1.75
 41
6.586364
 71
     8
 72
     1
  1
0.15  
210
0.0
220
0.0
230
1.0
 73
     1
 44
1.0
  0
MTEXT
  5
A0
100
AcDbEntity
  8
256
390
0
 62
     8
100
AcDbMText
 10
250.875031
 20
9.839584
 30
0.0
 40
2.54
 41
2.632364
 71
     8
 72
     1
  1
-  
210
0.0
220
0.0
230
1.0
 73
     1
 44
1.0
  0
MTEXT
  5
A1
100
AcDbEntity
  8
256
390
0
 62
     8
100
AcDbMText
 10
296.045235
 20
27.214792
 30
0.0
 40
3.386667
 41
17.025699
 71
     8
 72
     1
  1
検 図  
210
0.0
220
0.0
230
1.0
 73
     1
 44
1.0
  0
MTEXT
  5
A2
100
AcDbEntity
  8
256
390
0
 62
     8
100
AcDbMText
 10
268.125015
 20
34.339584
 30
0.0
 40
2.54
 41
2.632364
 71
     8
 72
     1
  1
-  
210
0.0
220
0.0
230
1.0
 73
     1
 44
1.0
  0
MTEXT
  5
A3
100
AcDbEntity
  8
256
390
0
 62
     8
100
AcDbMText
 10
256.625031
 20
31.744792
 30
0.0
 40
1.75
 41
3.993182
 71
     8
 72
     1
  1
0.1  
210
0.0
220
0.0
230
1.0
 73
     1
 44
1.0
  0
MTEXT
  5
A4
100
AcDbEntity
  8
256
390
0
 62
     8
100
AcDbMText
 10
263.01344
 20
39.076539
 30
0.0
 40
2.0
 41
7.527273
 71
     8
 72
     1
  1
c %%p  
210
0.0
220
0.0
230
1.0
 73
     1
 44
1.0
  0
MTEXT
  5
A5
100
AcDbEntity
  8
256
390
0
 62
     8
100
AcDbMText
 10
360.130196
 20
278.047566
 30
0.0
 40
3.386667
 41
6.68097
 71
     8
 72
     1
  1
上  
210
0.0
220
0.0
230
1.0
 73
     1
 44
1.0
  0
MTEXT
  5
A6
100
AcDbEntity
  8
256
390
0
 62
     8
100
AcDbMText
 10
232.748022
 20
282.92144
 30
0.0
 40
3.386667
 41
14.870547
 71
     8
 72
     1
  1
記号  
210
0.0
220
0.0
230
1.0
 73
     1
 44
1.0
  0
MTEXT
  5
A7
100
AcDbEntity
  8
256
390
0
 62
     8
100
AcDbMText
 10
256.625031
 20
21.244792
 30
0.0
 40
1.75
 41
4.55
 71
     8
 72
     1
  1
0.5  
210
0.0
220
0.0
230
1.0
 73
     1
 44
1.0
  0
MTEXT
  5
A8
100
AcDbEntity
  8
256
390
0
 62
     8
100
AcDbMText
 10
256.625031
 20
10.744792
 30
0.0
 40
1.75
 41
1.622727
 71
     8
 72
     1
  1
2  
210
0.0
220
0.0
230
1.0
 73
     1
 44
1.0
  0
MTEXT
  5
A9
100
AcDbEntity
  8
256
390
0
 62
     8
100
AcDbMText
 10
262.375031
 20
21.244792
 30
0.0
 40
1.75
 41
4.263636
 71
     8
 72
     1
  1
1.2  
210
0.0
220
0.0
230
1.0
 73
     1
 44
1.0
  0
MTEXT
  5
AA
100
AcDbEntity
  8
256
390
0
 62
     8
100
AcDbMText
 10
360.130196
 20
282.575181
 30
0.0
 40
3.386667
 41
7.050425
 71
     8
 72
     1
  1
仕  
210
0.0
220
0.0
230
1.0
 73
     1
 44
1.0
  0
MTEXT
  5
AB
100
AcDbEntity
  8
256
390
0
 62
     8
100
AcDbMText
 10
268.125015
 20
10.744792
 30
0.0
 40
1.75
 41
1.654545
 71
     8
 72
     1
  1
8  
210
0.0
220
0.0
230
1.0
 73
     1
 44
1.0
  0
MTEXT
  5
AC
100
AcDbEntity
  8
256
390
0
 62
     8
100
AcDbMText
 10
360.130196
 20
260.858133
 30
0.0
 40
2.822222
 41
5.875353
 71
     8
 72
     1
  1
処  
210
0.0
220
0.0
230
1.0
 73
     1
 44
1.0
  0
MTEXT
  5
AD
100
AcDbEntity
  8
256
390
0
 62
     8
100
AcDbMText
 10
336.870941
 20
283.013492
 30
0.0
 40
3.386667
 41
22.81382
 71
     8
 72
     1
  1
担当者     
210
0.0
220
0.0
230
1.0
 73
     1
 44
1.0
  0
MTEXT
  5
AE
100
AcDbEntity
  8
256
390
0
 62
     8
100
AcDbMText
 10
251.577735
 20
39.076539
 30
0.0
 40
2.0
 41
6.836364
 71
     8
 72
     1
  1
f %%p  
210
0.0
220
0.0
230
1.0
 73
     1
 44
1.0
  0
MTEXT
  5
AF
100
AcDbEntity
  8
256
390
0
 62
     8
100
AcDbMText
 10
360.130196
 20
263.973919
 30
0.0
 40
2.822222
 41
5.952323
 71
     8
 72
     1
  1
熱  
210
0.0
220
0.0
230
1.0
 73
     1
 44
1.0
  0
MTEXT
  5
B0
100
AcDbEntity
  8
256
390
0
 62
     8
100
AcDbMText
 10
268.125015
 20
31.744792
 30
0.0
 40
1.75
 41
4.55
 71
     8
 72
     1
  1
0.5  
210
0.0
220
0.0
230
1.0
 73
     1
 44
1.0
  0
MTEXT
  5
B1
100
AcDbEntity
  8
256
390
0
 62
     8
100
AcDbMText
 10
328.494219
 20
43.012096
 30
0.0
 40
3.386667
 41
17.30279
 71
     8
 72
     1
  1
尺 度  
210
0.0
220
0.0
230
1.0
 73
     1
 44
1.0
  0
MTEXT
  5
B2
100
AcDbEntity
  8
256
390
0
 62
     8
100
AcDbMText
 10
262.660189
 20
41.133356
 30
0.0
 40
1.7952
 41
7.9968
 71
     8
 72
     1
  1
粗級  
210
0.0
220
0.0
230
1.0
 73
     1
 44
1.0
  0
MTEXT
  5
B3
100
AcDbEntity
  8
256
390
0
 62
     8
100
AcDbMText
 10
225.086682
 20
40.357732
 30
0.0
 40
1.5
 41
6.640909
 71
     8
 72
     1
  1
基準  
210
0.0
220
0.0
230
1.0
 73
     1
 44
1.0
  0
MTEXT
  5
B4
100
AcDbEntity
  8
256
390
0
 62
     8
100
AcDbMText
 10
268.384088
 20
41.201556
 30
0.0
 40
1.584
 41
10.8
 71
     8
 72
     1
  1
極粗級  
210
0.0
220
0.0
230
1.0
 73
     1
 44
1.0
  0
MTEXT
  5
B5
100
AcDbEntity
  8
256
390
0
 62
     8
100
AcDbMText
 10
256.625031
 20
14.244792
 30
0.0
 40
1.75
 41
4.263636
 71
     8
 72
     1
  1
1.2  
210
0.0
220
0.0
230
1.0
 73
     1
 44
1.0
  0
MTEXT
  5
B6
100
AcDbEntity
  8
256
390
0
 62
     8
100
AcDbMText
 10
360.130196
 20
272.53334
 30
0.0
 40
3.386667
 41
7.050425
 71
     8
 72
     1
  1
処  
210
0.0
220
0.0
230
1.0
 73
     1
 44
1.0
  0
INSERT
  5
BB
100
AcDbEntity
  8
256
390
0
100
AcDbBlockReference
  2
AID287
 10
0.0
 20
0.0
 30
0.0
  0
LINE
  5
BD
100
AcDbEntity
  8
1
390
0
  6
Continuous
 62
     7
100
AcDbLine
 10
170.45405
 20
151.549966
 30
0.0
 11
170.45405
 21
121.541182
 31
0.0
  0
LINE
  5
BE
100
AcDbEntity
  8
1
390
0
  6
Continuous
 62
     7
100
AcDbLine
 10
169.45405
 20
151.549966
 30
0.0
 11
170.45405
 21
151.549966
 31
0.0
  0
LINE
  5
BF
100
AcDbEntity
  8
1
390
0
  6
Continuous
 62
     7
100
AcDbLine
 10
100.876149
 20
226.541182
 30
0.0
 11
100.961922
 21
222.059565
 31
0.0
  0
LINE
  5
C0
100
AcDbEntity
  8
1
390
0
  6
Continuous
 62
     7
100
AcDbLine
 10
100.961922
 20
222.059565
 30
0.0
 11
99.980878
 21
221.059565
 31
0.0
  0
LINE
  5
C1
100
AcDbEntity
  8
1
390
0
  6
Continuous
 62
     7
100
AcDbLine
 10
99.875966
 20
226.541182
 30
0.0
 11
100.876149
 21
226.541182
 31
0.0
  0
LINE
  5
C2
100
AcDbEntity
  8
1
390
0
  6
Continuous
 62
     7
100
AcDbLine
 10
100.961922
 20
222.059565
 30
0.0
 11
136.474056
 21
222.059565
 31
0.0
  0
LINE
  5
C3
100
AcDbEntity
  8
1
390
0
  6
Continuous
 62
     7
100
AcDbLine
 10
136.474056
 20
222.059565
 30
0.0
 11
137.4551
 21
221.059565
 31
0.0
  0
LINE
  5
C4
100
AcDbEntity
  8
1
390
0
  6
Continuous
 62
     7
100
AcDbLine
 10
136.474056
 20
222.059565
 30
0.0
 11
136.559829
 21
226.541182
 31
0.0
  0
LINE
  5
C5
100
AcDbEntity
  8
1
390
0
  6
Continuous
 62
     7
100
AcDbLine
 10
136.559829
 20
226.541182
 30
0.0
 11
137.560012
 21
226.541182
 31
0.0
  0
LINE
  5
C6
100
AcDbEntity
  8
1
390
0
  6
Continuous
 62
     7
100
AcDbLine
 10
68.45405
 20
216.175611
 30
0.0
 11
67.45405
 21
215.193736
 31
0.0
  0
LINE
  5
C7
100
AcDbEntity
  8
1
390
0
  6
Continuous
 62
     7
100
AcDbLine
 10
67.45405
 20
215.193736
 30
0.0
 11
67.45405
 21
226.541182
 31
0.0
  0
LINE
  5
C8
100
AcDbEntity
  8
1
390
0
  6
Continuous
 62
     7
100
AcDbLine
 10
67.45405
 20
226.541182
 30
0.0
 11
68.45405
 21
226.541182
 31
0.0
  0
LINE
  5
C9
100
AcDbEntity
  8
1
390
0
  6
Continuous
 62
     7
100
AcDbLine
 10
169.45405
 20
151.549966
 30
0.0
 11
68.45405
 21
151.549966
 31
0.0
  0
LINE
  5
CA
100
AcDbEntity
  8
1
390
0
  6
Continuous
 62
     7
100
AcDbLine
 10
99.875966
 20
226.541182
 30
0.0
 11
68.45405
 21
226.541182
 31
0.0
  0
LINE
  5
CB
100
AcDbEntity
  8
1
390
0
  6
Continuous
 62
     7
100
AcDbLine
 10
169.45405
 20
226.541182
 30
0.0
 11
137.560012
 21
226.541182
 31
0.0
  0
LINE
  5
CC
100
AcDbEntity
  8
1
390
0
  6
Continuous
 62
     7
100
AcDbLine
 10
68.45405
 20
152.04319
 30
0.0
 11
169.45405
 21
152.04319
 31
0.0
  0
LINE
  5
CD
100
AcDbEntity
  8
1
390
0
  6
Continuous
 62
     7
100
AcDbLine
 10
68.45405
 20
174.687842
 30
0.0
 11
67.45405
 21
175.03877
 31
0.0
  0
LINE
  5
CE
100
AcDbEntity
  8
1
390
0
  6
Continuous
 62
     7
100
AcDbLine
 10
67.45405
 20
175.03877
 30
0.0
 11
75.464381
 21
185.046315
 31
0.0
  0
LINE
  5
CF
100
AcDbEntity
  8
1
390
0
  6
Continuous
 62
     7
100
AcDbLine
 10
76.464381
 20
184.695387
 30
0.0
 11
75.464381
 21
185.046315
 31
0.0
  0
LINE
  5
D0
100
AcDbEntity
  8
1
390
0
  6
Continuous
 62
     7
100
AcDbLine
 10
67.45405
 20
152.04319
 30
0.0
 11
67.45405
 21
175.03877
 31
0.0
  0
LINE
  5
D1
100
AcDbEntity
  8
1
390
0
  6
Continuous
 62
     7
100
AcDbLine
 10
68.45405
 20
152.04319
 30
0.0
 11
67.45405
 21
152.04319
 31
0.0
  0
LINE
  5
D2
100
AcDbEntity
  8
1
390
0
  6
Continuous
 62
     7
100
AcDbLine
 10
169.45405
 20
226.541182
 30
0.0
 11
170.45405
 21
226.541182
 31
0.0
  0
LINE
  5
D3
100
AcDbEntity
  8
1
390
0
  6
Continuous
 62
     7
100
AcDbLine
 10
170.45405
 20
226.541182
 30
0.0
 11
170.45405
 21
152.04319
 31
0.0
  0
LINE
  5
D4
100
AcDbEntity
  8
1
390
0
  6
Continuous
 62
     7
100
AcDbLine
 10
170.45405
 20
152.04319
 30
0.0
 11
169.45405
 21
152.04319
 31
0.0
  0
LINE
  5
D5
100
AcDbEntity
  8
1
390
0
  6
Continuous
 62
     7
100
AcDbLine
 10
75.464381
 20
185.046315
 30
0.0
 11
75.464381
 21
215.047206
 31
0.0
  0
LINE
  5
D6
100
AcDbEntity
  8
1
390
0
  6
Continuous
 62
     7
100
AcDbLine
 10
76.464381
 20
216.02908
 30
0.0
 11
75.464381
 21
215.047206
 31
0.0
  0
LINE
  5
D7
100
AcDbEntity
  8
1
390
0
  6
Continuous
 62
     7
100
AcDbLine
 10
67.45405
 20
121.541182
 30
0.0
 11
67.45405
 21
151.549966
 31
0.0
  0
LINE
  5
D8
100
AcDbEntity
  8
1
390
0
  6
Continuous
 62
     7
100
AcDbLine
 10
67.45405
 20
151.549966
 30
0.0
 11
68.45405
 21
151.549966
 31
0.0
  0
LINE
  5
D9
100
AcDbEntity
  8
1
390
0
  6
Continuous
 62
     7
100
AcDbLine
 10
169.45405
 20
120.541182
 30
0.0
 11
68.45405
 21
120.541182
 31
0.0
  0
ARC
  5
DA
100
AcDbEntity
  8
1
390
0
  6
Continuous
 62
     7
100
AcDbCircle
 10
68.45405
 20
121.541182
 30
0.0
 40
1.0
210
0.0
220
0.0
230
1.0
100
AcDbArc
 50
180.0
 51
270.0
  0
ARC
  5
DB
100
AcDbEntity
  8
1
390
0
  6
Continuous
 62
     7
100
AcDbCircle
 10
169.45405
 20
121.541182
 30
0.0
 40
1.0
210
0.0
220
0.0
230
1.0
100
AcDbArc
 50
270.0
 51
360.0
  0
LINE
  5
DC
100
AcDbEntity
  8
1
390
0
  6
Continuous
 62
     7
100
AcDbLine
 10
75.464381
 20
215.047206
 30
0.0
 11
67.45405
 21
215.193736
 31
0.0
  0
LINE
  5
DD
100
AcDbEntity
  8
1
390
0
  6
Continuous
 62
     7
100
AcDbLine
 10
169.713414
 20
152.04319
 30
0.0
 11
169.713414
 21
151.549966
 31
0.0
  0
LINE
  5
DE
100
AcDbEntity
  8
1
390
0
  6
Continuous
 62
     7
100
AcDbLine
 10
68.194687
 20
151.549966
 30
0.0
 11
68.194687
 21
152.04319
 31
0.0
  0
LINE
  5
DF
100
AcDbEntity
  8
1
390
0
  6
Continuous
 62
     7
100
AcDbLine
 10
136.431167
 20
223.067458
 30
0.0
 11
136.431167
 21
222.059565
 31
0.0
  0
LINE
  5
E0
100
AcDbEntity
  8
1
390
0
  6
Continuous
 62
     7
100
AcDbLine
 10
134.951495
 20
223.753683
 30
0.0
 11
136.431167
 21
223.067458
 31
0.0
  0
LINE
  5
E1
100
AcDbEntity
  8
1
390
0
  6
Continuous
 62
     7
100
AcDbLine
 10
134.951495
 20
225.040354
 30
0.0
 11
134.951495
 21
223.753683
 31
0.0
  0
LINE
  5
E2
100
AcDbEntity
  8
1
390
0
  6
Continuous
 62
     7
100
AcDbLine
 10
136.531105
 20
225.040354
 30
0.0
 11
134.951495
 21
225.040354
 31
0.0
  0
LINE
  5
E4
100
AcDbEntity
  8
1
390
0
  6
DOT
 62
     9
100
AcDbLine
 10
142.199744
 20
120.541182
 30
0.0
 11
142.199744
 21
121.541182
 31
0.0
  0
LINE
  5
E5
100
AcDbEntity
  8
1
390
0
  6
DOT
 62
     9
100
AcDbLine
 10
142.199744
 20
121.541182
 30
0.0
 11
142.699744
 21
121.541182
 31
0.0
  0
LINE
  5
E6
100
AcDbEntity
  8
1
390
0
  6
DOT
 62
     9
100
AcDbLine
 10
142.699744
 20
121.541182
 30
0.0
 11
160.699937
 21
121.541182
 31
0.0
  0
LINE
  5
E7
100
AcDbEntity
  8
1
390
0
  6
DOT
 62
     9
100
AcDbLine
 10
161.199937
 20
120.541182
 30
0.0
 11
161.199937
 21
121.541182
 31
0.0
  0
LINE
  5
E8
100
AcDbEntity
  8
1
390
0
  6
DOT
 62
     9
100
AcDbLine
 10
160.699937
 20
121.541182
 30
0.0
 11
161.199937
 21
121.541182
 31
0.0
  0
LINE
  5
E9
100
AcDbEntity
  8
1
390
0
  6
Continuous
 62
     7
100
AcDbLine
 10
143.193192
 20
119.541182
 30
0.0
 11
142.993192
 21
119.541182
 31
0.0
  0
LINE
  5
EA
100
AcDbEntity
  8
1
390
0
  6
Continuous
 62
     7
100
AcDbLine
 10
142.993192
 20
119.541182
 30
0.0
 11
142.993192
 21
120.541182
 31
0.0
  0
LINE
  5
EB
100
AcDbEntity
  8
1
390
0
  6
DOT
 62
     9
100
AcDbLine
 10
142.993192
 20
120.541182
 30
0.0
 11
142.993192
 21
121.541182
 31
0.0
  0
LINE
  5
EC
100
AcDbEntity
  8
1
390
0
  6
Continuous
 62
     7
100
AcDbLine
 10
160.40649
 20
119.541182
 30
0.0
 11
160.20649
 21
119.541182
 31
0.0
  0
LINE
  5
ED
100
AcDbEntity
  8
1
390
0
  6
Continuous
 62
     7
100
AcDbLine
 10
160.40649
 20
119.541182
 30
0.0
 11
160.40649
 21
120.541182
 31
0.0
  0
LINE
  5
EE
100
AcDbEntity
  8
1
390
0
  6
DOT
 62
     9
100
AcDbLine
 10
160.40649
 20
120.541182
 30
0.0
 11
160.40649
 21
121.541182
 31
0.0
  0
LINE
  5
EF
100
AcDbEntity
  8
1
390
0
  6
Continuous
 62
     7
100
AcDbLine
 10
145.244867
 20
119.541182
 30
0.0
 11
143.193192
 21
119.541182
 31
0.0
  0
LINE
  5
F0
100
AcDbEntity
  8
1
390
0
  6
Continuous
 62
     7
100
AcDbLine
 10
145.244867
 20
119.541182
 30
0.0
 11
145.244867
 21
120.541182
 31
0.0
  0
LINE
  5
F1
100
AcDbEntity
  8
1
390
0
  6
DOT
 62
     9
100
AcDbLine
 10
145.244867
 20
120.541182
 30
0.0
 11
145.244867
 21
121.541182
 31
0.0
  0
LINE
  5
F2
100
AcDbEntity
  8
1
390
0
  6
Continuous
 62
     7
100
AcDbLine
 10
158.154814
 20
119.541182
 30
0.0
 11
158.154814
 21
120.541182
 31
0.0
  0
LINE
  5
F3
100
AcDbEntity
  8
1
390
0
  6
DOT
 62
     9
100
AcDbLine
 10
158.154814
 20
120.541182
 30
0.0
 11
158.154814
 21
121.541182
 31
0.0
  0
LINE
  5
F4
100
AcDbEntity
  8
1
390
0
  6
Continuous
 62
     7
100
AcDbLine
 10
160.20649
 20
119.541182
 30
0.0
 11
158.154814
 21
119.541182
 31
0.0
  0
LINE
  5
F5
100
AcDbEntity
  8
1
390
0
  6
DOT
 62
     9
100
AcDbLine
 10
159.306043
 20
126.041182
 30
0.0
 11
158.412149
 21
126.041182
 31
0.0
  0
LINE
  5
F6
100
AcDbEntity
  8
1
390
0
  6
DOT
 62
     9
100
AcDbLine
 10
159.806043
 20
119.541182
 30
0.0
 11
159.806043
 21
126.041182
 31
0.0
  0
LINE
  5
F7
100
AcDbEntity
  8
1
390
0
  6
DOT
 62
     9
100
AcDbLine
 10
159.806043
 20
126.041182
 30
0.0
 11
159.306043
 21
126.041182
 31
0.0
  0
LINE
  5
F8
100
AcDbEntity
  8
1
390
0
  6
DOT
 62
     9
100
AcDbLine
 10
145.008977
 20
126.041182
 30
0.0
 11
144.093638
 21
126.041182
 31
0.0
  0
LINE
  5
F9
100
AcDbEntity
  8
1
390
0
  6
DOT
 62
     9
100
AcDbLine
 10
145.008977
 20
119.541182
 30
0.0
 11
145.008977
 21
126.041182
 31
0.0
  0
LINE
  5
FA
100
AcDbEntity
  8
1
390
0
  6
DOT
 62
     9
100
AcDbLine
 10
143.593638
 20
119.541182
 30
0.0
 11
143.593638
 21
126.041182
 31
0.0
  0
LINE
  5
FB
100
AcDbEntity
  8
1
390
0
  6
DOT
 62
     9
100
AcDbLine
 10
144.093638
 20
126.041182
 30
0.0
 11
143.593638
 21
126.041182
 31
0.0
  0
LINE
  5
FC
100
AcDbEntity
  8
1
390
0
  6
DOT
 62
     9
100
AcDbLine
 10
158.412149
 20
119.541182
 30
0.0
 11
158.412149
 21
126.041182
 31
0.0
  0
LINE
  5
FD
100
AcDbEntity
  8
1
390
0
  6
DOT
 62
     9
100
AcDbLine
 10
157.447145
 20
120.541182
 30
0.0
 11
157.447145
 21
121.541182
 31
0.0
  0
LINE
  5
FE
100
AcDbEntity
  8
1
390
0
  6
DOT
 62
     9
100
AcDbLine
 10
155.946028
 20
120.541182
 30
0.0
 11
155.946028
 21
121.541182
 31
0.0
  0
LINE
  5
FF
100
AcDbEntity
  8
1
390
0
  6
DOT
 62
     9
100
AcDbLine
 10
147.453653
 20
120.541182
 30
0.0
 11
147.453653
 21
121.541182
 31
0.0
  0
LINE
  5
100
100
AcDbEntity
  8
1
390
0
  6
DOT
 62
     9
100
AcDbLine
 10
145.952536
 20
120.541182
 30
0.0
 11
145.952536
 21
121.541182
 31
0.0
  0
LINE
  5
101
100
AcDbEntity
  8
1
390
0
  6
DOT
 62
     9
100
AcDbLine
 10
146.402871
 20
126.041182
 30
0.0
 11
145.008977
 21
126.041182
 31
0.0
  0
LINE
  5
102
100
AcDbEntity
  8
1
390
0
  6
DOT
 62
     9
100
AcDbLine
 10
158.412149
 20
126.041182
 30
0.0
 11
156.99681
 21
126.041182
 31
0.0
  0
LINE
  5
103
100
AcDbEntity
  8
1
390
0
  6
DOT
 62
     9
100
AcDbLine
 10
149.512671
 20
126.341182
 30
0.0
 11
148.912224
 21
126.341182
 31
0.0
  0
LINE
  5
104
100
AcDbEntity
  8
1
390
0
  6
DOT
 62
     9
100
AcDbLine
 10
149.512671
 20
126.041182
 30
0.0
 11
149.512671
 21
126.341182
 31
0.0
  0
LINE
  5
105
100
AcDbEntity
  8
1
390
0
  6
DOT
 62
     9
100
AcDbLine
 10
148.912224
 20
126.041182
 30
0.0
 11
148.912224
 21
126.341182
 31
0.0
  0
LINE
  5
106
100
AcDbEntity
  8
1
390
0
  6
DOT
 62
     9
100
AcDbLine
 10
151.399789
 20
126.041182
 30
0.0
 11
149.512671
 21
126.041182
 31
0.0
  0
LINE
  5
107
100
AcDbEntity
  8
1
390
0
  6
DOT
 62
     9
100
AcDbLine
 10
148.912224
 20
126.041182
 30
0.0
 11
147.003318
 21
126.041182
 31
0.0
  0
LINE
  5
108
100
AcDbEntity
  8
1
390
0
  6
DOT
 62
     9
100
AcDbLine
 10
146.402871
 20
126.341182
 30
0.0
 11
147.003318
 21
126.341182
 31
0.0
  0
LINE
  5
109
100
AcDbEntity
  8
1
390
0
  6
DOT
 62
     9
100
AcDbLine
 10
147.003318
 20
126.041182
 30
0.0
 11
147.003318
 21
126.341182
 31
0.0
  0
LINE
  5
10A
100
AcDbEntity
  8
1
390
0
  6
DOT
 62
     9
100
AcDbLine
 10
154.509245
 20
126.041182
 30
0.0
 11
154.509245
 21
126.341182
 31
0.0
  0
LINE
  5
10B
100
AcDbEntity
  8
1
390
0
  6
DOT
 62
     9
100
AcDbLine
 10
153.908798
 20
126.041182
 30
0.0
 11
152.000236
 21
126.041182
 31
0.0
  0
LINE
  5
10C
100
AcDbEntity
  8
1
390
0
  6
DOT
 62
     9
100
AcDbLine
 10
156.396363
 20
126.041182
 30
0.0
 11
154.509245
 21
126.041182
 31
0.0
  0
LINE
  5
10D
100
AcDbEntity
  8
1
390
0
  6
DOT
 62
     9
100
AcDbLine
 10
151.399789
 20
126.041182
 30
0.0
 11
151.399789
 21
126.341182
 31
0.0
  0
LINE
  5
10E
100
AcDbEntity
  8
1
390
0
  6
DOT
 62
     9
100
AcDbLine
 10
156.99681
 20
126.341182
 30
0.0
 11
156.396363
 21
126.341182
 31
0.0
  0
LINE
  5
10F
100
AcDbEntity
  8
1
390
0
  6
DOT
 62
     9
100
AcDbLine
 10
152.000236
 20
126.041182
 30
0.0
 11
152.000236
 21
126.341182
 31
0.0
  0
LINE
  5
110
100
AcDbEntity
  8
1
390
0
  6
DOT
 62
     9
100
AcDbLine
 10
146.402871
 20
126.041182
 30
0.0
 11
146.402871
 21
126.341182
 31
0.0
  0
LINE
  5
111
100
AcDbEntity
  8
1
390
0
  6
DOT
 62
     9
100
AcDbLine
 10
156.99681
 20
126.041182
 30
0.0
 11
156.99681
 21
126.341182
 31
0.0
  0
LINE
  5
112
100
AcDbEntity
  8
1
390
0
  6
DOT
 62
     9
100
AcDbLine
 10
152.000236
 20
126.341182
 30
0.0
 11
151.399789
 21
126.341182
 31
0.0
  0
LINE
  5
113
100
AcDbEntity
  8
1
390
0
  6
DOT
 62
     9
100
AcDbLine
 10
156.396363
 20
126.041182
 30
0.0
 11
156.396363
 21
126.341182
 31
0.0
  0
LINE
  5
114
100
AcDbEntity
  8
1
390
0
  6
DOT
 62
     9
100
AcDbLine
 10
154.509245
 20
126.341182
 30
0.0
 11
153.908798
 21
126.341182
 31
0.0
  0
LINE
  5
115
100
AcDbEntity
  8
1
390
0
  6
DOT
 62
     9
100
AcDbLine
 10
153.908798
 20
126.041182
 30
0.0
 11
153.908798
 21
126.341182
 31
0.0
  0
LINE
  5
116
100
AcDbEntity
  8
1
390
0
  6
DOT
 62
     9
100
AcDbLine
 10
145.65405
 20
122.041182
 30
0.0
 11
145.25405
 21
122.041182
 31
0.0
  0
LINE
  5
117
100
AcDbEntity
  8
1
390
0
  6
DOT
 62
     9
100
AcDbLine
 10
148.15405
 20
122.041182
 30
0.0
 11
147.75405
 21
122.041182
 31
0.0
  0
LINE
  5
118
100
AcDbEntity
  8
1
390
0
  6
DOT
 62
     9
100
AcDbLine
 10
150.65405
 20
122.041182
 30
0.0
 11
150.25405
 21
122.041182
 31
0.0
  0
LINE
  5
119
100
AcDbEntity
  8
1
390
0
  6
DOT
 62
     9
100
AcDbLine
 10
158.15405
 20
122.041182
 30
0.0
 11
157.75405
 21
122.041182
 31
0.0
  0
LINE
  5
11A
100
AcDbEntity
  8
1
390
0
  6
DOT
 62
     9
100
AcDbLine
 10
155.65405
 20
122.041182
 30
0.0
 11
155.25405
 21
122.041182
 31
0.0
  0
LINE
  5
11B
100
AcDbEntity
  8
1
390
0
  6
DOT
 62
     9
100
AcDbLine
 10
153.15405
 20
122.041182
 30
0.0
 11
152.75405
 21
122.041182
 31
0.0
  0
ARC
  5
11C
100
AcDbEntity
  8
1
390
0
  6
Continuous
 62
     7
100
AcDbCircle
 10
100.862336
 20
224.547354
 30
0.0
 40
0.3
210
0.0
220
0.0
230
1.0
100
AcDbArc
 50
24.590117
 51
81.121929
  0
ARC
  5
11D
100
AcDbEntity
  8
1
390
0
  6
Continuous
 62
     7
100
AcDbCircle
 10
101.441385
 20
223.282025
 30
0.0
 40
0.3
210
0.0
220
0.0
230
1.0
100
AcDbArc
 50
306.869898
 51
24.590117
  0
LINE
  5
11E
100
AcDbEntity
  8
1
390
0
  6
Continuous
 62
     7
100
AcDbLine
 10
101.135129
 20
224.672191
 30
0.0
 11
101.714177
 21
223.406863
 31
0.0
  0
LINE
  5
11F
100
AcDbEntity
  8
1
390
0
  6
Continuous
 62
     7
100
AcDbLine
 10
101.621385
 20
223.042025
 30
0.0
 11
100.952717
 21
222.540525
 31
0.0
  0
LINE
  5
120
100
AcDbEntity
  8
1
390
0
  6
Continuous
 62
     7
100
AcDbLine
 10
62.304219
 20
226.048247
 30
0.0
 11
66.601016
 21
226.048247
 31
0.0
  0
ARC
  5
121
100
AcDbEntity
  8
1
390
0
  6
Continuous
 62
     7
100
AcDbCircle
 10
66.601016
 20
225.548247
 30
0.0
 40
0.5
210
0.0
220
0.0
230
1.0
100
AcDbArc
 50
0.0
 51
90.0
  0
LINE
  5
122
100
AcDbEntity
  8
1
390
0
  6
Continuous
 62
     7
100
AcDbLine
 10
67.45405
 20
222.059565
 30
0.0
 11
61.804219
 21
222.059565
 31
0.0
  0
ARC
  5
123
100
AcDbEntity
  8
1
390
0
  6
Continuous
 62
     7
100
AcDbCircle
 10
62.304219
 20
225.548247
 30
0.0
 40
0.5
210
0.0
220
0.0
230
1.0
100
AcDbArc
 50
90.0
 51
180.0
  0
LINE
  5
124
100
AcDbEntity
  8
1
390
0
  6
Continuous
 62
     7
100
AcDbLine
 10
61.804219
 20
222.059565
 30
0.0
 11
61.804219
 21
225.548247
 31
0.0
  0
LINE
  5
125
100
AcDbEntity
  8
1
390
0
  6
Continuous
 62
     7
100
AcDbLine
 10
67.101016
 20
225.548247
 30
0.0
 11
67.101016
 21
224.342211
 31
0.0
  0
ARC
  5
126
100
AcDbEntity
  8
1
390
0
  6
Continuous
 62
     7
100
AcDbCircle
 10
67.601016
 20
224.342211
 30
0.0
 40
0.5
210
0.0
220
0.0
230
1.0
100
AcDbArc
 50
180.0
 51
252.906485
  0
LINE
  5
127
100
AcDbEntity
  8
1
390
0
  6
Continuous
 62
     7
100
AcDbLine
 10
67.45405
 20
175.03877
 30
0.0
 11
67.45405
 21
215.193736
 31
0.0
  0
LINE
  5
128
100
AcDbEntity
  8
1
390
0
  6
DOT
 62
     9
100
AcDbLine
 10
67.45405
 20
223.048247
 30
0.0
 11
61.804219
 21
223.048247
 31
0.0
  0
LINE
  5
129
100
AcDbEntity
  8
1
390
0
  6
Continuous
 62
     7
100
AcDbLine
 10
145.244867
 20
119.541182
 30
0.0
 11
158.154814
 21
119.541182
 31
0.0
  0
LINE
  5
12A
100
AcDbEntity
  8
1
390
0
  6
DOT
 62
     9
100
AcDbLine
 10
155.86025
 20
119.541182
 30
0.0
 11
155.86025
 21
121.541182
 31
0.0
  0
LINE
  5
12B
100
AcDbEntity
  8
1
390
0
  6
DOT
 62
     9
100
AcDbLine
 10
155.045358
 20
119.541182
 30
0.0
 11
155.045358
 21
121.541182
 31
0.0
  0
LINE
  5
12C
100
AcDbEntity
  8
1
390
0
  6
DOT
 62
     9
100
AcDbLine
 10
145.845314
 20
119.541182
 30
0.0
 11
145.845314
 21
121.541182
 31
0.0
  0
LINE
  5
12D
100
AcDbEntity
  8
1
390
0
  6
DOT
 62
     9
100
AcDbLine
 10
152.557793
 20
119.541182
 30
0.0
 11
152.557793
 21
121.541182
 31
0.0
  0
LINE
  5
12E
100
AcDbEntity
  8
1
390
0
  6
DOT
 62
     9
100
AcDbLine
 10
150.048784
 20
119.541182
 30
0.0
 11
150.048784
 21
121.541182
 31
0.0
  0
LINE
  5
12F
100
AcDbEntity
  8
1
390
0
  6
DOT
 62
     9
100
AcDbLine
 10
150.863676
 20
119.541182
 30
0.0
 11
150.863676
 21
121.541182
 31
0.0
  0
LINE
  5
130
100
AcDbEntity
  8
1
390
0
  6
DOT
 62
     9
100
AcDbLine
 10
147.560876
 20
119.541182
 30
0.0
 11
147.560876
 21
121.541182
 31
0.0
  0
LINE
  5
131
100
AcDbEntity
  8
1
390
0
  6
DOT
 62
     9
100
AcDbLine
 10
148.354666
 20
119.541182
 30
0.0
 11
148.354666
 21
121.541182
 31
0.0
  0
LINE
  5
132
100
AcDbEntity
  8
1
390
0
  6
DOT
 62
     9
100
AcDbLine
 10
145.051866
 20
119.541182
 30
0.0
 11
145.051866
 21
121.541182
 31
0.0
  0
LINE
  5
133
100
AcDbEntity
  8
1
390
0
  6
DOT
 62
     9
100
AcDbLine
 10
153.351241
 20
119.541182
 30
0.0
 11
153.351241
 21
121.541182
 31
0.0
  0
LINE
  5
134
100
AcDbEntity
  8
1
390
0
  6
DOT
 62
     9
100
AcDbLine
 10
157.554368
 20
119.541182
 30
0.0
 11
157.554368
 21
121.541182
 31
0.0
  0
LINE
  5
135
100
AcDbEntity
  8
1
390
0
  6
DOT
 62
     9
100
AcDbLine
 10
158.347815
 20
119.541182
 30
0.0
 11
158.347815
 21
121.541182
 31
0.0
  0
LINE
  5
136
100
AcDbEntity
  8
1
390
0
  6
DOT
 62
     9
100
AcDbLine
 10
63.804219
 20
223.048247
 30
0.0
 11
63.804219
 21
222.059565
 31
0.0
  0
LINE
  5
137
100
AcDbEntity
  8
1
390
0
  6
DOT
 62
     9
100
AcDbLine
 10
67.304219
 20
222.059565
 30
0.0
 11
67.304219
 21
223.048247
 31
0.0
  0
LINE
  5
138
100
AcDbEntity
  8
1
390
0
  6
DOT
 62
     9
100
AcDbLine
 10
119.711213
 20
121.541182
 30
0.0
 11
119.211213
 21
121.541182
 31
0.0
  0
LINE
  5
139
100
AcDbEntity
  8
1
390
0
  6
DOT
 62
     9
100
AcDbLine
 10
119.211213
 20
120.541182
 30
0.0
 11
119.211213
 21
121.541182
 31
0.0
  0
LINE
  5
13A
100
AcDbEntity
  8
1
390
0
  6
DOT
 62
     9
100
AcDbLine
 10
163.809393
 20
121.541182
 30
0.0
 11
161.199937
 21
121.541182
 31
0.0
  0
LINE
  5
13B
100
AcDbEntity
  8
1
390
0
  6
DOT
 62
     9
100
AcDbLine
 10
142.199744
 20
121.541182
 30
0.0
 11
119.711213
 21
121.541182
 31
0.0
  0
LINE
  5
13C
100
AcDbEntity
  8
1
390
0
  6
DOT
 62
     9
100
AcDbLine
 10
164.309393
 20
120.541182
 30
0.0
 11
164.309393
 21
121.541182
 31
0.0
  0
LINE
  5
13D
100
AcDbEntity
  8
1
390
0
  6
DOT
 62
     9
100
AcDbLine
 10
164.309393
 20
121.541182
 30
0.0
 11
163.809393
 21
121.541182
 31
0.0
  0
LINE
  5
13E
100
AcDbEntity
  8
1
390
0
  6
DOT
 62
     9
100
AcDbLine
 10
148.0541
 20
119.541182
 30
0.0
 11
148.0541
 21
120.541182
 31
0.0
  0
LINE
  5
13F
100
AcDbEntity
  8
1
390
0
  6
DOT
 62
     9
100
AcDbLine
 10
148.0541
 20
120.541182
 30
0.0
 11
148.0541
 21
121.541182
 31
0.0
  0
LINE
  5
140
100
AcDbEntity
  8
1
390
0
  6
DOT
 62
     9
100
AcDbLine
 10
150.306118
 20
119.541182
 30
0.0
 11
150.306118
 21
120.541182
 31
0.0
  0
LINE
  5
141
100
AcDbEntity
  8
1
390
0
  6
DOT
 62
     9
100
AcDbLine
 10
150.306118
 20
120.541182
 30
0.0
 11
150.306118
 21
121.541182
 31
0.0
  0
LINE
  5
142
100
AcDbEntity
  8
1
390
0
  6
Continuous
 62
     7
100
AcDbLine
 10
120.204661
 20
119.541182
 30
0.0
 11
120.004661
 21
119.541182
 31
0.0
  0
LINE
  5
143
100
AcDbEntity
  8
1
390
0
  6
Continuous
 62
     7
100
AcDbLine
 10
120.004661
 20
119.541182
 30
0.0
 11
120.004661
 21
120.541182
 31
0.0
  0
LINE
  5
144
100
AcDbEntity
  8
1
390
0
  6
DOT
 62
     9
100
AcDbLine
 10
120.004661
 20
120.541182
 30
0.0
 11
120.004661
 21
121.541182
 31
0.0
  0
LINE
  5
145
100
AcDbEntity
  8
1
390
0
  6
Continuous
 62
     7
100
AcDbLine
 10
137.653505
 20
119.541182
 30
0.0
 11
137.653505
 21
120.541182
 31
0.0
  0
LINE
  5
146
100
AcDbEntity
  8
1
390
0
  6
DOT
 62
     9
100
AcDbLine
 10
137.653505
 20
120.541182
 30
0.0
 11
137.653505
 21
121.541182
 31
0.0
  0
LINE
  5
147
100
AcDbEntity
  8
1
390
0
  6
Continuous
 62
     7
100
AcDbLine
 10
139.70518
 20
119.541182
 30
0.0
 11
137.653505
 21
119.541182
 31
0.0
  0
LINE
  5
148
100
AcDbEntity
  8
1
390
0
  6
DOT
 62
     9
100
AcDbLine
 10
150.799342
 20
119.541182
 30
0.0
 11
150.799342
 21
120.541182
 31
0.0
  0
LINE
  5
149
100
AcDbEntity
  8
1
390
0
  6
DOT
 62
     9
100
AcDbLine
 10
150.799342
 20
120.541182
 30
0.0
 11
150.799342
 21
121.541182
 31
0.0
  0
LINE
  5
14A
100
AcDbEntity
  8
1
390
0
  6
Continuous
 62
     7
100
AcDbLine
 10
140.398404
 20
119.541182
 30
0.0
 11
140.398404
 21
120.541182
 31
0.0
  0
LINE
  5
14B
100
AcDbEntity
  8
1
390
0
  6
DOT
 62
     9
100
AcDbLine
 10
140.398404
 20
120.541182
 30
0.0
 11
140.398404
 21
121.541182
 31
0.0
  0
LINE
  5
14C
100
AcDbEntity
  8
1
390
0
  6
Continuous
 62
     7
100
AcDbLine
 10
140.398404
 20
119.541182
 30
0.0
 11
140.598404
 21
119.541182
 31
0.0
  0
LINE
  5
14D
100
AcDbEntity
  8
1
390
0
  6
Continuous
 62
     7
100
AcDbLine
 10
162.994278
 20
119.541182
 30
0.0
 11
160.942603
 21
119.541182
 31
0.0
  0
LINE
  5
14E
100
AcDbEntity
  8
1
390
0
  6
Continuous
 62
     7
100
AcDbLine
 10
160.942603
 20
119.541182
 30
0.0
 11
160.942603
 21
120.541182
 31
0.0
  0
LINE
  5
14F
100
AcDbEntity
  8
1
390
0
  6
DOT
 62
     9
100
AcDbLine
 10
160.942603
 20
120.541182
 30
0.0
 11
160.942603
 21
121.541182
 31
0.0
  0
LINE
  5
150
100
AcDbEntity
  8
1
390
0
  6
DOT
 62
     9
100
AcDbLine
 10
153.051017
 20
119.541182
 30
0.0
 11
153.051017
 21
120.541182
 31
0.0
  0
LINE
  5
151
100
AcDbEntity
  8
1
390
0
  6
DOT
 62
     9
100
AcDbLine
 10
153.051017
 20
120.541182
 30
0.0
 11
153.051017
 21
121.541182
 31
0.0
  0
LINE
  5
152
100
AcDbEntity
  8
1
390
0
  6
Continuous
 62
     7
100
AcDbLine
 10
163.194278
 20
119.541182
 30
0.0
 11
162.994278
 21
119.541182
 31
0.0
  0
LINE
  5
153
100
AcDbEntity
  8
1
390
0
  6
Continuous
 62
     7
100
AcDbLine
 10
163.194278
 20
119.541182
 30
0.0
 11
163.194278
 21
120.541182
 31
0.0
  0
LINE
  5
154
100
AcDbEntity
  8
1
390
0
  6
DOT
 62
     9
100
AcDbLine
 10
163.194278
 20
120.541182
 30
0.0
 11
163.194278
 21
121.541182
 31
0.0
  0
LINE
  5
155
100
AcDbEntity
  8
1
390
0
  6
Continuous
 62
     7
100
AcDbLine
 10
139.90518
 20
119.541182
 30
0.0
 11
139.90518
 21
120.541182
 31
0.0
  0
LINE
  5
156
100
AcDbEntity
  8
1
390
0
  6
DOT
 62
     9
100
AcDbLine
 10
139.90518
 20
120.541182
 30
0.0
 11
139.90518
 21
121.541182
 31
0.0
  0
LINE
  5
157
100
AcDbEntity
  8
1
390
0
  6
Continuous
 62
     7
100
AcDbLine
 10
139.90518
 20
119.541182
 30
0.0
 11
139.70518
 21
119.541182
 31
0.0
  0
LINE
  5
158
100
AcDbEntity
  8
1
390
0
  6
Continuous
 62
     7
100
AcDbLine
 10
122.256336
 20
119.541182
 30
0.0
 11
122.256336
 21
120.541182
 31
0.0
  0
LINE
  5
159
100
AcDbEntity
  8
1
390
0
  6
DOT
 62
     9
100
AcDbLine
 10
122.256336
 20
120.541182
 30
0.0
 11
122.256336
 21
121.541182
 31
0.0
  0
LINE
  5
15A
100
AcDbEntity
  8
1
390
0
  6
Continuous
 62
     7
100
AcDbLine
 10
122.256336
 20
119.541182
 30
0.0
 11
120.204661
 21
119.541182
 31
0.0
  0
LINE
  5
15B
100
AcDbEntity
  8
1
390
0
  6
Continuous
 62
     7
100
AcDbLine
 10
142.650079
 20
119.541182
 30
0.0
 11
142.650079
 21
120.541182
 31
0.0
  0
LINE
  5
15C
100
AcDbEntity
  8
1
390
0
  6
DOT
 62
     9
100
AcDbLine
 10
142.650079
 20
120.541182
 30
0.0
 11
142.650079
 21
121.541182
 31
0.0
  0
LINE
  5
15D
100
AcDbEntity
  8
1
390
0
  6
Continuous
 62
     7
100
AcDbLine
 10
140.598404
 20
119.541182
 30
0.0
 11
142.650079
 21
119.541182
 31
0.0
  0
LINE
  5
15E
100
AcDbEntity
  8
1
390
0
  6
DOT
 62
     9
100
AcDbLine
 10
149.705671
 20
119.541182
 30
0.0
 11
149.705671
 21
126.041182
 31
0.0
  0
LINE
  5
15F
100
AcDbEntity
  8
1
390
0
  6
DOT
 62
     9
100
AcDbLine
 10
149.512671
 20
126.041182
 30
0.0
 11
149.205671
 21
126.041182
 31
0.0
  0
LINE
  5
160
100
AcDbEntity
  8
1
390
0
  6
DOT
 62
     9
100
AcDbLine
 10
151.899789
 20
126.041182
 30
0.0
 11
151.399789
 21
126.041182
 31
0.0
  0
LINE
  5
161
100
AcDbEntity
  8
1
390
0
  6
DOT
 62
     9
100
AcDbLine
 10
151.399789
 20
119.541182
 30
0.0
 11
151.399789
 21
126.041182
 31
0.0
  0
LINE
  5
162
100
AcDbEntity
  8
1
390
0
  6
DOT
 62
     9
100
AcDbLine
 10
149.205671
 20
126.041182
 30
0.0
 11
148.912224
 21
126.041182
 31
0.0
  0
LINE
  5
163
100
AcDbEntity
  8
1
390
0
  6
DOT
 62
     9
100
AcDbLine
 10
162.593831
 20
119.541182
 30
0.0
 11
162.593831
 21
126.041182
 31
0.0
  0
LINE
  5
164
100
AcDbEntity
  8
1
390
0
  6
DOT
 62
     9
100
AcDbLine
 10
162.593831
 20
126.041182
 30
0.0
 11
162.093831
 21
126.041182
 31
0.0
  0
LINE
  5
165
100
AcDbEntity
  8
1
390
0
  6
DOT
 62
     9
100
AcDbLine
 10
161.199937
 20
119.541182
 30
0.0
 11
161.199937
 21
120.541182
 31
0.0
  0
LINE
  5
166
100
AcDbEntity
  8
1
390
0
  6
DOT
 62
     9
100
AcDbLine
 10
161.199937
 20
121.541182
 30
0.0
 11
161.199937
 21
126.041182
 31
0.0
  0
LINE
  5
167
100
AcDbEntity
  8
1
390
0
  6
DOT
 62
     9
100
AcDbLine
 10
162.093831
 20
126.041182
 30
0.0
 11
161.199937
 21
126.041182
 31
0.0
  0
LINE
  5
168
100
AcDbEntity
  8
1
390
0
  6
DOT
 62
     9
100
AcDbLine
 10
148.311777
 20
119.541182
 30
0.0
 11
148.311777
 21
126.041182
 31
0.0
  0
LINE
  5
169
100
AcDbEntity
  8
1
390
0
  6
DOT
 62
     9
100
AcDbLine
 10
152.000236
 20
126.041182
 30
0.0
 11
151.899789
 21
126.041182
 31
0.0
  0
LINE
  5
16A
100
AcDbEntity
  8
1
390
0
  6
DOT
 62
     9
100
AcDbLine
 10
152.793683
 20
119.541182
 30
0.0
 11
152.793683
 21
126.041182
 31
0.0
  0
LINE
  5
16B
100
AcDbEntity
  8
1
390
0
  6
DOT
 62
     9
100
AcDbLine
 10
141.498851
 20
126.041182
 30
0.0
 11
140.998851
 21
126.041182
 31
0.0
  0
LINE
  5
16C
100
AcDbEntity
  8
1
390
0
  6
DOT
 62
     9
100
AcDbLine
 10
140.998851
 20
119.541182
 30
0.0
 11
140.998851
 21
126.041182
 31
0.0
  0
LINE
  5
16D
100
AcDbEntity
  8
1
390
0
  6
DOT
 62
     9
100
AcDbLine
 10
139.304733
 20
119.541182
 30
0.0
 11
139.304733
 21
126.041182
 31
0.0
  0
LINE
  5
16E
100
AcDbEntity
  8
1
390
0
  6
DOT
 62
     9
100
AcDbLine
 10
139.304733
 20
126.041182
 30
0.0
 11
138.804733
 21
126.041182
 31
0.0
  0
LINE
  5
16F
100
AcDbEntity
  8
1
390
0
  6
DOT
 62
     9
100
AcDbLine
 10
121.999001
 20
126.041182
 30
0.0
 11
121.105107
 21
126.041182
 31
0.0
  0
LINE
  5
170
100
AcDbEntity
  8
1
390
0
  6
DOT
 62
     9
100
AcDbLine
 10
121.999001
 20
119.541182
 30
0.0
 11
121.999001
 21
126.041182
 31
0.0
  0
LINE
  5
171
100
AcDbEntity
  8
1
390
0
  6
DOT
 62
     9
100
AcDbLine
 10
137.910839
 20
119.541182
 30
0.0
 11
137.910839
 21
126.041182
 31
0.0
  0
LINE
  5
172
100
AcDbEntity
  8
1
390
0
  6
DOT
 62
     9
100
AcDbLine
 10
138.804733
 20
126.041182
 30
0.0
 11
137.910839
 21
126.041182
 31
0.0
  0
LINE
  5
173
100
AcDbEntity
  8
1
390
0
  6
DOT
 62
     9
100
AcDbLine
 10
142.392745
 20
119.541182
 30
0.0
 11
142.392745
 21
126.041182
 31
0.0
  0
LINE
  5
174
100
AcDbEntity
  8
1
390
0
  6
DOT
 62
     9
100
AcDbLine
 10
142.392745
 20
126.041182
 30
0.0
 11
141.498851
 21
126.041182
 31
0.0
  0
LINE
  5
175
100
AcDbEntity
  8
1
390
0
  6
DOT
 62
     9
100
AcDbLine
 10
120.605107
 20
119.541182
 30
0.0
 11
120.605107
 21
126.041182
 31
0.0
  0
LINE
  5
176
100
AcDbEntity
  8
1
390
0
  6
DOT
 62
     9
100
AcDbLine
 10
121.105107
 20
126.041182
 30
0.0
 11
120.605107
 21
126.041182
 31
0.0
  0
LINE
  5
177
100
AcDbEntity
  8
1
390
0
  6
DOT
 62
     9
100
AcDbLine
 10
146.102648
 20
120.541182
 30
0.0
 11
146.102648
 21
121.541182
 31
0.0
  0
LINE
  5
178
100
AcDbEntity
  8
1
390
0
  6
DOT
 62
     9
100
AcDbLine
 10
144.601531
 20
120.541182
 30
0.0
 11
144.601531
 21
121.541182
 31
0.0
  0
LINE
  5
179
100
AcDbEntity
  8
1
390
0
  6
DOT
 62
     9
100
AcDbLine
 10
124.443677
 20
120.541182
 30
0.0
 11
124.443677
 21
121.541182
 31
0.0
  0
LINE
  5
17A
100
AcDbEntity
  8
1
390
0
  6
DOT
 62
     9
100
AcDbLine
 10
122.964005
 20
120.541182
 30
0.0
 11
122.964005
 21
121.541182
 31
0.0
  0
LINE
  5
17B
100
AcDbEntity
  8
1
390
0
  6
DOT
 62
     9
100
AcDbLine
 10
136.945836
 20
120.541182
 30
0.0
 11
136.945836
 21
121.541182
 31
0.0
  0
LINE
  5
17C
100
AcDbEntity
  8
1
390
0
  6
DOT
 62
     9
100
AcDbLine
 10
135.444719
 20
120.541182
 30
0.0
 11
135.444719
 21
121.541182
 31
0.0
  0
LINE
  5
17D
100
AcDbEntity
  8
1
390
0
  6
DOT
 62
     9
100
AcDbLine
 10
156.246252
 20
120.541182
 30
0.0
 11
156.246252
 21
121.541182
 31
0.0
  0
LINE
  5
17E
100
AcDbEntity
  8
1
390
0
  6
DOT
 62
     9
100
AcDbLine
 10
157.747368
 20
120.541182
 30
0.0
 11
157.747368
 21
121.541182
 31
0.0
  0
LINE
  5
17F
100
AcDbEntity
  8
1
390
0
  6
DOT
 62
     9
100
AcDbLine
 10
159.806043
 20
126.041182
 30
0.0
 11
159.806043
 21
126.341182
 31
0.0
  0
LINE
  5
180
100
AcDbEntity
  8
1
390
0
  6
DOT
 62
     9
100
AcDbLine
 10
154.209022
 20
126.041182
 30
0.0
 11
154.209022
 21
126.341182
 31
0.0
  0
LINE
  5
181
100
AcDbEntity
  8
1
390
0
  6
DOT
 62
     9
100
AcDbLine
 10
156.696587
 20
126.041182
 30
0.0
 11
156.396363
 21
126.041182
 31
0.0
  0
LINE
  5
182
100
AcDbEntity
  8
1
390
0
  6
DOT
 62
     9
100
AcDbLine
 10
154.809468
 20
126.341182
 30
0.0
 11
154.509245
 21
126.341182
 31
0.0
  0
LINE
  5
183
100
AcDbEntity
  8
1
390
0
  6
DOT
 62
     9
100
AcDbLine
 10
157.297033
 20
126.041182
 30
0.0
 11
157.297033
 21
126.341182
 31
0.0
  0
LINE
  5
184
100
AcDbEntity
  8
1
390
0
  6
DOT
 62
     9
100
AcDbLine
 10
154.209022
 20
126.041182
 30
0.0
 11
153.908798
 21
126.041182
 31
0.0
  0
LINE
  5
185
100
AcDbEntity
  8
1
390
0
  6
DOT
 62
     9
100
AcDbLine
 10
161.199937
 20
126.041182
 30
0.0
 11
159.806043
 21
126.041182
 31
0.0
  0
LINE
  5
186
100
AcDbEntity
  8
1
390
0
  6
DOT
 62
     9
100
AcDbLine
 10
146.896095
 20
126.041182
 30
0.0
 11
146.896095
 21
126.341182
 31
0.0
  0
LINE
  5
187
100
AcDbEntity
  8
1
390
0
  6
DOT
 62
     9
100
AcDbLine
 10
143.593638
 20
126.041182
 30
0.0
 11
142.392745
 21
126.041182
 31
0.0
  0
LINE
  5
188
100
AcDbEntity
  8
1
390
0
  6
DOT
 62
     9
100
AcDbLine
 10
147.003318
 20
126.041182
 30
0.0
 11
146.896095
 21
126.041182
 31
0.0
  0
LINE
  5
189
100
AcDbEntity
  8
1
390
0
  6
DOT
 62
     9
100
AcDbLine
 10
157.297033
 20
126.341182
 30
0.0
 11
156.99681
 21
126.341182
 31
0.0
  0
LINE
  5
18A
100
AcDbEntity
  8
1
390
0
  6
DOT
 62
     9
100
AcDbLine
 10
156.696587
 20
126.041182
 30
0.0
 11
156.696587
 21
126.341182
 31
0.0
  0
LINE
  5
18B
100
AcDbEntity
  8
1
390
0
  6
DOT
 62
     9
100
AcDbLine
 10
143.808084
 20
126.041182
 30
0.0
 11
143.808084
 21
126.341182
 31
0.0
  0
LINE
  5
18C
100
AcDbEntity
  8
1
390
0
  6
DOT
 62
     9
100
AcDbLine
 10
159.205596
 20
126.041182
 30
0.0
 11
159.205596
 21
126.341182
 31
0.0
  0
LINE
  5
18D
100
AcDbEntity
  8
1
390
0
  6
DOT
 62
     9
100
AcDbLine
 10
159.806043
 20
126.341182
 30
0.0
 11
159.205596
 21
126.341182
 31
0.0
  0
LINE
  5
18E
100
AcDbEntity
  8
1
390
0
  6
DOT
 62
     9
100
AcDbLine
 10
129.011361
 20
126.341182
 30
0.0
 11
128.410915
 21
126.341182
 31
0.0
  0
LINE
  5
18F
100
AcDbEntity
  8
1
390
0
  6
DOT
 62
     9
100
AcDbLine
 10
133.407489
 20
126.041182
 30
0.0
 11
133.407489
 21
126.341182
 31
0.0
  0
LINE
  5
190
100
AcDbEntity
  8
1
390
0
  6
DOT
 62
     9
100
AcDbLine
 10
128.410915
 20
126.041182
 30
0.0
 11
126.502352
 21
126.041182
 31
0.0
  0
LINE
  5
191
100
AcDbEntity
  8
1
390
0
  6
DOT
 62
     9
100
AcDbLine
 10
123.41434
 20
126.041182
 30
0.0
 11
123.41434
 21
126.341182
 31
0.0
  0
LINE
  5
192
100
AcDbEntity
  8
1
390
0
  6
DOT
 62
     9
100
AcDbLine
 10
136.495501
 20
126.041182
 30
0.0
 11
136.495501
 21
126.341182
 31
0.0
  0
LINE
  5
193
100
AcDbEntity
  8
1
390
0
  6
DOT
 62
     9
100
AcDbLine
 10
125.901905
 20
126.041182
 30
0.0
 11
124.014787
 21
126.041182
 31
0.0
  0
LINE
  5
194
100
AcDbEntity
  8
1
390
0
  6
DOT
 62
     9
100
AcDbLine
 10
125.901905
 20
126.041182
 30
0.0
 11
125.901905
 21
126.341182
 31
0.0
  0
LINE
  5
195
100
AcDbEntity
  8
1
390
0
  6
DOT
 62
     9
100
AcDbLine
 10
134.007936
 20
126.041182
 30
0.0
 11
134.007936
 21
126.341182
 31
0.0
  0
LINE
  5
196
100
AcDbEntity
  8
1
390
0
  6
DOT
 62
     9
100
AcDbLine
 10
131.498926
 20
126.041182
 30
0.0
 11
131.498926
 21
126.341182
 31
0.0
  0
LINE
  5
197
100
AcDbEntity
  8
1
390
0
  6
DOT
 62
     9
100
AcDbLine
 10
133.407489
 20
126.041182
 30
0.0
 11
131.498926
 21
126.041182
 31
0.0
  0
LINE
  5
198
100
AcDbEntity
  8
1
390
0
  6
DOT
 62
     9
100
AcDbLine
 10
135.895054
 20
126.041182
 30
0.0
 11
134.007936
 21
126.041182
 31
0.0
  0
LINE
  5
199
100
AcDbEntity
  8
1
390
0
  6
DOT
 62
     9
100
AcDbLine
 10
126.502352
 20
126.341182
 30
0.0
 11
125.901905
 21
126.341182
 31
0.0
  0
LINE
  5
19A
100
AcDbEntity
  8
1
390
0
  6
DOT
 62
     9
100
AcDbLine
 10
136.495501
 20
126.341182
 30
0.0
 11
135.895054
 21
126.341182
 31
0.0
  0
LINE
  5
19B
100
AcDbEntity
  8
1
390
0
  6
DOT
 62
     9
100
AcDbLine
 10
124.014787
 20
126.041182
 30
0.0
 11
124.014787
 21
126.341182
 31
0.0
  0
LINE
  5
19C
100
AcDbEntity
  8
1
390
0
  6
DOT
 62
     9
100
AcDbLine
 10
123.41434
 20
126.341182
 30
0.0
 11
124.014787
 21
126.341182
 31
0.0
  0
LINE
  5
19D
100
AcDbEntity
  8
1
390
0
  6
DOT
 62
     9
100
AcDbLine
 10
134.007936
 20
126.341182
 30
0.0
 11
133.407489
 21
126.341182
 31
0.0
  0
LINE
  5
19E
100
AcDbEntity
  8
1
390
0
  6
DOT
 62
     9
100
AcDbLine
 10
123.41434
 20
126.041182
 30
0.0
 11
121.999001
 21
126.041182
 31
0.0
  0
LINE
  5
19F
100
AcDbEntity
  8
1
390
0
  6
DOT
 62
     9
100
AcDbLine
 10
137.910839
 20
126.041182
 30
0.0
 11
136.495501
 21
126.041182
 31
0.0
  0
LINE
  5
1A0
100
AcDbEntity
  8
1
390
0
  6
DOT
 62
     9
100
AcDbLine
 10
135.895054
 20
126.041182
 30
0.0
 11
135.895054
 21
126.341182
 31
0.0
  0
LINE
  5
1A1
100
AcDbEntity
  8
1
390
0
  6
DOT
 62
     9
100
AcDbLine
 10
146.402871
 20
126.341182
 30
0.0
 11
146.295649
 21
126.341182
 31
0.0
  0
LINE
  5
1A2
100
AcDbEntity
  8
1
390
0
  6
DOT
 62
     9
100
AcDbLine
 10
131.498926
 20
126.341182
 30
0.0
 11
130.898479
 21
126.341182
 31
0.0
  0
LINE
  5
1A3
100
AcDbEntity
  8
1
390
0
  6
DOT
 62
     9
100
AcDbLine
 10
154.809468
 20
126.041182
 30
0.0
 11
154.809468
 21
126.341182
 31
0.0
  0
LINE
  5
1A4
100
AcDbEntity
  8
1
390
0
  6
DOT
 62
     9
100
AcDbLine
 10
130.898479
 20
126.041182
 30
0.0
 11
130.898479
 21
126.341182
 31
0.0
  0
LINE
  5
1A5
100
AcDbEntity
  8
1
390
0
  6
DOT
 62
     9
100
AcDbLine
 10
144.40853
 20
126.341182
 30
0.0
 11
143.808084
 21
126.341182
 31
0.0
  0
LINE
  5
1A6
100
AcDbEntity
  8
1
390
0
  6
DOT
 62
     9
100
AcDbLine
 10
129.011361
 20
126.041182
 30
0.0
 11
129.011361
 21
126.341182
 31
0.0
  0
LINE
  5
1A7
100
AcDbEntity
  8
1
390
0
  6
DOT
 62
     9
100
AcDbLine
 10
126.502352
 20
126.041182
 30
0.0
 11
126.502352
 21
126.341182
 31
0.0
  0
LINE
  5
1A8
100
AcDbEntity
  8
1
390
0
  6
DOT
 62
     9
100
AcDbLine
 10
128.410915
 20
126.041182
 30
0.0
 11
128.410915
 21
126.341182
 31
0.0
  0
LINE
  5
1A9
100
AcDbEntity
  8
1
390
0
  6
DOT
 62
     9
100
AcDbLine
 10
144.40853
 20
126.041182
 30
0.0
 11
144.40853
 21
126.341182
 31
0.0
  0
LINE
  5
1AA
100
AcDbEntity
  8
1
390
0
  6
DOT
 62
     9
100
AcDbLine
 10
130.898479
 20
126.041182
 30
0.0
 11
129.011361
 21
126.041182
 31
0.0
  0
LINE
  5
1AB
100
AcDbEntity
  8
1
390
0
  6
DOT
 62
     9
100
AcDbLine
 10
146.295649
 20
126.041182
 30
0.0
 11
146.295649
 21
126.341182
 31
0.0
  0
LINE
  5
1AC
100
AcDbEntity
  8
1
390
0
  6
DOT
 62
     9
100
AcDbLine
 10
147.75405
 20
122.041182
 30
0.0
 11
147.65405
 21
122.041182
 31
0.0
  0
LINE
  5
1AD
100
AcDbEntity
  8
1
390
0
  6
DOT
 62
     9
100
AcDbLine
 10
155.95405
 20
122.041182
 30
0.0
 11
155.65405
 21
122.041182
 31
0.0
  0
LINE
  5
1AE
100
AcDbEntity
  8
1
390
0
  6
DOT
 62
     9
100
AcDbLine
 10
145.25405
 20
122.041182
 30
0.0
 11
145.15405
 21
122.041182
 31
0.0
  0
LINE
  5
1AF
100
AcDbEntity
  8
1
390
0
  6
DOT
 62
     9
100
AcDbLine
 10
160.95405
 20
122.041182
 30
0.0
 11
160.55405
 21
122.041182
 31
0.0
  0
LINE
  5
1B0
100
AcDbEntity
  8
1
390
0
  6
DOT
 62
     9
100
AcDbLine
 10
125.15405
 20
122.041182
 30
0.0
 11
124.75405
 21
122.041182
 31
0.0
  0
LINE
  5
1B1
100
AcDbEntity
  8
1
390
0
  6
DOT
 62
     9
100
AcDbLine
 10
143.05405
 20
122.041182
 30
0.0
 11
142.65405
 21
122.041182
 31
0.0
  0
LINE
  5
1B2
100
AcDbEntity
  8
1
390
0
  6
DOT
 62
     9
100
AcDbLine
 10
127.65405
 20
122.041182
 30
0.0
 11
127.25405
 21
122.041182
 31
0.0
  0
LINE
  5
1B3
100
AcDbEntity
  8
1
390
0
  6
DOT
 62
     9
100
AcDbLine
 10
132.65405
 20
122.041182
 30
0.0
 11
132.25405
 21
122.041182
 31
0.0
  0
LINE
  5
1B4
100
AcDbEntity
  8
1
390
0
  6
DOT
 62
     9
100
AcDbLine
 10
135.15405
 20
122.041182
 30
0.0
 11
134.75405
 21
122.041182
 31
0.0
  0
LINE
  5
1B5
100
AcDbEntity
  8
1
390
0
  6
DOT
 62
     9
100
AcDbLine
 10
153.45405
 20
122.041182
 30
0.0
 11
153.15405
 21
122.041182
 31
0.0
  0
LINE
  5
1B6
100
AcDbEntity
  8
1
390
0
  6
DOT
 62
     9
100
AcDbLine
 10
122.65405
 20
122.041182
 30
0.0
 11
122.25405
 21
122.041182
 31
0.0
  0
LINE
  5
1B7
100
AcDbEntity
  8
1
390
0
  6
DOT
 62
     9
100
AcDbLine
 10
158.45405
 20
122.041182
 30
0.0
 11
158.15405
 21
122.041182
 31
0.0
  0
LINE
  5
1B8
100
AcDbEntity
  8
1
390
0
  6
DOT
 62
     9
100
AcDbLine
 10
130.15405
 20
122.041182
 30
0.0
 11
129.75405
 21
122.041182
 31
0.0
  0
LINE
  5
1B9
100
AcDbEntity
  8
1
390
0
  6
DOT
 62
     9
100
AcDbLine
 10
137.65405
 20
122.041182
 30
0.0
 11
137.25405
 21
122.041182
 31
0.0
  0
LINE
  5
1BA
100
AcDbEntity
  8
1
390
0
  6
DOT
 62
     9
100
AcDbLine
 10
170.45405
 20
175.03877
 30
0.0
 11
162.443719
 21
185.046315
 31
0.0
  0
LINE
  5
1BB
100
AcDbEntity
  8
1
390
0
  6
DOT
 62
     9
100
AcDbLine
 10
162.443719
 20
215.047206
 30
0.0
 11
170.45405
 21
215.193736
 31
0.0
  0
LINE
  5
1BC
100
AcDbEntity
  8
1
390
0
  6
DOT
 62
     9
100
AcDbLine
 10
162.443719
 20
185.046315
 30
0.0
 11
162.443719
 21
215.047206
 31
0.0
  0
LINE
  5
1BD
100
AcDbEntity
  8
1
390
0
  6
Continuous
 62
     7
100
AcDbLine
 10
82.30405
 20
118.441182
 30
0.0
 11
79.60405
 21
118.441182
 31
0.0
  0
LINE
  5
1BE
100
AcDbEntity
  8
1
390
0
  6
Continuous
 62
     7
100
AcDbLine
 10
90.30405
 20
118.441182
 30
0.0
 11
87.60405
 21
118.441182
 31
0.0
  0
LINE
  5
1BF
100
AcDbEntity
  8
1
390
0
  6
Continuous
 62
     7
100
AcDbLine
 10
106.30405
 20
118.441182
 30
0.0
 11
103.60405
 21
118.441182
 31
0.0
  0
LINE
  5
1C0
100
AcDbEntity
  8
1
390
0
  6
Continuous
 62
     7
100
AcDbLine
 10
98.30405
 20
118.441182
 30
0.0
 11
95.60405
 21
118.441182
 31
0.0
  0
LINE
  5
1C1
100
AcDbEntity
  8
1
390
0
  6
Continuous
 62
     7
100
AcDbLine
 10
160.40649
 20
119.541182
 30
0.0
 11
160.942603
 21
119.541182
 31
0.0
  0
LINE
  5
1C2
100
AcDbEntity
  8
1
390
0
  6
Continuous
 62
     7
100
AcDbLine
 10
142.650079
 20
119.541182
 30
0.0
 11
142.993192
 21
119.541182
 31
0.0
  0
LINE
  5
1C3
100
AcDbEntity
  8
1
390
0
  6
Continuous
 62
     7
100
AcDbLine
 10
122.256336
 20
119.541182
 30
0.0
 11
137.653505
 21
119.541182
 31
0.0
  0
LINE
  5
1C4
100
AcDbEntity
  8
1
390
0
  6
DOT
 62
     9
100
AcDbLine
 10
130.362366
 20
119.541182
 30
0.0
 11
130.362366
 21
121.541182
 31
0.0
  0
LINE
  5
1C5
100
AcDbEntity
  8
1
390
0
  6
DOT
 62
     9
100
AcDbLine
 10
132.056484
 20
119.541182
 30
0.0
 11
132.056484
 21
121.541182
 31
0.0
  0
LINE
  5
1C6
100
AcDbEntity
  8
1
390
0
  6
DOT
 62
     9
100
AcDbLine
 10
142.457079
 20
119.541182
 30
0.0
 11
142.457079
 21
121.541182
 31
0.0
  0
LINE
  5
1C7
100
AcDbEntity
  8
1
390
0
  6
DOT
 62
     9
100
AcDbLine
 10
143.250526
 20
119.541182
 30
0.0
 11
143.250526
 21
121.541182
 31
0.0
  0
LINE
  5
1C8
100
AcDbEntity
  8
1
390
0
  6
DOT
 62
     9
100
AcDbLine
 10
129.547474
 20
119.541182
 30
0.0
 11
129.547474
 21
121.541182
 31
0.0
  0
LINE
  5
1C9
100
AcDbEntity
  8
1
390
0
  6
DOT
 62
     9
100
AcDbLine
 10
157.854591
 20
119.541182
 30
0.0
 11
157.854591
 21
121.541182
 31
0.0
  0
LINE
  5
1CA
100
AcDbEntity
  8
1
390
0
  6
DOT
 62
     9
100
AcDbLine
 10
148.247444
 20
119.541182
 30
0.0
 11
148.247444
 21
121.541182
 31
0.0
  0
LINE
  5
1CB
100
AcDbEntity
  8
1
390
0
  6
DOT
 62
     9
100
AcDbLine
 10
147.453653
 20
119.541182
 30
0.0
 11
147.453653
 21
120.541182
 31
0.0
  0
LINE
  5
1CC
100
AcDbEntity
  8
1
390
0
  6
DOT
 62
     9
100
AcDbLine
 10
144.944644
 20
119.541182
 30
0.0
 11
144.944644
 21
121.541182
 31
0.0
  0
LINE
  5
1CD
100
AcDbEntity
  8
1
390
0
  6
DOT
 62
     9
100
AcDbLine
 10
132.849931
 20
119.541182
 30
0.0
 11
132.849931
 21
121.541182
 31
0.0
  0
LINE
  5
1CE
100
AcDbEntity
  8
1
390
0
  6
DOT
 62
     9
100
AcDbLine
 10
122.856782
 20
119.541182
 30
0.0
 11
122.856782
 21
121.541182
 31
0.0
  0
LINE
  5
1CF
100
AcDbEntity
  8
1
390
0
  6
DOT
 62
     9
100
AcDbLine
 10
122.063335
 20
119.541182
 30
0.0
 11
122.063335
 21
121.541182
 31
0.0
  0
LINE
  5
1D0
100
AcDbEntity
  8
1
390
0
  6
DOT
 62
     9
100
AcDbLine
 10
158.648038
 20
119.541182
 30
0.0
 11
158.648038
 21
121.541182
 31
0.0
  0
LINE
  5
1D1
100
AcDbEntity
  8
1
390
0
  6
DOT
 62
     9
100
AcDbLine
 10
127.853357
 20
119.541182
 30
0.0
 11
127.853357
 21
121.541182
 31
0.0
  0
LINE
  5
1D2
100
AcDbEntity
  8
1
390
0
  6
DOT
 62
     9
100
AcDbLine
 10
127.059909
 20
119.541182
 30
0.0
 11
127.059909
 21
121.541182
 31
0.0
  0
LINE
  5
1D3
100
AcDbEntity
  8
1
390
0
  6
DOT
 62
     9
100
AcDbLine
 10
145.759536
 20
119.541182
 30
0.0
 11
145.759536
 21
121.541182
 31
0.0
  0
LINE
  5
1D4
100
AcDbEntity
  8
1
390
0
  6
DOT
 62
     9
100
AcDbLine
 10
135.358941
 20
119.541182
 30
0.0
 11
135.358941
 21
121.541182
 31
0.0
  0
LINE
  5
1D5
100
AcDbEntity
  8
1
390
0
  6
DOT
 62
     9
100
AcDbLine
 10
134.544049
 20
119.541182
 30
0.0
 11
134.544049
 21
121.541182
 31
0.0
  0
LINE
  5
1D6
100
AcDbEntity
  8
1
390
0
  6
DOT
 62
     9
100
AcDbLine
 10
153.651464
 20
119.541182
 30
0.0
 11
153.651464
 21
121.541182
 31
0.0
  0
LINE
  5
1D7
100
AcDbEntity
  8
1
390
0
  6
DOT
 62
     9
100
AcDbLine
 10
152.858017
 20
119.541182
 30
0.0
 11
152.858017
 21
121.541182
 31
0.0
  0
LINE
  5
1D8
100
AcDbEntity
  8
1
390
0
  6
DOT
 62
     9
100
AcDbLine
 10
137.846506
 20
119.541182
 30
0.0
 11
137.846506
 21
121.541182
 31
0.0
  0
LINE
  5
1D9
100
AcDbEntity
  8
1
390
0
  6
DOT
 62
     9
100
AcDbLine
 10
161.157048
 20
119.541182
 30
0.0
 11
161.157048
 21
121.541182
 31
0.0
  0
LINE
  5
1DA
100
AcDbEntity
  8
1
390
0
  6
DOT
 62
     9
100
AcDbLine
 10
160.342156
 20
119.541182
 30
0.0
 11
160.342156
 21
121.541182
 31
0.0
  0
LINE
  5
1DB
100
AcDbEntity
  8
1
390
0
  6
DOT
 62
     9
100
AcDbLine
 10
155.345582
 20
119.541182
 30
0.0
 11
155.345582
 21
121.541182
 31
0.0
  0
LINE
  5
1DC
100
AcDbEntity
  8
1
390
0
  6
DOT
 62
     9
100
AcDbLine
 10
125.344347
 20
119.541182
 30
0.0
 11
125.344347
 21
121.541182
 31
0.0
  0
LINE
  5
1DD
100
AcDbEntity
  8
1
390
0
  6
DOT
 62
     9
100
AcDbLine
 10
124.5509
 20
119.541182
 30
0.0
 11
124.5509
 21
121.541182
 31
0.0
  0
LINE
  5
1DE
100
AcDbEntity
  8
1
390
0
  6
DOT
 62
     9
100
AcDbLine
 10
137.053058
 20
119.541182
 30
0.0
 11
137.053058
 21
121.541182
 31
0.0
  0
LINE
  5
1DF
100
AcDbEntity
  8
1
390
0
  6
DOT
 62
     9
100
AcDbLine
 10
156.160473
 20
119.541182
 30
0.0
 11
156.160473
 21
121.541182
 31
0.0
  0
LINE
  5
1E0
100
AcDbEntity
  8
1
390
0
  6
DOT
 62
     9
100
AcDbLine
 10
170.45405
 20
215.193736
 30
0.0
 11
169.45405
 21
216.175611
 31
0.0
  0
LINE
  5
1E1
100
AcDbEntity
  8
1
390
0
  6
DOT
 62
     9
100
AcDbLine
 10
162.443719
 20
215.047206
 30
0.0
 11
161.443719
 21
216.02908
 31
0.0
  0
LINE
  5
1E2
100
AcDbEntity
  8
1
390
0
  6
DOT
 62
     9
100
AcDbLine
 10
170.45405
 20
175.03877
 30
0.0
 11
169.45405
 21
174.687842
 31
0.0
  0
LINE
  5
1E3
100
AcDbEntity
  8
1
390
0
  6
DOT
 62
     9
100
AcDbLine
 10
162.443719
 20
185.046315
 30
0.0
 11
161.443719
 21
184.695387
 31
0.0
  0
LINE
  5
1E4
100
AcDbEntity
  8
1
390
0
  6
DOT
 62
     9
100
AcDbLine
 10
150.75405
 20
122.141182
 30
0.0
 11
150.75405
 21
126.041182
 31
0.0
  0
LINE
  5
1E5
100
AcDbEntity
  8
1
390
0
  6
DOT
 62
     9
100
AcDbLine
 10
150.15405
 20
126.041182
 30
0.0
 11
150.15405
 21
122.141182
 31
0.0
  0
ARC
  5
1E6
100
AcDbEntity
  8
1
390
0
  6
DOT
 62
     9
100
AcDbCircle
 10
145.65405
 20
122.141182
 30
0.0
 40
0.1
210
0.0
220
0.0
230
1.0
100
AcDbArc
 50
270.0
 51
360.0
  0
ARC
  5
1E7
100
AcDbEntity
  8
1
390
0
  6
DOT
 62
     9
100
AcDbCircle
 10
145.25405
 20
122.141182
 30
0.0
 40
0.1
210
0.0
220
0.0
230
1.0
100
AcDbArc
 50
180.0
 51
270.0
  0
ARC
  5
1E8
100
AcDbEntity
  8
1
390
0
  6
DOT
 62
     9
100
AcDbCircle
 10
148.15405
 20
122.141182
 30
0.0
 40
0.1
210
0.0
220
0.0
230
1.0
100
AcDbArc
 50
270.0
 51
360.0
  0
ARC
  5
1E9
100
AcDbEntity
  8
1
390
0
  6
DOT
 62
     9
100
AcDbCircle
 10
147.75405
 20
122.141182
 30
0.0
 40
0.1
210
0.0
220
0.0
230
1.0
100
AcDbArc
 50
180.0
 51
270.0
  0
LINE
  5
1EA
100
AcDbEntity
  8
1
390
0
  6
DOT
 62
     9
100
AcDbLine
 10
145.75405
 20
122.141182
 30
0.0
 11
145.75405
 21
126.041182
 31
0.0
  0
LINE
  5
1EB
100
AcDbEntity
  8
1
390
0
  6
DOT
 62
     9
100
AcDbLine
 10
145.15405
 20
126.041182
 30
0.0
 11
145.15405
 21
122.141182
 31
0.0
  0
ARC
  5
1EC
100
AcDbEntity
  8
1
390
0
  6
DOT
 62
     9
100
AcDbCircle
 10
150.65405
 20
122.141182
 30
0.0
 40
0.1
210
0.0
220
0.0
230
1.0
100
AcDbArc
 50
270.0
 51
360.0
  0
ARC
  5
1ED
100
AcDbEntity
  8
1
390
0
  6
DOT
 62
     9
100
AcDbCircle
 10
150.25405
 20
122.141182
 30
0.0
 40
0.1
210
0.0
220
0.0
230
1.0
100
AcDbArc
 50
180.0
 51
270.0
  0
LINE
  5
1EE
100
AcDbEntity
  8
1
390
0
  6
DOT
 62
     9
100
AcDbLine
 10
148.25405
 20
122.141182
 30
0.0
 11
148.25405
 21
126.041182
 31
0.0
  0
LINE
  5
1EF
100
AcDbEntity
  8
1
390
0
  6
DOT
 62
     9
100
AcDbLine
 10
147.65405
 20
126.041182
 30
0.0
 11
147.65405
 21
122.141182
 31
0.0
  0
ARC
  5
1F0
100
AcDbEntity
  8
1
390
0
  6
DOT
 62
     9
100
AcDbCircle
 10
158.15405
 20
122.141182
 30
0.0
 40
0.1
210
0.0
220
0.0
230
1.0
100
AcDbArc
 50
270.0
 51
360.0
  0
ARC
  5
1F1
100
AcDbEntity
  8
1
390
0
  6
DOT
 62
     9
100
AcDbCircle
 10
157.75405
 20
122.141182
 30
0.0
 40
0.1
210
0.0
220
0.0
230
1.0
100
AcDbArc
 50
180.0
 51
270.0
  0
ARC
  5
1F2
100
AcDbEntity
  8
1
390
0
  6
DOT
 62
     9
100
AcDbCircle
 10
155.65405
 20
122.141182
 30
0.0
 40
0.1
210
0.0
220
0.0
230
1.0
100
AcDbArc
 50
270.0
 51
360.0
  0
ARC
  5
1F3
100
AcDbEntity
  8
1
390
0
  6
DOT
 62
     9
100
AcDbCircle
 10
155.25405
 20
122.141182
 30
0.0
 40
0.1
210
0.0
220
0.0
230
1.0
100
AcDbArc
 50
180.0
 51
270.0
  0
LINE
  5
1F4
100
AcDbEntity
  8
1
390
0
  6
DOT
 62
     9
100
AcDbLine
 10
155.75405
 20
122.141182
 30
0.0
 11
155.75405
 21
126.041182
 31
0.0
  0
LINE
  5
1F5
100
AcDbEntity
  8
1
390
0
  6
DOT
 62
     9
100
AcDbLine
 10
155.15405
 20
126.041182
 30
0.0
 11
155.15405
 21
122.141182
 31
0.0
  0
ARC
  5
1F6
100
AcDbEntity
  8
1
390
0
  6
DOT
 62
     9
100
AcDbCircle
 10
153.15405
 20
122.141182
 30
0.0
 40
0.1
210
0.0
220
0.0
230
1.0
100
AcDbArc
 50
270.0
 51
360.0
  0
ARC
  5
1F7
100
AcDbEntity
  8
1
390
0
  6
DOT
 62
     9
100
AcDbCircle
 10
152.75405
 20
122.141182
 30
0.0
 40
0.1
210
0.0
220
0.0
230
1.0
100
AcDbArc
 50
180.0
 51
270.0
  0
LINE
  5
1F8
100
AcDbEntity
  8
1
390
0
  6
DOT
 62
     9
100
AcDbLine
 10
153.25405
 20
122.141182
 30
0.0
 11
153.25405
 21
126.041182
 31
0.0
  0
LINE
  5
1F9
100
AcDbEntity
  8
1
390
0
  6
DOT
 62
     9
100
AcDbLine
 10
152.65405
 20
126.041182
 30
0.0
 11
152.65405
 21
122.141182
 31
0.0
  0
LINE
  5
1FA
100
AcDbEntity
  8
1
390
0
  6
DOT
 62
     9
100
AcDbLine
 10
158.25405
 20
122.141182
 30
0.0
 11
158.25405
 21
126.041182
 31
0.0
  0
LINE
  5
1FB
100
AcDbEntity
  8
1
390
0
  6
DOT
 62
     9
100
AcDbLine
 10
157.65405
 20
126.041182
 30
0.0
 11
157.65405
 21
122.141182
 31
0.0
  0
LINE
  5
1FC
100
AcDbEntity
  8
1
390
0
  6
DOT
 62
     9
100
AcDbLine
 10
156.05405
 20
122.141182
 30
0.0
 11
156.05405
 21
126.041182
 31
0.0
  0
LINE
  5
1FD
100
AcDbEntity
  8
1
390
0
  6
DOT
 62
     9
100
AcDbLine
 10
155.45405
 20
126.041182
 30
0.0
 11
155.45405
 21
122.141182
 31
0.0
  0
ARC
  5
1FE
100
AcDbEntity
  8
1
390
0
  6
DOT
 62
     9
100
AcDbCircle
 10
148.05405
 20
122.141182
 30
0.0
 40
0.1
210
0.0
220
0.0
230
1.0
100
AcDbArc
 50
270.0
 51
360.0
  0
ARC
  5
1FF
100
AcDbEntity
  8
1
390
0
  6
DOT
 62
     9
100
AcDbCircle
 10
147.65405
 20
122.141182
 30
0.0
 40
0.1
210
0.0
220
0.0
230
1.0
100
AcDbArc
 50
180.0
 51
270.0
  0
LINE
  5
200
100
AcDbEntity
  8
1
390
0
  6
DOT
 62
     9
100
AcDbLine
 10
148.15405
 20
122.141182
 30
0.0
 11
148.15405
 21
126.041182
 31
0.0
  0
LINE
  5
201
100
AcDbEntity
  8
1
390
0
  6
DOT
 62
     9
100
AcDbLine
 10
147.55405
 20
126.041182
 30
0.0
 11
147.55405
 21
122.141182
 31
0.0
  0
LINE
  5
202
100
AcDbEntity
  8
1
390
0
  6
DOT
 62
     9
100
AcDbLine
 10
125.25405
 20
122.141182
 30
0.0
 11
125.25405
 21
126.041182
 31
0.0
  0
LINE
  5
203
100
AcDbEntity
  8
1
390
0
  6
DOT
 62
     9
100
AcDbLine
 10
124.65405
 20
126.041182
 30
0.0
 11
124.65405
 21
122.141182
 31
0.0
  0
ARC
  5
204
100
AcDbEntity
  8
1
390
0
  6
DOT
 62
     9
100
AcDbCircle
 10
155.95405
 20
122.141182
 30
0.0
 40
0.1
210
0.0
220
0.0
230
1.0
100
AcDbArc
 50
270.0
 51
360.0
  0
ARC
  5
205
100
AcDbEntity
  8
1
390
0
  6
DOT
 62
     9
100
AcDbCircle
 10
155.55405
 20
122.141182
 30
0.0
 40
0.1
210
0.0
220
0.0
230
1.0
100
AcDbArc
 50
180.0
 51
270.0
  0
LINE
  5
206
100
AcDbEntity
  8
1
390
0
  6
DOT
 62
     9
100
AcDbLine
 10
153.55405
 20
122.141182
 30
0.0
 11
153.55405
 21
126.041182
 31
0.0
  0
LINE
  5
207
100
AcDbEntity
  8
1
390
0
  6
DOT
 62
     9
100
AcDbLine
 10
152.95405
 20
126.041182
 30
0.0
 11
152.95405
 21
122.141182
 31
0.0
  0
LINE
  5
208
100
AcDbEntity
  8
1
390
0
  6
DOT
 62
     9
100
AcDbLine
 10
143.15405
 20
122.141182
 30
0.0
 11
143.15405
 21
126.041182
 31
0.0
  0
LINE
  5
209
100
AcDbEntity
  8
1
390
0
  6
DOT
 62
     9
100
AcDbLine
 10
142.55405
 20
126.041182
 30
0.0
 11
142.55405
 21
122.141182
 31
0.0
  0
ARC
  5
20A
100
AcDbEntity
  8
1
390
0
  6
DOT
 62
     9
100
AcDbCircle
 10
145.55405
 20
122.141182
 30
0.0
 40
0.1
210
0.0
220
0.0
230
1.0
100
AcDbArc
 50
270.0
 51
360.0
  0
ARC
  5
20B
100
AcDbEntity
  8
1
390
0
  6
DOT
 62
     9
100
AcDbCircle
 10
145.15405
 20
122.141182
 30
0.0
 40
0.1
210
0.0
220
0.0
230
1.0
100
AcDbArc
 50
180.0
 51
270.0
  0
ARC
  5
20C
100
AcDbEntity
  8
1
390
0
  6
DOT
 62
     9
100
AcDbCircle
 10
160.95405
 20
122.141182
 30
0.0
 40
0.1
210
0.0
220
0.0
230
1.0
100
AcDbArc
 50
270.0
 51
360.0
  0
ARC
  5
20D
100
AcDbEntity
  8
1
390
0
  6
DOT
 62
     9
100
AcDbCircle
 10
160.55405
 20
122.141182
 30
0.0
 40
0.1
210
0.0
220
0.0
230
1.0
100
AcDbArc
 50
180.0
 51
270.0
  0
LINE
  5
20E
100
AcDbEntity
  8
1
390
0
  6
DOT
 62
     9
100
AcDbLine
 10
158.55405
 20
122.141182
 30
0.0
 11
158.55405
 21
126.041182
 31
0.0
  0
LINE
  5
20F
100
AcDbEntity
  8
1
390
0
  6
DOT
 62
     9
100
AcDbLine
 10
157.95405
 20
126.041182
 30
0.0
 11
157.95405
 21
122.141182
 31
0.0
  0
LINE
  5
210
100
AcDbEntity
  8
1
390
0
  6
DOT
 62
     9
100
AcDbLine
 10
122.75405
 20
122.141182
 30
0.0
 11
122.75405
 21
126.041182
 31
0.0
  0
LINE
  5
211
100
AcDbEntity
  8
1
390
0
  6
DOT
 62
     9
100
AcDbLine
 10
122.15405
 20
126.041182
 30
0.0
 11
122.15405
 21
122.141182
 31
0.0
  0
ARC
  5
212
100
AcDbEntity
  8
1
390
0
  6
DOT
 62
     9
100
AcDbCircle
 10
125.15405
 20
122.141182
 30
0.0
 40
0.1
210
0.0
220
0.0
230
1.0
100
AcDbArc
 50
270.0
 51
360.0
  0
ARC
  5
213
100
AcDbEntity
  8
1
390
0
  6
DOT
 62
     9
100
AcDbCircle
 10
124.75405
 20
122.141182
 30
0.0
 40
0.1
210
0.0
220
0.0
230
1.0
100
AcDbArc
 50
180.0
 51
270.0
  0
ARC
  5
214
100
AcDbEntity
  8
1
390
0
  6
DOT
 62
     9
100
AcDbCircle
 10
143.05405
 20
122.141182
 30
0.0
 40
0.1
210
0.0
220
0.0
230
1.0
100
AcDbArc
 50
270.0
 51
360.0
  0
ARC
  5
215
100
AcDbEntity
  8
1
390
0
  6
DOT
 62
     9
100
AcDbCircle
 10
142.65405
 20
122.141182
 30
0.0
 40
0.1
210
0.0
220
0.0
230
1.0
100
AcDbArc
 50
180.0
 51
270.0
  0
LINE
  5
216
100
AcDbEntity
  8
1
390
0
  6
DOT
 62
     9
100
AcDbLine
 10
145.65405
 20
122.141182
 30
0.0
 11
145.65405
 21
126.041182
 31
0.0
  0
LINE
  5
217
100
AcDbEntity
  8
1
390
0
  6
DOT
 62
     9
100
AcDbLine
 10
145.05405
 20
126.041182
 30
0.0
 11
145.05405
 21
122.141182
 31
0.0
  0
LINE
  5
218
100
AcDbEntity
  8
1
390
0
  6
DOT
 62
     9
100
AcDbLine
 10
161.05405
 20
122.141182
 30
0.0
 11
161.05405
 21
126.041182
 31
0.0
  0
LINE
  5
219
100
AcDbEntity
  8
1
390
0
  6
DOT
 62
     9
100
AcDbLine
 10
160.45405
 20
126.041182
 30
0.0
 11
160.45405
 21
122.141182
 31
0.0
  0
LINE
  5
21A
100
AcDbEntity
  8
1
390
0
  6
DOT
 62
     9
100
AcDbLine
 10
132.75405
 20
122.141182
 30
0.0
 11
132.75405
 21
126.041182
 31
0.0
  0
LINE
  5
21B
100
AcDbEntity
  8
1
390
0
  6
DOT
 62
     9
100
AcDbLine
 10
132.15405
 20
126.041182
 30
0.0
 11
132.15405
 21
122.141182
 31
0.0
  0
ARC
  5
21C
100
AcDbEntity
  8
1
390
0
  6
DOT
 62
     9
100
AcDbCircle
 10
127.65405
 20
122.141182
 30
0.0
 40
0.1
210
0.0
220
0.0
230
1.0
100
AcDbArc
 50
270.0
 51
360.0
  0
ARC
  5
21D
100
AcDbEntity
  8
1
390
0
  6
DOT
 62
     9
100
AcDbCircle
 10
127.25405
 20
122.141182
 30
0.0
 40
0.1
210
0.0
220
0.0
230
1.0
100
AcDbArc
 50
180.0
 51
270.0
  0
ARC
  5
21E
100
AcDbEntity
  8
1
390
0
  6
DOT
 62
     9
100
AcDbCircle
 10
132.65405
 20
122.141182
 30
0.0
 40
0.1
210
0.0
220
0.0
230
1.0
100
AcDbArc
 50
270.0
 51
360.0
  0
ARC
  5
21F
100
AcDbEntity
  8
1
390
0
  6
DOT
 62
     9
100
AcDbCircle
 10
132.25405
 20
122.141182
 30
0.0
 40
0.1
210
0.0
220
0.0
230
1.0
100
AcDbArc
 50
180.0
 51
270.0
  0
ARC
  5
220
100
AcDbEntity
  8
1
390
0
  6
DOT
 62
     9
100
AcDbCircle
 10
135.15405
 20
122.141182
 30
0.0
 40
0.1
210
0.0
220
0.0
230
1.0
100
AcDbArc
 50
270.0
 51
360.0
  0
ARC
  5
221
100
AcDbEntity
  8
1
390
0
  6
DOT
 62
     9
100
AcDbCircle
 10
134.75405
 20
122.141182
 30
0.0
 40
0.1
210
0.0
220
0.0
230
1.0
100
AcDbArc
 50
180.0
 51
270.0
  0
ARC
  5
222
100
AcDbEntity
  8
1
390
0
  6
DOT
 62
     9
100
AcDbCircle
 10
153.45405
 20
122.141182
 30
0.0
 40
0.1
210
0.0
220
0.0
230
1.0
100
AcDbArc
 50
270.0
 51
360.0
  0
ARC
  5
223
100
AcDbEntity
  8
1
390
0
  6
DOT
 62
     9
100
AcDbCircle
 10
153.05405
 20
122.141182
 30
0.0
 40
0.1
210
0.0
220
0.0
230
1.0
100
AcDbArc
 50
180.0
 51
270.0
  0
ARC
  5
224
100
AcDbEntity
  8
1
390
0
  6
DOT
 62
     9
100
AcDbCircle
 10
122.65405
 20
122.141182
 30
0.0
 40
0.1
210
0.0
220
0.0
230
1.0
100
AcDbArc
 50
270.0
 51
360.0
  0
ARC
  5
225
100
AcDbEntity
  8
1
390
0
  6
DOT
 62
     9
100
AcDbCircle
 10
122.25405
 20
122.141182
 30
0.0
 40
0.1
210
0.0
220
0.0
230
1.0
100
AcDbArc
 50
180.0
 51
270.0
  0
ARC
  5
226
100
AcDbEntity
  8
1
390
0
  6
DOT
 62
     9
100
AcDbCircle
 10
158.45405
 20
122.141182
 30
0.0
 40
0.1
210
0.0
220
0.0
230
1.0
100
AcDbArc
 50
270.0
 51
360.0
  0
ARC
  5
227
100
AcDbEntity
  8
1
390
0
  6
DOT
 62
     9
100
AcDbCircle
 10
158.05405
 20
122.141182
 30
0.0
 40
0.1
210
0.0
220
0.0
230
1.0
100
AcDbArc
 50
180.0
 51
270.0
  0
LINE
  5
228
100
AcDbEntity
  8
1
390
0
  6
DOT
 62
     9
100
AcDbLine
 10
135.25405
 20
122.141182
 30
0.0
 11
135.25405
 21
126.041182
 31
0.0
  0
LINE
  5
229
100
AcDbEntity
  8
1
390
0
  6
DOT
 62
     9
100
AcDbLine
 10
134.65405
 20
126.041182
 30
0.0
 11
134.65405
 21
122.141182
 31
0.0
  0
ARC
  5
22A
100
AcDbEntity
  8
1
390
0
  6
DOT
 62
     9
100
AcDbCircle
 10
130.15405
 20
122.141182
 30
0.0
 40
0.1
210
0.0
220
0.0
230
1.0
100
AcDbArc
 50
270.0
 51
360.0
  0
ARC
  5
22B
100
AcDbEntity
  8
1
390
0
  6
DOT
 62
     9
100
AcDbCircle
 10
129.75405
 20
122.141182
 30
0.0
 40
0.1
210
0.0
220
0.0
230
1.0
100
AcDbArc
 50
180.0
 51
270.0
  0
LINE
  5
22C
100
AcDbEntity
  8
1
390
0
  6
DOT
 62
     9
100
AcDbLine
 10
127.75405
 20
122.141182
 30
0.0
 11
127.75405
 21
126.041182
 31
0.0
  0
LINE
  5
22D
100
AcDbEntity
  8
1
390
0
  6
DOT
 62
     9
100
AcDbLine
 10
127.15405
 20
126.041182
 30
0.0
 11
127.15405
 21
122.141182
 31
0.0
  0
LINE
  5
22E
100
AcDbEntity
  8
1
390
0
  6
DOT
 62
     9
100
AcDbLine
 10
130.25405
 20
122.141182
 30
0.0
 11
130.25405
 21
126.041182
 31
0.0
  0
LINE
  5
22F
100
AcDbEntity
  8
1
390
0
  6
DOT
 62
     9
100
AcDbLine
 10
129.65405
 20
126.041182
 30
0.0
 11
129.65405
 21
122.141182
 31
0.0
  0
ARC
  5
230
100
AcDbEntity
  8
1
390
0
  6
DOT
 62
     9
100
AcDbCircle
 10
137.65405
 20
122.141182
 30
0.0
 40
0.1
210
0.0
220
0.0
230
1.0
100
AcDbArc
 50
270.0
 51
360.0
  0
ARC
  5
231
100
AcDbEntity
  8
1
390
0
  6
DOT
 62
     9
100
AcDbCircle
 10
137.25405
 20
122.141182
 30
0.0
 40
0.1
210
0.0
220
0.0
230
1.0
100
AcDbArc
 50
180.0
 51
270.0
  0
LINE
  5
232
100
AcDbEntity
  8
1
390
0
  6
DOT
 62
     9
100
AcDbLine
 10
137.75405
 20
122.141182
 30
0.0
 11
137.75405
 21
126.041182
 31
0.0
  0
LINE
  5
233
100
AcDbEntity
  8
1
390
0
  6
DOT
 62
     9
100
AcDbLine
 10
137.15405
 20
126.041182
 30
0.0
 11
137.15405
 21
122.141182
 31
0.0
  0
ARC
  5
234
100
AcDbEntity
  8
1
390
0
  6
Continuous
 62
     7
100
AcDbCircle
 10
82.30405
 20
118.641182
 30
0.0
 40
0.2
210
0.0
220
0.0
230
1.0
100
AcDbArc
 50
270.0
 51
360.0
  0
ARC
  5
235
100
AcDbEntity
  8
1
390
0
  6
Continuous
 62
     7
100
AcDbCircle
 10
79.60405
 20
118.641182
 30
0.0
 40
0.2
210
0.0
220
0.0
230
1.0
100
AcDbArc
 50
180.0
 51
270.0
  0
LINE
  5
236
100
AcDbEntity
  8
1
390
0
  6
Continuous
 62
     7
100
AcDbLine
 10
82.50405
 20
118.641182
 30
0.0
 11
82.50405
 21
120.541182
 31
0.0
  0
LINE
  5
237
100
AcDbEntity
  8
1
390
0
  6
Continuous
 62
     7
100
AcDbLine
 10
79.40405
 20
120.541182
 30
0.0
 11
79.40405
 21
118.641182
 31
0.0
  0
ARC
  5
238
100
AcDbEntity
  8
1
390
0
  6
Continuous
 62
     7
100
AcDbCircle
 10
90.30405
 20
118.641182
 30
0.0
 40
0.2
210
0.0
220
0.0
230
1.0
100
AcDbArc
 50
270.0
 51
360.0
  0
ARC
  5
239
100
AcDbEntity
  8
1
390
0
  6
Continuous
 62
     7
100
AcDbCircle
 10
87.60405
 20
118.641182
 30
0.0
 40
0.2
210
0.0
220
0.0
230
1.0
100
AcDbArc
 50
180.0
 51
270.0
  0
LINE
  5
23A
100
AcDbEntity
  8
1
390
0
  6
Continuous
 62
     7
100
AcDbLine
 10
90.50405
 20
118.641182
 30
0.0
 11
90.50405
 21
120.541182
 31
0.0
  0
LINE
  5
23B
100
AcDbEntity
  8
1
390
0
  6
Continuous
 62
     7
100
AcDbLine
 10
87.40405
 20
120.541182
 30
0.0
 11
87.40405
 21
118.641182
 31
0.0
  0
ARC
  5
23C
100
AcDbEntity
  8
1
390
0
  6
Continuous
 62
     7
100
AcDbCircle
 10
106.30405
 20
118.641182
 30
0.0
 40
0.2
210
0.0
220
0.0
230
1.0
100
AcDbArc
 50
270.0
 51
360.0
  0
ARC
  5
23D
100
AcDbEntity
  8
1
390
0
  6
Continuous
 62
     7
100
AcDbCircle
 10
103.60405
 20
118.641182
 30
0.0
 40
0.2
210
0.0
220
0.0
230
1.0
100
AcDbArc
 50
180.0
 51
270.0
  0
ARC
  5
23E
100
AcDbEntity
  8
1
390
0
  6
Continuous
 62
     7
100
AcDbCircle
 10
98.30405
 20
118.641182
 30
0.0
 40
0.2
210
0.0
220
0.0
230
1.0
100
AcDbArc
 50
270.0
 51
360.0
  0
ARC
  5
23F
100
AcDbEntity
  8
1
390
0
  6
Continuous
 62
     7
100
AcDbCircle
 10
95.60405
 20
118.641182
 30
0.0
 40
0.2
210
0.0
220
0.0
230
1.0
100
AcDbArc
 50
180.0
 51
270.0
  0
LINE
  5
240
100
AcDbEntity
  8
1
390
0
  6
Continuous
 62
     7
100
AcDbLine
 10
98.50405
 20
118.641182
 30
0.0
 11
98.50405
 21
120.541182
 31
0.0
  0
LINE
  5
241
100
AcDbEntity
  8
1
390
0
  6
Continuous
 62
     7
100
AcDbLine
 10
95.40405
 20
120.541182
 30
0.0
 11
95.40405
 21
118.641182
 31
0.0
  0
LINE
  5
242
100
AcDbEntity
  8
1
390
0
  6
Continuous
 62
     7
100
AcDbLine
 10
106.50405
 20
118.641182
 30
0.0
 11
106.50405
 21
120.541182
 31
0.0
  0
LINE
  5
243
100
AcDbEntity
  8
1
390
0
  6
Continuous
 62
     7
100
AcDbLine
 10
103.40405
 20
120.541182
 30
0.0
 11
103.40405
 21
118.641182
 31
0.0
  0
ARC
  5
244
100
AcDbEntity
  8
1
390
0
  6
Continuous
 62
     7
100
AcDbCircle
 10
88.95405
 20
57.355954
 30
0.0
 40
1.55
210
0.0
220
0.0
230
1.0
100
AcDbArc
 50
360.0
 51
270.0
  0
ARC
  5
245
100
AcDbEntity
  8
1
390
0
  6
Continuous
 62
     7
100
AcDbCircle
 10
88.95405
 20
57.355954
 30
0.0
 40
1.55
210
0.0
220
0.0
230
1.0
100
AcDbArc
 50
270.0
 51
360.0
  0
ARC
  5
246
100
AcDbEntity
  8
1
390
0
  6
Continuous
 62
     7
100
AcDbCircle
 10
96.95405
 20
57.355954
 30
0.0
 40
1.55
210
0.0
220
0.0
230
1.0
100
AcDbArc
 50
360.0
 51
270.0
  0
ARC
  5
247
100
AcDbEntity
  8
1
390
0
  6
Continuous
 62
     7
100
AcDbCircle
 10
96.95405
 20
57.355954
 30
0.0
 40
1.55
210
0.0
220
0.0
230
1.0
100
AcDbArc
 50
270.0
 51
360.0
  0
ARC
  5
248
100
AcDbEntity
  8
1
390
0
  6
Continuous
 62
     7
100
AcDbCircle
 10
104.95405
 20
57.355954
 30
0.0
 40
1.55
210
0.0
220
0.0
230
1.0
100
AcDbArc
 50
360.0
 51
270.0
  0
ARC
  5
249
100
AcDbEntity
  8
1
390
0
  6
Continuous
 62
     7
100
AcDbCircle
 10
104.95405
 20
57.355954
 30
0.0
 40
1.55
210
0.0
220
0.0
230
1.0
100
AcDbArc
 50
270.0
 51
360.0
  0
ARC
  5
24A
100
AcDbEntity
  8
1
390
0
  6
Continuous
 62
     7
100
AcDbCircle
 10
80.95405
 20
57.355954
 30
0.0
 40
1.55
210
0.0
220
0.0
230
1.0
100
AcDbArc
 50
360.0
 51
270.0
  0
ARC
  5
24B
100
AcDbEntity
  8
1
390
0
  6
Continuous
 62
     7
100
AcDbCircle
 10
80.95405
 20
57.355954
 30
0.0
 40
1.55
210
0.0
220
0.0
230
1.0
100
AcDbArc
 50
270.0
 51
360.0
  0
LINE
  5
24C
100
AcDbEntity
  8
1
390
0
  6
Continuous
 62
     7
100
AcDbLine
 10
142.392745
 20
63.436669
 30
0.0
 11
141.498851
 21
63.436669
 31
0.0
  0
ARC
  5
24D
100
AcDbEntity
  8
1
390
0
  6
Continuous
 62
     7
100
AcDbCircle
 10
141.498851
 20
62.936669
 30
0.0
 40
0.5
210
0.0
220
0.0
230
1.0
100
AcDbArc
 50
90.0
 51
180.0
  0
LINE
  5
24E
100
AcDbEntity
  8
1
390
0
  6
Continuous
 62
     7
100
AcDbLine
 10
141.498851
 20
57.75387
 30
0.0
 11
149.205671
 21
57.75387
 31
0.0
  0
ARC
  5
24F
100
AcDbEntity
  8
1
390
0
  6
Continuous
 62
     7
100
AcDbCircle
 10
149.205671
 20
58.25387
 30
0.0
 40
0.5
210
0.0
220
0.0
230
1.0
100
AcDbArc
 50
270.0
 51
360.0
  0
LINE
  5
250
100
AcDbEntity
  8
1
390
0
  6
Continuous
 62
     7
100
AcDbLine
 10
149.705671
 20
58.25387
 30
0.0
 11
149.705671
 21
62.936669
 31
0.0
  0
ARC
  5
251
100
AcDbEntity
  8
1
390
0
  6
Continuous
 62
     7
100
AcDbCircle
 10
149.205671
 20
62.936669
 30
0.0
 40
0.5
210
0.0
220
0.0
230
1.0
100
AcDbArc
 50
0.0
 51
90.0
  0
LINE
  5
252
100
AcDbEntity
  8
1
390
0
  6
Continuous
 62
     7
100
AcDbLine
 10
149.205671
 20
63.436669
 30
0.0
 11
148.311777
 21
63.436669
 31
0.0
  0
LINE
  5
253
100
AcDbEntity
  8
1
390
0
  6
Continuous
 62
     7
100
AcDbLine
 10
148.0541
 20
62.686111
 30
0.0
 11
148.0541
 21
63.694003
 31
0.0
  0
LINE
  5
254
100
AcDbEntity
  8
1
390
0
  6
Continuous
 62
     7
100
AcDbLine
 10
148.0541
 20
63.694003
 30
0.0
 11
150.106118
 21
63.694003
 31
0.0
  0
ARC
  5
255
100
AcDbEntity
  8
1
390
0
  6
Continuous
 62
     7
100
AcDbCircle
 10
150.106118
 20
63.494003
 30
0.0
 40
0.2
210
0.0
220
0.0
230
1.0
100
AcDbArc
 50
360.0
 51
90.0
  0
LINE
  5
256
100
AcDbEntity
  8
1
390
0
  6
Continuous
 62
     7
100
AcDbLine
 10
150.306118
 20
63.494003
 30
0.0
 11
150.306118
 21
57.203312
 31
0.0
  0
ARC
  5
257
100
AcDbEntity
  8
1
390
0
  6
Continuous
 62
     7
100
AcDbCircle
 10
150.106118
 20
57.203312
 30
0.0
 40
0.2
210
0.0
220
0.0
230
1.0
100
AcDbArc
 50
270.0
 51
360.0
  0
LINE
  5
258
100
AcDbEntity
  8
1
390
0
  6
Continuous
 62
     7
100
AcDbLine
 10
150.106118
 20
57.003312
 30
0.0
 11
148.247444
 21
57.003312
 31
0.0
  0
LINE
  5
259
100
AcDbEntity
  8
1
390
0
  6
Continuous
 62
     7
100
AcDbLine
 10
148.247444
 20
57.003312
 30
0.0
 11
148.247444
 21
57.196312
 31
0.0
  0
LINE
  5
25A
100
AcDbEntity
  8
1
390
0
  6
Continuous
 62
     7
100
AcDbLine
 10
148.247444
 20
57.196312
 30
0.0
 11
147.453653
 21
57.196312
 31
0.0
  0
LINE
  5
25B
100
AcDbEntity
  8
1
390
0
  6
Continuous
 62
     7
100
AcDbLine
 10
147.453653
 20
57.196312
 30
0.0
 11
147.453653
 21
57.003312
 31
0.0
  0
LINE
  5
25C
100
AcDbEntity
  8
1
390
0
  6
Continuous
 62
     7
100
AcDbLine
 10
147.453653
 20
57.003312
 30
0.0
 11
145.759536
 21
57.003312
 31
0.0
  0
LINE
  5
25D
100
AcDbEntity
  8
1
390
0
  6
Continuous
 62
     7
100
AcDbLine
 10
145.759536
 20
57.003312
 30
0.0
 11
145.759536
 21
57.196312
 31
0.0
  0
LINE
  5
25E
100
AcDbEntity
  8
1
390
0
  6
Continuous
 62
     7
100
AcDbLine
 10
145.759536
 20
57.196312
 30
0.0
 11
144.944644
 21
57.196312
 31
0.0
  0
LINE
  5
25F
100
AcDbEntity
  8
1
390
0
  6
Continuous
 62
     7
100
AcDbLine
 10
144.944644
 20
57.196312
 30
0.0
 11
144.944644
 21
57.003312
 31
0.0
  0
LINE
  5
260
100
AcDbEntity
  8
1
390
0
  6
Continuous
 62
     7
100
AcDbLine
 10
144.944644
 20
57.003312
 30
0.0
 11
143.250526
 21
57.003312
 31
0.0
  0
LINE
  5
261
100
AcDbEntity
  8
1
390
0
  6
Continuous
 62
     7
100
AcDbLine
 10
143.250526
 20
57.003312
 30
0.0
 11
143.250526
 21
57.196312
 31
0.0
  0
LINE
  5
262
100
AcDbEntity
  8
1
390
0
  6
Continuous
 62
     7
100
AcDbLine
 10
143.250526
 20
57.196312
 30
0.0
 11
142.457079
 21
57.196312
 31
0.0
  0
LINE
  5
263
100
AcDbEntity
  8
1
390
0
  6
Continuous
 62
     7
100
AcDbLine
 10
142.457079
 20
57.196312
 30
0.0
 11
142.457079
 21
57.003312
 31
0.0
  0
LINE
  5
264
100
AcDbEntity
  8
1
390
0
  6
Continuous
 62
     7
100
AcDbLine
 10
142.457079
 20
57.003312
 30
0.0
 11
140.598404
 21
57.003312
 31
0.0
  0
ARC
  5
265
100
AcDbEntity
  8
1
390
0
  6
Continuous
 62
     7
100
AcDbCircle
 10
140.598404
 20
57.203312
 30
0.0
 40
0.2
210
0.0
220
0.0
230
1.0
100
AcDbArc
 50
180.0
 51
270.0
  0
LINE
  5
266
100
AcDbEntity
  8
1
390
0
  6
Continuous
 62
     7
100
AcDbLine
 10
140.398404
 20
57.203312
 30
0.0
 11
140.398404
 21
63.494003
 31
0.0
  0
ARC
  5
267
100
AcDbEntity
  8
1
390
0
  6
Continuous
 62
     7
100
AcDbCircle
 10
140.598404
 20
63.494003
 30
0.0
 40
0.2
210
0.0
220
0.0
230
1.0
100
AcDbArc
 50
90.0
 51
180.0
  0
LINE
  5
268
100
AcDbEntity
  8
1
390
0
  6
Continuous
 62
     7
100
AcDbLine
 10
140.598404
 20
63.694003
 30
0.0
 11
142.650079
 21
63.694003
 31
0.0
  0
LINE
  5
269
100
AcDbEntity
  8
1
390
0
  6
Continuous
 62
     7
100
AcDbLine
 10
142.650079
 20
63.694003
 30
0.0
 11
142.650079
 21
62.686111
 31
0.0
  0
LINE
  5
26A
100
AcDbEntity
  8
1
390
0
  6
Continuous
 62
     7
100
AcDbLine
 10
148.311777
 20
62.686111
 30
0.0
 11
148.0541
 21
62.686111
 31
0.0
  0
LINE
  5
26B
100
AcDbEntity
  8
1
390
0
  6
Continuous
 62
     7
100
AcDbLine
 10
142.650079
 20
62.686111
 30
0.0
 11
142.392745
 21
62.686111
 31
0.0
  0
ARC
  5
26C
100
AcDbEntity
  8
1
390
0
  6
Continuous
 62
     7
100
AcDbCircle
 10
141.498851
 20
58.25387
 30
0.0
 40
0.5
210
0.0
220
0.0
230
1.0
100
AcDbArc
 50
180.0
 51
270.0
  0
LINE
  5
26D
100
AcDbEntity
  8
1
390
0
  6
Continuous
 62
     7
100
AcDbLine
 10
140.998851
 20
62.936669
 30
0.0
 11
140.998851
 21
58.25387
 31
0.0
  0
LINE
  5
26E
100
AcDbEntity
  8
1
390
0
  6
Continuous
 62
     7
100
AcDbLine
 10
148.311777
 20
63.436669
 30
0.0
 11
148.311777
 21
62.686111
 31
0.0
  0
LINE
  5
26F
100
AcDbEntity
  8
1
390
0
  6
Continuous
 62
     7
100
AcDbLine
 10
142.392745
 20
62.686111
 30
0.0
 11
142.392745
 21
63.436669
 31
0.0
  0
LINE
  5
270
100
AcDbEntity
  8
1
390
0
  6
Continuous
 62
     7
100
AcDbLine
 10
162.994278
 20
63.694003
 30
0.0
 11
160.942603
 21
63.694003
 31
0.0
  0
ARC
  5
271
100
AcDbEntity
  8
1
390
0
  6
Continuous
 62
     7
100
AcDbCircle
 10
162.994278
 20
63.494003
 30
0.0
 40
0.2
210
0.0
220
0.0
230
1.0
100
AcDbArc
 50
0.0
 51
90.0
  0
LINE
  5
272
100
AcDbEntity
  8
1
390
0
  6
Continuous
 62
     7
100
AcDbLine
 10
163.194278
 20
57.203312
 30
0.0
 11
163.194278
 21
63.494003
 31
0.0
  0
ARC
  5
273
100
AcDbEntity
  8
1
390
0
  6
Continuous
 62
     7
100
AcDbCircle
 10
162.994278
 20
57.203312
 30
0.0
 40
0.2
210
0.0
220
0.0
230
1.0
100
AcDbArc
 50
270.0
 51
360.0
  0
LINE
  5
274
100
AcDbEntity
  8
1
390
0
  6
Continuous
 62
     7
100
AcDbLine
 10
161.157048
 20
57.003312
 30
0.0
 11
162.994278
 21
57.003312
 31
0.0
  0
LINE
  5
275
100
AcDbEntity
  8
1
390
0
  6
Continuous
 62
     7
100
AcDbLine
 10
161.157048
 20
57.196312
 30
0.0
 11
161.157048
 21
57.003312
 31
0.0
  0
LINE
  5
276
100
AcDbEntity
  8
1
390
0
  6
Continuous
 62
     7
100
AcDbLine
 10
160.342156
 20
57.196312
 30
0.0
 11
161.157048
 21
57.196312
 31
0.0
  0
LINE
  5
277
100
AcDbEntity
  8
1
390
0
  6
Continuous
 62
     7
100
AcDbLine
 10
160.342156
 20
57.003312
 30
0.0
 11
160.342156
 21
57.196312
 31
0.0
  0
LINE
  5
278
100
AcDbEntity
  8
1
390
0
  6
Continuous
 62
     7
100
AcDbLine
 10
158.648038
 20
57.003312
 30
0.0
 11
160.342156
 21
57.003312
 31
0.0
  0
LINE
  5
279
100
AcDbEntity
  8
1
390
0
  6
Continuous
 62
     7
100
AcDbLine
 10
158.648038
 20
57.196312
 30
0.0
 11
158.648038
 21
57.003312
 31
0.0
  0
LINE
  5
27A
100
AcDbEntity
  8
1
390
0
  6
Continuous
 62
     7
100
AcDbLine
 10
157.854591
 20
57.196312
 30
0.0
 11
158.648038
 21
57.196312
 31
0.0
  0
LINE
  5
27B
100
AcDbEntity
  8
1
390
0
  6
Continuous
 62
     7
100
AcDbLine
 10
157.854591
 20
57.003312
 30
0.0
 11
157.854591
 21
57.196312
 31
0.0
  0
LINE
  5
27C
100
AcDbEntity
  8
1
390
0
  6
Continuous
 62
     7
100
AcDbLine
 10
156.160473
 20
57.003312
 30
0.0
 11
157.854591
 21
57.003312
 31
0.0
  0
LINE
  5
27D
100
AcDbEntity
  8
1
390
0
  6
Continuous
 62
     7
100
AcDbLine
 10
156.160473
 20
57.196312
 30
0.0
 11
156.160473
 21
57.003312
 31
0.0
  0
LINE
  5
27E
100
AcDbEntity
  8
1
390
0
  6
Continuous
 62
     7
100
AcDbLine
 10
155.345582
 20
57.196312
 30
0.0
 11
156.160473
 21
57.196312
 31
0.0
  0
LINE
  5
27F
100
AcDbEntity
  8
1
390
0
  6
Continuous
 62
     7
100
AcDbLine
 10
155.345582
 20
57.003312
 30
0.0
 11
155.345582
 21
57.196312
 31
0.0
  0
LINE
  5
280
100
AcDbEntity
  8
1
390
0
  6
Continuous
 62
     7
100
AcDbLine
 10
153.651464
 20
57.003312
 30
0.0
 11
155.345582
 21
57.003312
 31
0.0
  0
LINE
  5
281
100
AcDbEntity
  8
1
390
0
  6
Continuous
 62
     7
100
AcDbLine
 10
153.651464
 20
57.196312
 30
0.0
 11
153.651464
 21
57.003312
 31
0.0
  0
LINE
  5
282
100
AcDbEntity
  8
1
390
0
  6
Continuous
 62
     7
100
AcDbLine
 10
152.858017
 20
57.196312
 30
0.0
 11
153.651464
 21
57.196312
 31
0.0
  0
LINE
  5
283
100
AcDbEntity
  8
1
390
0
  6
Continuous
 62
     7
100
AcDbLine
 10
152.858017
 20
57.003312
 30
0.0
 11
152.858017
 21
57.196312
 31
0.0
  0
LINE
  5
284
100
AcDbEntity
  8
1
390
0
  6
Continuous
 62
     7
100
AcDbLine
 10
150.999342
 20
57.003312
 30
0.0
 11
152.858017
 21
57.003312
 31
0.0
  0
ARC
  5
285
100
AcDbEntity
  8
1
390
0
  6
Continuous
 62
     7
100
AcDbCircle
 10
150.999342
 20
57.203312
 30
0.0
 40
0.2
210
0.0
220
0.0
230
1.0
100
AcDbArc
 50
180.0
 51
270.0
  0
LINE
  5
286
100
AcDbEntity
  8
1
390
0
  6
Continuous
 62
     7
100
AcDbLine
 10
150.799342
 20
63.494003
 30
0.0
 11
150.799342
 21
57.203312
 31
0.0
  0
ARC
  5
287
100
AcDbEntity
  8
1
390
0
  6
Continuous
 62
     7
100
AcDbCircle
 10
150.999342
 20
63.494003
 30
0.0
 40
0.2
210
0.0
220
0.0
230
1.0
100
AcDbArc
 50
90.0
 51
180.0
  0
LINE
  5
288
100
AcDbEntity
  8
1
390
0
  6
Continuous
 62
     7
100
AcDbLine
 10
153.051017
 20
63.694003
 30
0.0
 11
150.999342
 21
63.694003
 31
0.0
  0
LINE
  5
289
100
AcDbEntity
  8
1
390
0
  6
Continuous
 62
     7
100
AcDbLine
 10
153.051017
 20
62.686111
 30
0.0
 11
153.051017
 21
63.694003
 31
0.0
  0
LINE
  5
28A
100
AcDbEntity
  8
1
390
0
  6
Continuous
 62
     7
100
AcDbLine
 10
152.793683
 20
62.686111
 30
0.0
 11
152.793683
 21
63.436669
 31
0.0
  0
LINE
  5
28B
100
AcDbEntity
  8
1
390
0
  6
Continuous
 62
     7
100
AcDbLine
 10
152.793683
 20
63.436669
 30
0.0
 11
151.899789
 21
63.436669
 31
0.0
  0
ARC
  5
28C
100
AcDbEntity
  8
1
390
0
  6
Continuous
 62
     7
100
AcDbCircle
 10
151.899789
 20
62.936669
 30
0.0
 40
0.5
210
0.0
220
0.0
230
1.0
100
AcDbArc
 50
90.0
 51
180.0
  0
LINE
  5
28D
100
AcDbEntity
  8
1
390
0
  6
Continuous
 62
     7
100
AcDbLine
 10
151.899789
 20
57.75387
 30
0.0
 11
162.093831
 21
57.75387
 31
0.0
  0
ARC
  5
28E
100
AcDbEntity
  8
1
390
0
  6
Continuous
 62
     7
100
AcDbCircle
 10
162.093831
 20
58.25387
 30
0.0
 40
0.5
210
0.0
220
0.0
230
1.0
100
AcDbArc
 50
270.0
 51
360.0
  0
LINE
  5
28F
100
AcDbEntity
  8
1
390
0
  6
Continuous
 62
     7
100
AcDbLine
 10
162.593831
 20
58.25387
 30
0.0
 11
162.593831
 21
62.936669
 31
0.0
  0
ARC
  5
290
100
AcDbEntity
  8
1
390
0
  6
Continuous
 62
     7
100
AcDbCircle
 10
162.093831
 20
62.936669
 30
0.0
 40
0.5
210
0.0
220
0.0
230
1.0
100
AcDbArc
 50
0.0
 51
90.0
  0
LINE
  5
291
100
AcDbEntity
  8
1
390
0
  6
Continuous
 62
     7
100
AcDbLine
 10
162.093831
 20
63.436669
 30
0.0
 11
161.199937
 21
63.436669
 31
0.0
  0
LINE
  5
292
100
AcDbEntity
  8
1
390
0
  6
Continuous
 62
     7
100
AcDbLine
 10
161.199937
 20
63.436669
 30
0.0
 11
161.199937
 21
62.686111
 31
0.0
  0
LINE
  5
293
100
AcDbEntity
  8
1
390
0
  6
Continuous
 62
     7
100
AcDbLine
 10
160.942603
 20
63.694003
 30
0.0
 11
160.942603
 21
62.686111
 31
0.0
  0
ARC
  5
294
100
AcDbEntity
  8
1
390
0
  6
Continuous
 62
     7
100
AcDbCircle
 10
151.899789
 20
58.25387
 30
0.0
 40
0.5
210
0.0
220
0.0
230
1.0
100
AcDbArc
 50
180.0
 51
270.0
  0
LINE
  5
295
100
AcDbEntity
  8
1
390
0
  6
Continuous
 62
     7
100
AcDbLine
 10
151.399789
 20
62.936669
 30
0.0
 11
151.399789
 21
58.25387
 31
0.0
  0
LINE
  5
296
100
AcDbEntity
  8
1
390
0
  6
Continuous
 62
     7
100
AcDbLine
 10
153.051017
 20
62.686111
 30
0.0
 11
152.793683
 21
62.686111
 31
0.0
  0
LINE
  5
297
100
AcDbEntity
  8
1
390
0
  6
Continuous
 62
     7
100
AcDbLine
 10
161.199937
 20
62.686111
 30
0.0
 11
160.942603
 21
62.686111
 31
0.0
  0
LINE
  5
298
100
AcDbEntity
  8
1
390
0
  6
Continuous
 62
     7
100
AcDbLine
 10
139.70518
 20
63.694003
 30
0.0
 11
137.653505
 21
63.694003
 31
0.0
  0
ARC
  5
299
100
AcDbEntity
  8
1
390
0
  6
Continuous
 62
     7
100
AcDbCircle
 10
139.70518
 20
63.494003
 30
0.0
 40
0.2
210
0.0
220
0.0
230
1.0
100
AcDbArc
 50
0.0
 51
90.0
  0
LINE
  5
29A
100
AcDbEntity
  8
1
390
0
  6
Continuous
 62
     7
100
AcDbLine
 10
139.90518
 20
57.203312
 30
0.0
 11
139.90518
 21
63.494003
 31
0.0
  0
ARC
  5
29B
100
AcDbEntity
  8
1
390
0
  6
Continuous
 62
     7
100
AcDbCircle
 10
139.70518
 20
57.203312
 30
0.0
 40
0.2
210
0.0
220
0.0
230
1.0
100
AcDbArc
 50
270.0
 51
360.0
  0
LINE
  5
29C
100
AcDbEntity
  8
1
390
0
  6
Continuous
 62
     7
100
AcDbLine
 10
137.846506
 20
57.003312
 30
0.0
 11
139.70518
 21
57.003312
 31
0.0
  0
LINE
  5
29D
100
AcDbEntity
  8
1
390
0
  6
Continuous
 62
     7
100
AcDbLine
 10
137.846506
 20
57.196312
 30
0.0
 11
137.846506
 21
57.003312
 31
0.0
  0
LINE
  5
29E
100
AcDbEntity
  8
1
390
0
  6
Continuous
 62
     7
100
AcDbLine
 10
137.053058
 20
57.196312
 30
0.0
 11
137.846506
 21
57.196312
 31
0.0
  0
LINE
  5
29F
100
AcDbEntity
  8
1
390
0
  6
Continuous
 62
     7
100
AcDbLine
 10
137.053058
 20
57.003312
 30
0.0
 11
137.053058
 21
57.196312
 31
0.0
  0
LINE
  5
2A0
100
AcDbEntity
  8
1
390
0
  6
Continuous
 62
     7
100
AcDbLine
 10
135.358941
 20
57.003312
 30
0.0
 11
137.053058
 21
57.003312
 31
0.0
  0
LINE
  5
2A1
100
AcDbEntity
  8
1
390
0
  6
Continuous
 62
     7
100
AcDbLine
 10
135.358941
 20
57.196312
 30
0.0
 11
135.358941
 21
57.003312
 31
0.0
  0
LINE
  5
2A2
100
AcDbEntity
  8
1
390
0
  6
Continuous
 62
     7
100
AcDbLine
 10
134.544049
 20
57.196312
 30
0.0
 11
135.358941
 21
57.196312
 31
0.0
  0
LINE
  5
2A3
100
AcDbEntity
  8
1
390
0
  6
Continuous
 62
     7
100
AcDbLine
 10
134.544049
 20
57.003312
 30
0.0
 11
134.544049
 21
57.196312
 31
0.0
  0
LINE
  5
2A4
100
AcDbEntity
  8
1
390
0
  6
Continuous
 62
     7
100
AcDbLine
 10
132.849931
 20
57.003312
 30
0.0
 11
134.544049
 21
57.003312
 31
0.0
  0
LINE
  5
2A5
100
AcDbEntity
  8
1
390
0
  6
Continuous
 62
     7
100
AcDbLine
 10
132.849931
 20
57.196312
 30
0.0
 11
132.849931
 21
57.003312
 31
0.0
  0
LINE
  5
2A6
100
AcDbEntity
  8
1
390
0
  6
Continuous
 62
     7
100
AcDbLine
 10
132.056484
 20
57.196312
 30
0.0
 11
132.849931
 21
57.196312
 31
0.0
  0
LINE
  5
2A7
100
AcDbEntity
  8
1
390
0
  6
Continuous
 62
     7
100
AcDbLine
 10
132.056484
 20
57.003312
 30
0.0
 11
132.056484
 21
57.196312
 31
0.0
  0
LINE
  5
2A8
100
AcDbEntity
  8
1
390
0
  6
Continuous
 62
     7
100
AcDbLine
 10
130.362366
 20
57.003312
 30
0.0
 11
132.056484
 21
57.003312
 31
0.0
  0
LINE
  5
2A9
100
AcDbEntity
  8
1
390
0
  6
Continuous
 62
     7
100
AcDbLine
 10
130.362366
 20
57.196312
 30
0.0
 11
130.362366
 21
57.003312
 31
0.0
  0
LINE
  5
2AA
100
AcDbEntity
  8
1
390
0
  6
Continuous
 62
     7
100
AcDbLine
 10
129.547474
 20
57.196312
 30
0.0
 11
130.362366
 21
57.196312
 31
0.0
  0
LINE
  5
2AB
100
AcDbEntity
  8
1
390
0
  6
Continuous
 62
     7
100
AcDbLine
 10
129.547474
 20
57.003312
 30
0.0
 11
129.547474
 21
57.196312
 31
0.0
  0
LINE
  5
2AC
100
AcDbEntity
  8
1
390
0
  6
Continuous
 62
     7
100
AcDbLine
 10
127.853357
 20
57.003312
 30
0.0
 11
129.547474
 21
57.003312
 31
0.0
  0
LINE
  5
2AD
100
AcDbEntity
  8
1
390
0
  6
Continuous
 62
     7
100
AcDbLine
 10
127.853357
 20
57.196312
 30
0.0
 11
127.853357
 21
57.003312
 31
0.0
  0
LINE
  5
2AE
100
AcDbEntity
  8
1
390
0
  6
Continuous
 62
     7
100
AcDbLine
 10
127.059909
 20
57.196312
 30
0.0
 11
127.853357
 21
57.196312
 31
0.0
  0
LINE
  5
2AF
100
AcDbEntity
  8
1
390
0
  6
Continuous
 62
     7
100
AcDbLine
 10
127.059909
 20
57.003312
 30
0.0
 11
127.059909
 21
57.196312
 31
0.0
  0
LINE
  5
2B0
100
AcDbEntity
  8
1
390
0
  6
Continuous
 62
     7
100
AcDbLine
 10
125.344347
 20
57.003312
 30
0.0
 11
127.059909
 21
57.003312
 31
0.0
  0
LINE
  5
2B1
100
AcDbEntity
  8
1
390
0
  6
Continuous
 62
     7
100
AcDbLine
 10
125.344347
 20
57.196312
 30
0.0
 11
125.344347
 21
57.003312
 31
0.0
  0
LINE
  5
2B2
100
AcDbEntity
  8
1
390
0
  6
Continuous
 62
     7
100
AcDbLine
 10
124.5509
 20
57.196312
 30
0.0
 11
125.344347
 21
57.196312
 31
0.0
  0
LINE
  5
2B3
100
AcDbEntity
  8
1
390
0
  6
Continuous
 62
     7
100
AcDbLine
 10
124.5509
 20
57.003312
 30
0.0
 11
124.5509
 21
57.196312
 31
0.0
  0
LINE
  5
2B4
100
AcDbEntity
  8
1
390
0
  6
Continuous
 62
     7
100
AcDbLine
 10
122.856782
 20
57.003312
 30
0.0
 11
124.5509
 21
57.003312
 31
0.0
  0
LINE
  5
2B5
100
AcDbEntity
  8
1
390
0
  6
Continuous
 62
     7
100
AcDbLine
 10
122.856782
 20
57.196312
 30
0.0
 11
122.856782
 21
57.003312
 31
0.0
  0
LINE
  5
2B6
100
AcDbEntity
  8
1
390
0
  6
Continuous
 62
     7
100
AcDbLine
 10
122.063335
 20
57.196312
 30
0.0
 11
122.856782
 21
57.196312
 31
0.0
  0
LINE
  5
2B7
100
AcDbEntity
  8
1
390
0
  6
Continuous
 62
     7
100
AcDbLine
 10
122.063335
 20
57.003312
 30
0.0
 11
122.063335
 21
57.196312
 31
0.0
  0
LINE
  5
2B8
100
AcDbEntity
  8
1
390
0
  6
Continuous
 62
     7
100
AcDbLine
 10
120.204661
 20
57.003312
 30
0.0
 11
122.063335
 21
57.003312
 31
0.0
  0
ARC
  5
2B9
100
AcDbEntity
  8
1
390
0
  6
Continuous
 62
     7
100
AcDbCircle
 10
120.204661
 20
57.203312
 30
0.0
 40
0.2
210
0.0
220
0.0
230
1.0
100
AcDbArc
 50
180.0
 51
270.0
  0
LINE
  5
2BA
100
AcDbEntity
  8
1
390
0
  6
Continuous
 62
     7
100
AcDbLine
 10
120.004661
 20
63.494003
 30
0.0
 11
120.004661
 21
57.203312
 31
0.0
  0
ARC
  5
2BB
100
AcDbEntity
  8
1
390
0
  6
Continuous
 62
     7
100
AcDbCircle
 10
120.204661
 20
63.494003
 30
0.0
 40
0.2
210
0.0
220
0.0
230
0.9999999999999999
100
AcDbArc
 50
90.0
 51
180.0
  0
LINE
  5
2BC
100
AcDbEntity
  8
1
390
0
  6
Continuous
 62
     7
100
AcDbLine
 10
122.256336
 20
63.694003
 30
0.0
 11
120.204661
 21
63.694003
 31
0.0
  0
LINE
  5
2BD
100
AcDbEntity
  8
1
390
0
  6
Continuous
 62
     7
100
AcDbLine
 10
122.256336
 20
62.686111
 30
0.0
 11
122.256336
 21
63.694003
 31
0.0
  0
LINE
  5
2BE
100
AcDbEntity
  8
1
390
0
  6
Continuous
 62
     7
100
AcDbLine
 10
137.653505
 20
63.694003
 30
0.0
 11
137.653505
 21
62.686111
 31
0.0
  0
LINE
  5
2BF
100
AcDbEntity
  8
1
390
0
  6
Continuous
 62
     7
100
AcDbLine
 10
137.910839
 20
63.436669
 30
0.0
 11
137.910839
 21
62.686111
 31
0.0
  0
LINE
  5
2C0
100
AcDbEntity
  8
1
390
0
  6
Continuous
 62
     7
100
AcDbLine
 10
138.804733
 20
63.436669
 30
0.0
 11
137.910839
 21
63.436669
 31
0.0
  0
ARC
  5
2C1
100
AcDbEntity
  8
1
390
0
  6
Continuous
 62
     7
100
AcDbCircle
 10
138.804733
 20
62.936669
 30
0.0
 40
0.5
210
0.0
220
0.0
230
1.0
100
AcDbArc
 50
0.0
 51
90.0
  0
LINE
  5
2C2
100
AcDbEntity
  8
1
390
0
  6
Continuous
 62
     7
100
AcDbLine
 10
139.304733
 20
58.25387
 30
0.0
 11
139.304733
 21
62.936669
 31
0.0
  0
ARC
  5
2C3
100
AcDbEntity
  8
1
390
0
  6
Continuous
 62
     7
100
AcDbCircle
 10
138.804733
 20
58.25387
 30
0.0
 40
0.5
210
0.0
220
0.0
230
1.0
100
AcDbArc
 50
270.0
 51
360.0
  0
LINE
  5
2C4
100
AcDbEntity
  8
1
390
0
  6
Continuous
 62
     7
100
AcDbLine
 10
121.105107
 20
57.75387
 30
0.0
 11
138.804733
 21
57.75387
 31
0.0
  0
ARC
  5
2C5
100
AcDbEntity
  8
1
390
0
  6
Continuous
 62
     7
100
AcDbCircle
 10
121.105107
 20
58.25387
 30
0.0
 40
0.5
210
0.0
220
0.0
230
1.0
100
AcDbArc
 50
180.0
 51
270.0
  0
LINE
  5
2C6
100
AcDbEntity
  8
1
390
0
  6
Continuous
 62
     7
100
AcDbLine
 10
120.605107
 20
62.936669
 30
0.0
 11
120.605107
 21
58.25387
 31
0.0
  0
ARC
  5
2C7
100
AcDbEntity
  8
1
390
0
  6
Continuous
 62
     7
100
AcDbCircle
 10
121.105107
 20
62.936669
 30
0.0
 40
0.5
210
0.0
220
0.0
230
1.0
100
AcDbArc
 50
90.0
 51
180.0
  0
LINE
  5
2C8
100
AcDbEntity
  8
1
390
0
  6
Continuous
 62
     7
100
AcDbLine
 10
121.999001
 20
63.436669
 30
0.0
 11
121.105107
 21
63.436669
 31
0.0
  0
LINE
  5
2C9
100
AcDbEntity
  8
1
390
0
  6
Continuous
 62
     7
100
AcDbLine
 10
121.999001
 20
62.686111
 30
0.0
 11
121.999001
 21
63.436669
 31
0.0
  0
LINE
  5
2CA
100
AcDbEntity
  8
1
390
0
  6
Continuous
 62
     7
100
AcDbLine
 10
137.910839
 20
62.686111
 30
0.0
 11
137.653505
 21
62.686111
 31
0.0
  0
LINE
  5
2CB
100
AcDbEntity
  8
1
390
0
  6
Continuous
 62
     7
100
AcDbLine
 10
122.256336
 20
62.686111
 30
0.0
 11
121.999001
 21
62.686111
 31
0.0
  0
LINE
  5
2CC
100
AcDbEntity
  8
1
390
0
  6
Continuous
 62
     7
100
AcDbLine
 10
158.154814
 20
75.295492
 30
0.0
 11
158.154814
 21
74.287599
 31
0.0
  0
LINE
  5
2CD
100
AcDbEntity
  8
1
390
0
  6
Continuous
 62
     7
100
AcDbLine
 10
160.20649
 20
75.295492
 30
0.0
 11
158.154814
 21
75.295492
 31
0.0
  0
ARC
  5
2CE
100
AcDbEntity
  8
1
390
0
  6
Continuous
 62
     7
100
AcDbCircle
 10
160.20649
 20
75.095492
 30
0.0
 40
0.2
210
0.0
220
0.0
230
0.9999999999999999
100
AcDbArc
 50
0.0
 51
90.0
  0
LINE
  5
2CF
100
AcDbEntity
  8
1
390
0
  6
Continuous
 62
     7
100
AcDbLine
 10
160.40649
 20
68.8048
 30
0.0
 11
160.40649
 21
75.095492
 31
0.0
  0
ARC
  5
2D0
100
AcDbEntity
  8
1
390
0
  6
Continuous
 62
     7
100
AcDbCircle
 10
160.20649
 20
68.8048
 30
0.0
 40
0.2
210
0.0
220
0.0
230
1.0
100
AcDbArc
 50
270.0
 51
360.0
  0
LINE
  5
2D1
100
AcDbEntity
  8
1
390
0
  6
Continuous
 62
     7
100
AcDbLine
 10
158.347815
 20
68.6048
 30
0.0
 11
160.20649
 21
68.6048
 31
0.0
  0
LINE
  5
2D2
100
AcDbEntity
  8
1
390
0
  6
Continuous
 62
     7
100
AcDbLine
 10
158.347815
 20
68.7978
 30
0.0
 11
158.347815
 21
68.6048
 31
0.0
  0
LINE
  5
2D3
100
AcDbEntity
  8
1
390
0
  6
Continuous
 62
     7
100
AcDbLine
 10
157.554368
 20
68.7978
 30
0.0
 11
158.347815
 21
68.7978
 31
0.0
  0
LINE
  5
2D4
100
AcDbEntity
  8
1
390
0
  6
Continuous
 62
     7
100
AcDbLine
 10
157.554368
 20
68.6048
 30
0.0
 11
157.554368
 21
68.7978
 31
0.0
  0
LINE
  5
2D5
100
AcDbEntity
  8
1
390
0
  6
Continuous
 62
     7
100
AcDbLine
 10
155.86025
 20
68.6048
 30
0.0
 11
157.554368
 21
68.6048
 31
0.0
  0
LINE
  5
2D6
100
AcDbEntity
  8
1
390
0
  6
Continuous
 62
     7
100
AcDbLine
 10
155.86025
 20
68.7978
 30
0.0
 11
155.86025
 21
68.6048
 31
0.0
  0
ARC
  5
2D7
100
AcDbEntity
  8
1
390
0
  6
Continuous
 62
     7
100
AcDbCircle
 10
144.093638
 20
74.538157
 30
0.0
 40
0.5
210
0.0
220
0.0
230
1.0
100
AcDbArc
 50
90.0
 51
180.0
  0
LINE
  5
2D8
100
AcDbEntity
  8
1
390
0
  6
Continuous
 62
     7
100
AcDbLine
 10
145.008977
 20
75.038157
 30
0.0
 11
144.093638
 21
75.038157
 31
0.0
  0
LINE
  5
2D9
100
AcDbEntity
  8
1
390
0
  6
Continuous
 62
     7
100
AcDbLine
 10
145.008977
 20
74.287599
 30
0.0
 11
145.008977
 21
75.038157
 31
0.0
  0
LINE
  5
2DA
100
AcDbEntity
  8
1
390
0
  6
Continuous
 62
     7
100
AcDbLine
 10
158.412149
 20
74.287599
 30
0.0
 11
158.154814
 21
74.287599
 31
0.0
  0
LINE
  5
2DB
100
AcDbEntity
  8
1
390
0
  6
Continuous
 62
     7
100
AcDbLine
 10
145.244867
 20
74.287599
 30
0.0
 11
145.008977
 21
74.287599
 31
0.0
  0
LINE
  5
2DC
100
AcDbEntity
  8
1
390
0
  6
Continuous
 62
     7
100
AcDbLine
 10
155.045358
 20
68.7978
 30
0.0
 11
155.86025
 21
68.7978
 31
0.0
  0
LINE
  5
2DD
100
AcDbEntity
  8
1
390
0
  6
Continuous
 62
     7
100
AcDbLine
 10
144.093638
 20
69.355358
 30
0.0
 11
159.306043
 21
69.355358
 31
0.0
  0
ARC
  5
2DE
100
AcDbEntity
  8
1
390
0
  6
Continuous
 62
     7
100
AcDbCircle
 10
144.093638
 20
69.855358
 30
0.0
 40
0.5
210
0.0
220
0.0
230
1.0
100
AcDbArc
 50
180.0
 51
270.0
  0
LINE
  5
2DF
100
AcDbEntity
  8
1
390
0
  6
Continuous
 62
     7
100
AcDbLine
 10
143.593638
 20
74.538157
 30
0.0
 11
143.593638
 21
69.855358
 31
0.0
  0
LINE
  5
2E0
100
AcDbEntity
  8
1
390
0
  6
Continuous
 62
     7
100
AcDbLine
 10
145.051866
 20
68.7978
 30
0.0
 11
145.845314
 21
68.7978
 31
0.0
  0
LINE
  5
2E1
100
AcDbEntity
  8
1
390
0
  6
Continuous
 62
     7
100
AcDbLine
 10
145.845314
 20
68.7978
 30
0.0
 11
145.845314
 21
68.6048
 31
0.0
  0
LINE
  5
2E2
100
AcDbEntity
  8
1
390
0
  6
Continuous
 62
     7
100
AcDbLine
 10
145.845314
 20
68.6048
 30
0.0
 11
147.560876
 21
68.6048
 31
0.0
  0
LINE
  5
2E3
100
AcDbEntity
  8
1
390
0
  6
Continuous
 62
     7
100
AcDbLine
 10
147.560876
 20
68.6048
 30
0.0
 11
147.560876
 21
68.7978
 31
0.0
  0
LINE
  5
2E4
100
AcDbEntity
  8
1
390
0
  6
Continuous
 62
     7
100
AcDbLine
 10
147.560876
 20
68.7978
 30
0.0
 11
148.354666
 21
68.7978
 31
0.0
  0
LINE
  5
2E5
100
AcDbEntity
  8
1
390
0
  6
Continuous
 62
     7
100
AcDbLine
 10
148.354666
 20
68.7978
 30
0.0
 11
148.354666
 21
68.6048
 31
0.0
  0
LINE
  5
2E6
100
AcDbEntity
  8
1
390
0
  6
Continuous
 62
     7
100
AcDbLine
 10
148.354666
 20
68.6048
 30
0.0
 11
150.048784
 21
68.6048
 31
0.0
  0
LINE
  5
2E7
100
AcDbEntity
  8
1
390
0
  6
Continuous
 62
     7
100
AcDbLine
 10
150.048784
 20
68.6048
 30
0.0
 11
150.048784
 21
68.7978
 31
0.0
  0
LINE
  5
2E8
100
AcDbEntity
  8
1
390
0
  6
Continuous
 62
     7
100
AcDbLine
 10
150.048784
 20
68.7978
 30
0.0
 11
150.863676
 21
68.7978
 31
0.0
  0
LINE
  5
2E9
100
AcDbEntity
  8
1
390
0
  6
Continuous
 62
     7
100
AcDbLine
 10
150.863676
 20
68.7978
 30
0.0
 11
150.863676
 21
68.6048
 31
0.0
  0
LINE
  5
2EA
100
AcDbEntity
  8
1
390
0
  6
Continuous
 62
     7
100
AcDbLine
 10
150.863676
 20
68.6048
 30
0.0
 11
152.557793
 21
68.6048
 31
0.0
  0
LINE
  5
2EB
100
AcDbEntity
  8
1
390
0
  6
Continuous
 62
     7
100
AcDbLine
 10
152.557793
 20
68.6048
 30
0.0
 11
152.557793
 21
68.7978
 31
0.0
  0
LINE
  5
2EC
100
AcDbEntity
  8
1
390
0
  6
Continuous
 62
     7
100
AcDbLine
 10
158.412149
 20
75.038157
 30
0.0
 11
158.412149
 21
74.287599
 31
0.0
  0
LINE
  5
2ED
100
AcDbEntity
  8
1
390
0
  6
Continuous
 62
     7
100
AcDbLine
 10
159.306043
 20
75.038157
 30
0.0
 11
158.412149
 21
75.038157
 31
0.0
  0
ARC
  5
2EE
100
AcDbEntity
  8
1
390
0
  6
Continuous
 62
     7
100
AcDbCircle
 10
159.306043
 20
74.538157
 30
0.0
 40
0.5
210
0.0
220
0.0
230
1.0
100
AcDbArc
 50
0.0
 51
90.0
  0
LINE
  5
2EF
100
AcDbEntity
  8
1
390
0
  6
Continuous
 62
     7
100
AcDbLine
 10
159.806043
 20
69.855358
 30
0.0
 11
159.806043
 21
74.538157
 31
0.0
  0
ARC
  5
2F0
100
AcDbEntity
  8
1
390
0
  6
Continuous
 62
     7
100
AcDbCircle
 10
159.306043
 20
69.855358
 30
0.0
 40
0.5
210
0.0
220
0.0
230
1.0
100
AcDbArc
 50
270.0
 51
360.0
  0
LINE
  5
2F1
100
AcDbEntity
  8
1
390
0
  6
Continuous
 62
     7
100
AcDbLine
 10
145.244867
 20
74.287599
 30
0.0
 11
145.244867
 21
75.295492
 31
0.0
  0
LINE
  5
2F2
100
AcDbEntity
  8
1
390
0
  6
Continuous
 62
     7
100
AcDbLine
 10
145.244867
 20
75.295492
 30
0.0
 11
143.193192
 21
75.295492
 31
0.0
  0
ARC
  5
2F3
100
AcDbEntity
  8
1
390
0
  6
Continuous
 62
     7
100
AcDbCircle
 10
143.193192
 20
75.095492
 30
0.0
 40
0.2
210
0.0
220
0.0
230
1.0
100
AcDbArc
 50
90.0
 51
180.0
  0
LINE
  5
2F4
100
AcDbEntity
  8
1
390
0
  6
Continuous
 62
     7
100
AcDbLine
 10
142.993192
 20
75.095492
 30
0.0
 11
142.993192
 21
68.8048
 31
0.0
  0
ARC
  5
2F5
100
AcDbEntity
  8
1
390
0
  6
Continuous
 62
     7
100
AcDbCircle
 10
143.193192
 20
68.8048
 30
0.0
 40
0.2
210
0.0
220
0.0
230
1.0
100
AcDbArc
 50
180.0
 51
270.0
  0
LINE
  5
2F6
100
AcDbEntity
  8
1
390
0
  6
Continuous
 62
     7
100
AcDbLine
 10
143.193192
 20
68.6048
 30
0.0
 11
145.051866
 21
68.6048
 31
0.0
  0
LINE
  5
2F7
100
AcDbEntity
  8
1
390
0
  6
Continuous
 62
     7
100
AcDbLine
 10
145.051866
 20
68.6048
 30
0.0
 11
145.051866
 21
68.7978
 31
0.0
  0
LINE
  5
2F8
100
AcDbEntity
  8
1
390
0
  6
Continuous
 62
     7
100
AcDbLine
 10
152.557793
 20
68.7978
 30
0.0
 11
153.351241
 21
68.7978
 31
0.0
  0
LINE
  5
2F9
100
AcDbEntity
  8
1
390
0
  6
Continuous
 62
     7
100
AcDbLine
 10
153.351241
 20
68.7978
 30
0.0
 11
153.351241
 21
68.6048
 31
0.0
  0
LINE
  5
2FA
100
AcDbEntity
  8
1
390
0
  6
Continuous
 62
     7
100
AcDbLine
 10
153.351241
 20
68.6048
 30
0.0
 11
155.045358
 21
68.6048
 31
0.0
  0
LINE
  5
2FB
100
AcDbEntity
  8
1
390
0
  6
Continuous
 62
     7
100
AcDbLine
 10
155.045358
 20
68.6048
 30
0.0
 11
155.045358
 21
68.7978
 31
0.0
  0
LINE
  5
2FC
100
AcDbEntity
  8
1
390
0
  6
Continuous
 62
     7
100
AcDbLine
 10
145.244867
 20
74.544933
 30
0.0
 11
145.952536
 21
74.544933
 31
0.0
  0
LINE
  5
2FD
100
AcDbEntity
  8
1
390
0
  6
Continuous
 62
     7
100
AcDbLine
 10
145.952536
 20
74.71649
 30
0.0
 11
147.453653
 21
74.71649
 31
0.0
  0
LINE
  5
2FE
100
AcDbEntity
  8
1
390
0
  6
Continuous
 62
     7
100
AcDbLine
 10
147.453653
 20
74.71649
 30
0.0
 11
147.453653
 21
74.544933
 31
0.0
  0
LINE
  5
2FF
100
AcDbEntity
  8
1
390
0
  6
Continuous
 62
     7
100
AcDbLine
 10
157.447145
 20
74.71649
 30
0.0
 11
157.447145
 21
74.544933
 31
0.0
  0
LINE
  5
300
100
AcDbEntity
  8
1
390
0
  6
Continuous
 62
     7
100
AcDbLine
 10
157.447145
 20
74.544933
 30
0.0
 11
158.154814
 21
74.544933
 31
0.0
  0
LINE
  5
301
100
AcDbEntity
  8
1
390
0
  6
Continuous
 62
     7
100
AcDbLine
 10
147.453653
 20
74.544933
 30
0.0
 11
155.946028
 21
74.544933
 31
0.0
  0
LINE
  5
302
100
AcDbEntity
  8
1
390
0
  6
Continuous
 62
     7
100
AcDbLine
 10
155.946028
 20
74.544933
 30
0.0
 11
155.946028
 21
74.71649
 31
0.0
  0
LINE
  5
303
100
AcDbEntity
  8
1
390
0
  6
Continuous
 62
     7
100
AcDbLine
 10
155.946028
 20
74.71649
 30
0.0
 11
157.447145
 21
74.71649
 31
0.0
  0
LINE
  5
304
100
AcDbEntity
  8
1
390
0
  6
Continuous
 62
     7
100
AcDbLine
 10
145.952536
 20
74.544933
 30
0.0
 11
145.952536
 21
74.71649
 31
0.0
  0
LINE
  5
305
100
AcDbEntity
  8
1
390
0
  6
Continuous
 62
     7
100
AcDbLine
 10
145.244867
 20
74.287599
 30
0.0
 11
158.154814
 21
74.287599
 31
0.0
  0
LINE
  5
306
100
AcDbEntity
  8
1
390
0
  6
Continuous
 62
     7
100
AcDbLine
 10
153.051017
 20
62.943445
 30
0.0
 11
156.246252
 21
62.943445
 31
0.0
  0
LINE
  5
307
100
AcDbEntity
  8
1
390
0
  6
Continuous
 62
     7
100
AcDbLine
 10
156.246252
 20
62.943445
 30
0.0
 11
156.246252
 21
63.136446
 31
0.0
  0
LINE
  5
308
100
AcDbEntity
  8
1
390
0
  6
Continuous
 62
     7
100
AcDbLine
 10
156.246252
 20
63.136446
 30
0.0
 11
157.747368
 21
63.136446
 31
0.0
  0
LINE
  5
309
100
AcDbEntity
  8
1
390
0
  6
Continuous
 62
     7
100
AcDbLine
 10
157.747368
 20
62.943445
 30
0.0
 11
160.942603
 21
62.943445
 31
0.0
  0
LINE
  5
30A
100
AcDbEntity
  8
1
390
0
  6
Continuous
 62
     7
100
AcDbLine
 10
157.747368
 20
63.136446
 30
0.0
 11
157.747368
 21
62.943445
 31
0.0
  0
LINE
  5
30B
100
AcDbEntity
  8
1
390
0
  6
Continuous
 62
     7
100
AcDbLine
 10
153.051017
 20
62.686111
 30
0.0
 11
160.942603
 21
62.686111
 31
0.0
  0
ARC
  5
30C
100
AcDbEntity
  8
1
390
0
  6
Continuous
 62
     7
100
AcDbCircle
 10
169.45405
 20
51.355954
 30
0.0
 40
1.0
210
0.0
220
0.0
230
1.0
100
AcDbArc
 50
270.0
 51
360.0
  0
LINE
  5
30D
100
AcDbEntity
  8
1
390
0
  6
Continuous
 62
     7
100
AcDbLine
 10
169.45405
 20
50.355954
 30
0.0
 11
68.45405
 21
50.355954
 31
0.0
  0
LINE
  5
30E
100
AcDbEntity
  8
1
390
0
  6
Continuous
 62
     7
100
AcDbLine
 10
144.601531
 20
62.943445
 30
0.0
 11
142.650079
 21
62.943445
 31
0.0
  0
LINE
  5
30F
100
AcDbEntity
  8
1
390
0
  6
Continuous
 62
     7
100
AcDbLine
 10
144.601531
 20
63.136446
 30
0.0
 11
144.601531
 21
62.943445
 31
0.0
  0
LINE
  5
310
100
AcDbEntity
  8
1
390
0
  6
Continuous
 62
     7
100
AcDbLine
 10
146.102648
 20
63.136446
 30
0.0
 11
144.601531
 21
63.136446
 31
0.0
  0
LINE
  5
311
100
AcDbEntity
  8
1
390
0
  6
Continuous
 62
     7
100
AcDbLine
 10
146.102648
 20
62.943445
 30
0.0
 11
146.102648
 21
63.136446
 31
0.0
  0
LINE
  5
312
100
AcDbEntity
  8
1
390
0
  6
Continuous
 62
     7
100
AcDbLine
 10
148.0541
 20
62.943445
 30
0.0
 11
146.102648
 21
62.943445
 31
0.0
  0
LINE
  5
313
100
AcDbEntity
  8
1
390
0
  6
Continuous
 62
     7
100
AcDbLine
 10
142.650079
 20
62.686111
 30
0.0
 11
148.0541
 21
62.686111
 31
0.0
  0
ARC
  5
314
100
AcDbEntity
  8
1
390
0
  6
Continuous
 62
     7
100
AcDbCircle
 10
163.809393
 20
56.902865
 30
0.0
 40
0.5
210
0.0
220
0.0
230
1.0
100
AcDbArc
 50
270.0
 51
360.0
  0
LINE
  5
315
100
AcDbEntity
  8
1
390
0
  6
Continuous
 62
     7
100
AcDbLine
 10
164.309393
 20
64.888121
 30
0.0
 11
164.309393
 21
56.902865
 31
0.0
  0
ARC
  5
316
100
AcDbEntity
  8
1
390
0
  6
Continuous
 62
     7
100
AcDbCircle
 10
163.809393
 20
64.888121
 30
0.0
 40
0.5
210
0.0
220
0.0
230
1.0
100
AcDbArc
 50
360.0
 51
90.0
  0
LINE
  5
317
100
AcDbEntity
  8
1
390
0
  6
Continuous
 62
     7
100
AcDbLine
 10
119.711213
 20
65.388121
 30
0.0
 11
163.809393
 21
65.388121
 31
0.0
  0
ARC
  5
318
100
AcDbEntity
  8
1
390
0
  6
Continuous
 62
     7
100
AcDbCircle
 10
119.711213
 20
64.888121
 30
0.0
 40
0.5
210
0.0
220
0.0
230
1.0
100
AcDbArc
 50
90.0
 51
180.0
  0
LINE
  5
319
100
AcDbEntity
  8
1
390
0
  6
Continuous
 62
     7
100
AcDbLine
 10
119.211213
 20
56.902865
 30
0.0
 11
119.211213
 21
64.888121
 31
0.0
  0
ARC
  5
31A
100
AcDbEntity
  8
1
390
0
  6
Continuous
 62
     7
100
AcDbCircle
 10
119.711213
 20
56.902865
 30
0.0
 40
0.5
210
0.0
220
0.0
230
1.0
100
AcDbArc
 50
180.0
 51
270.0
  0
LINE
  5
31B
100
AcDbEntity
  8
1
390
0
  6
Continuous
 62
     7
100
AcDbLine
 10
163.809393
 20
56.402865
 30
0.0
 11
119.711213
 21
56.402865
 31
0.0
  0
LINE
  5
31C
100
AcDbEntity
  8
1
390
0
  6
Continuous
 62
     7
100
AcDbLine
 10
142.199744
 20
76.596832
 30
0.0
 11
142.199744
 21
68.590131
 31
0.0
  0
ARC
  5
31D
100
AcDbEntity
  8
1
390
0
  6
Continuous
 62
     7
100
AcDbCircle
 10
142.699744
 20
68.590131
 30
0.0
 40
0.5
210
0.0
220
0.0
230
1.0
100
AcDbArc
 50
180.0
 51
270.0
  0
LINE
  5
31E
100
AcDbEntity
  8
1
390
0
  6
Continuous
 62
     7
100
AcDbLine
 10
142.699744
 20
68.090131
 30
0.0
 11
160.699937
 21
68.090131
 31
0.0
  0
ARC
  5
31F
100
AcDbEntity
  8
1
390
0
  6
Continuous
 62
     7
100
AcDbCircle
 10
160.699937
 20
68.590131
 30
0.0
 40
0.5
210
0.0
220
0.0
230
1.0
100
AcDbArc
 50
270.0
 51
0.0
  0
LINE
  5
320
100
AcDbEntity
  8
1
390
0
  6
Continuous
 62
     7
100
AcDbLine
 10
161.199937
 20
68.590131
 30
0.0
 11
161.199937
 21
76.596832
 31
0.0
  0
ARC
  5
321
100
AcDbEntity
  8
1
390
0
  6
Continuous
 62
     7
100
AcDbCircle
 10
160.699937
 20
76.596832
 30
0.0
 40
0.5
210
0.0
220
0.0
230
1.0
100
AcDbArc
 50
0.0
 51
90.0
  0
LINE
  5
322
100
AcDbEntity
  8
1
390
0
  6
Continuous
 62
     7
100
AcDbLine
 10
160.699937
 20
77.096832
 30
0.0
 11
142.699744
 21
77.096832
 31
0.0
  0
ARC
  5
323
100
AcDbEntity
  8
1
390
0
  6
Continuous
 62
     7
100
AcDbCircle
 10
142.699744
 20
76.596832
 30
0.0
 40
0.5
210
0.0
220
0.0
230
1.0
100
AcDbArc
 50
90.0
 51
180.0
  0
LINE
  5
324
100
AcDbEntity
  8
1
390
0
  6
Continuous
 62
     7
100
AcDbLine
 10
170.45405
 20
79.355954
 30
0.0
 11
170.45405
 21
51.355954
 31
0.0
  0
LINE
  5
325
100
AcDbEntity
  8
1
390
0
  6
Continuous
 62
     7
100
AcDbLine
 10
122.964005
 20
62.943445
 30
0.0
 11
122.256336
 21
62.943445
 31
0.0
  0
LINE
  5
326
100
AcDbEntity
  8
1
390
0
  6
Continuous
 62
     7
100
AcDbLine
 10
136.945836
 20
63.136446
 30
0.0
 11
135.444719
 21
63.136446
 31
0.0
  0
LINE
  5
327
100
AcDbEntity
  8
1
390
0
  6
Continuous
 62
     7
100
AcDbLine
 10
135.444719
 20
63.136446
 30
0.0
 11
135.444719
 21
62.943445
 31
0.0
  0
LINE
  5
328
100
AcDbEntity
  8
1
390
0
  6
Continuous
 62
     7
100
AcDbLine
 10
122.964005
 20
63.136446
 30
0.0
 11
122.964005
 21
62.943445
 31
0.0
  0
LINE
  5
329
100
AcDbEntity
  8
1
390
0
  6
Continuous
 62
     7
100
AcDbLine
 10
135.444719
 20
62.943445
 30
0.0
 11
124.443677
 21
62.943445
 31
0.0
  0
LINE
  5
32A
100
AcDbEntity
  8
1
390
0
  6
Continuous
 62
     7
100
AcDbLine
 10
124.443677
 20
63.136446
 30
0.0
 11
122.964005
 21
63.136446
 31
0.0
  0
LINE
  5
32B
100
AcDbEntity
  8
1
390
0
  6
Continuous
 62
     7
100
AcDbLine
 10
137.653505
 20
62.943445
 30
0.0
 11
136.945836
 21
62.943445
 31
0.0
  0
LINE
  5
32C
100
AcDbEntity
  8
1
390
0
  6
Continuous
 62
     7
100
AcDbLine
 10
136.945836
 20
62.943445
 30
0.0
 11
136.945836
 21
63.136446
 31
0.0
  0
LINE
  5
32D
100
AcDbEntity
  8
1
390
0
  6
Continuous
 62
     7
100
AcDbLine
 10
124.443677
 20
62.943445
 30
0.0
 11
124.443677
 21
63.136446
 31
0.0
  0
LINE
  5
32E
100
AcDbEntity
  8
1
390
0
  6
Continuous
 62
     7
100
AcDbLine
 10
137.653505
 20
62.686111
 30
0.0
 11
122.256336
 21
62.686111
 31
0.0
  0
LINE
  5
32F
100
AcDbEntity
  8
1
390
0
  6
Continuous
 62
     7
100
AcDbLine
 10
68.45405
 20
80.355954
 30
0.0
 11
169.45405
 21
80.355954
 31
0.0
  0
ARC
  5
330
100
AcDbEntity
  8
1
390
0
  6
Continuous
 62
     7
100
AcDbCircle
 10
169.45405
 20
79.355954
 30
0.0
 40
1.0
210
0.0
220
0.0
230
1.0
100
AcDbArc
 50
0.0
 51
90.0
  0
ARC
  5
331
100
AcDbEntity
  8
1
390
0
  6
Continuous
 62
     7
100
AcDbCircle
 10
68.45405
 20
79.355954
 30
0.0
 40
1.0
210
0.0
220
0.0
230
1.0
100
AcDbArc
 50
90.0
 51
180.0
  0
ARC
  5
332
100
AcDbEntity
  8
1
390
0
  6
Continuous
 62
     7
100
AcDbCircle
 10
68.45405
 20
51.355954
 30
0.0
 40
1.0
210
0.0
220
0.0
230
1.0
100
AcDbArc
 50
180.0
 51
270.0
  0
LINE
  5
333
100
AcDbEntity
  8
1
390
0
  6
Continuous
 62
     7
100
AcDbLine
 10
67.45405
 20
51.355954
 30
0.0
 11
67.45405
 21
79.355954
 31
0.0
  0
ARC
  5
334
100
AcDbEntity
  8
1
390
0
  6
Continuous
 62
     7
100
AcDbCircle
 10
157.95405
 20
72.305954
 30
0.0
 40
0.3
210
0.0
220
0.0
230
1.0
100
AcDbArc
 50
360.0
 51
270.0
  0
ARC
  5
335
100
AcDbEntity
  8
1
390
0
  6
Continuous
 62
     7
100
AcDbCircle
 10
157.95405
 20
72.305954
 30
0.0
 40
0.3
210
0.0
220
0.0
230
1.0
100
AcDbArc
 50
270.0
 51
360.0
  0
ARC
  5
336
100
AcDbEntity
  8
1
390
0
  6
Continuous
 62
     7
100
AcDbCircle
 10
152.95405
 20
72.305954
 30
0.0
 40
0.3
210
0.0
220
0.0
230
1.0
100
AcDbArc
 50
360.0
 51
270.0
  0
ARC
  5
337
100
AcDbEntity
  8
1
390
0
  6
Continuous
 62
     7
100
AcDbCircle
 10
152.95405
 20
72.305954
 30
0.0
 40
0.3
210
0.0
220
0.0
230
1.0
100
AcDbArc
 50
270.0
 51
360.0
  0
ARC
  5
338
100
AcDbEntity
  8
1
390
0
  6
Continuous
 62
     7
100
AcDbCircle
 10
145.45405
 20
72.305954
 30
0.0
 40
0.3
210
0.0
220
0.0
230
1.0
100
AcDbArc
 50
360.0
 51
270.0
  0
ARC
  5
339
100
AcDbEntity
  8
1
390
0
  6
Continuous
 62
     7
100
AcDbCircle
 10
145.45405
 20
72.305954
 30
0.0
 40
0.3
210
0.0
220
0.0
230
1.0
100
AcDbArc
 50
270.0
 51
360.0
  0
ARC
  5
33A
100
AcDbEntity
  8
1
390
0
  6
Continuous
 62
     7
100
AcDbCircle
 10
155.45405
 20
72.305954
 30
0.0
 40
0.3
210
0.0
220
0.0
230
1.0
100
AcDbArc
 50
360.0
 51
270.0
  0
ARC
  5
33B
100
AcDbEntity
  8
1
390
0
  6
Continuous
 62
     7
100
AcDbCircle
 10
155.45405
 20
72.305954
 30
0.0
 40
0.3
210
0.0
220
0.0
230
1.0
100
AcDbArc
 50
270.0
 51
360.0
  0
ARC
  5
33C
100
AcDbEntity
  8
1
390
0
  6
Continuous
 62
     7
100
AcDbCircle
 10
147.95405
 20
72.305954
 30
0.0
 40
0.3
210
0.0
220
0.0
230
1.0
100
AcDbArc
 50
360.0
 51
270.0
  0
ARC
  5
33D
100
AcDbEntity
  8
1
390
0
  6
Continuous
 62
     7
100
AcDbCircle
 10
147.95405
 20
72.305954
 30
0.0
 40
0.3
210
0.0
220
0.0
230
1.0
100
AcDbArc
 50
270.0
 51
360.0
  0
ARC
  5
33E
100
AcDbEntity
  8
1
390
0
  6
Continuous
 62
     7
100
AcDbCircle
 10
150.45405
 20
72.305954
 30
0.0
 40
0.3
210
0.0
220
0.0
230
1.0
100
AcDbArc
 50
360.0
 51
270.0
  0
ARC
  5
33F
100
AcDbEntity
  8
1
390
0
  6
Continuous
 62
     7
100
AcDbCircle
 10
150.45405
 20
72.305954
 30
0.0
 40
0.3
210
0.0
220
0.0
230
1.0
100
AcDbArc
 50
270.0
 51
360.0
  0
ARC
  5
340
100
AcDbEntity
  8
1
390
0
  6
Continuous
 62
     7
100
AcDbCircle
 10
127.45405
 20
60.705954
 30
0.0
 40
0.3
210
0.0
220
0.0
230
1.0
100
AcDbArc
 50
360.0
 51
270.0
  0
ARC
  5
341
100
AcDbEntity
  8
1
390
0
  6
Continuous
 62
     7
100
AcDbCircle
 10
127.45405
 20
60.705954
 30
0.0
 40
0.3
210
0.0
220
0.0
230
1.0
100
AcDbArc
 50
270.0
 51
360.0
  0
ARC
  5
342
100
AcDbEntity
  8
1
390
0
  6
Continuous
 62
     7
100
AcDbCircle
 10
124.95405
 20
60.705954
 30
0.0
 40
0.3
210
0.0
220
0.0
230
1.0
100
AcDbArc
 50
360.0
 51
270.0
  0
ARC
  5
343
100
AcDbEntity
  8
1
390
0
  6
Continuous
 62
     7
100
AcDbCircle
 10
124.95405
 20
60.705954
 30
0.0
 40
0.3
210
0.0
220
0.0
230
1.0
100
AcDbArc
 50
270.0
 51
360.0
  0
ARC
  5
344
100
AcDbEntity
  8
1
390
0
  6
Continuous
 62
     7
100
AcDbCircle
 10
132.45405
 20
60.705954
 30
0.0
 40
0.3
210
0.0
220
0.0
230
1.0
100
AcDbArc
 50
360.0
 51
270.0
  0
ARC
  5
345
100
AcDbEntity
  8
1
390
0
  6
Continuous
 62
     7
100
AcDbCircle
 10
132.45405
 20
60.705954
 30
0.0
 40
0.3
210
0.0
220
0.0
230
1.0
100
AcDbArc
 50
270.0
 51
360.0
  0
ARC
  5
346
100
AcDbEntity
  8
1
390
0
  6
Continuous
 62
     7
100
AcDbCircle
 10
158.25405
 20
60.705954
 30
0.0
 40
0.3
210
0.0
220
0.0
230
1.0
100
AcDbArc
 50
360.0
 51
270.0
  0
ARC
  5
347
100
AcDbEntity
  8
1
390
0
  6
Continuous
 62
     7
100
AcDbCircle
 10
158.25405
 20
60.705954
 30
0.0
 40
0.3
210
0.0
220
0.0
230
1.0
100
AcDbArc
 50
270.0
 51
360.0
  0
ARC
  5
348
100
AcDbEntity
  8
1
390
0
  6
Continuous
 62
     7
100
AcDbCircle
 10
122.45405
 20
60.705954
 30
0.0
 40
0.3
210
0.0
220
0.0
230
1.0
100
AcDbArc
 50
360.0
 51
270.0
  0
ARC
  5
349
100
AcDbEntity
  8
1
390
0
  6
Continuous
 62
     7
100
AcDbCircle
 10
122.45405
 20
60.705954
 30
0.0
 40
0.3
210
0.0
220
0.0
230
1.0
100
AcDbArc
 50
270.0
 51
360.0
  0
ARC
  5
34A
100
AcDbEntity
  8
1
390
0
  6
Continuous
 62
     7
100
AcDbCircle
 10
160.75405
 20
60.705954
 30
0.0
 40
0.3
210
0.0
220
0.0
230
1.0
100
AcDbArc
 50
360.0
 51
270.0
  0
ARC
  5
34B
100
AcDbEntity
  8
1
390
0
  6
Continuous
 62
     7
100
AcDbCircle
 10
160.75405
 20
60.705954
 30
0.0
 40
0.3
210
0.0
220
0.0
230
1.0
100
AcDbArc
 50
270.0
 51
360.0
  0
ARC
  5
34C
100
AcDbEntity
  8
1
390
0
  6
Continuous
 62
     7
100
AcDbCircle
 10
129.95405
 20
60.705954
 30
0.0
 40
0.3
210
0.0
220
0.0
230
1.0
100
AcDbArc
 50
360.0
 51
270.0
  0
ARC
  5
34D
100
AcDbEntity
  8
1
390
0
  6
Continuous
 62
     7
100
AcDbCircle
 10
129.95405
 20
60.705954
 30
0.0
 40
0.3
210
0.0
220
0.0
230
1.0
100
AcDbArc
 50
270.0
 51
360.0
  0
ARC
  5
34E
100
AcDbEntity
  8
1
390
0
  6
Continuous
 62
     7
100
AcDbCircle
 10
147.85405
 20
60.705954
 30
0.0
 40
0.3
210
0.0
220
0.0
230
1.0
100
AcDbArc
 50
360.0
 51
270.0
  0
ARC
  5
34F
100
AcDbEntity
  8
1
390
0
  6
Continuous
 62
     7
100
AcDbCircle
 10
147.85405
 20
60.705954
 30
0.0
 40
0.3
210
0.0
220
0.0
230
1.0
100
AcDbArc
 50
270.0
 51
360.0
  0
ARC
  5
350
100
AcDbEntity
  8
1
390
0
  6
Continuous
 62
     7
100
AcDbCircle
 10
134.95405
 20
60.705954
 30
0.0
 40
0.3
210
0.0
220
0.0
230
1.0
100
AcDbArc
 50
360.0
 51
270.0
  0
ARC
  5
351
100
AcDbEntity
  8
1
390
0
  6
Continuous
 62
     7
100
AcDbCircle
 10
134.95405
 20
60.705954
 30
0.0
 40
0.3
210
0.0
220
0.0
230
1.0
100
AcDbArc
 50
270.0
 51
360.0
  0
ARC
  5
352
100
AcDbEntity
  8
1
390
0
  6
Continuous
 62
     7
100
AcDbCircle
 10
137.45405
 20
60.705954
 30
0.0
 40
0.3
210
0.0
220
0.0
230
1.0
100
AcDbArc
 50
360.0
 51
270.0
  0
ARC
  5
353
100
AcDbEntity
  8
1
390
0
  6
Continuous
 62
     7
100
AcDbCircle
 10
137.45405
 20
60.705954
 30
0.0
 40
0.3
210
0.0
220
0.0
230
1.0
100
AcDbArc
 50
270.0
 51
360.0
  0
ARC
  5
354
100
AcDbEntity
  8
1
390
0
  6
Continuous
 62
     7
100
AcDbCircle
 10
155.75405
 20
60.705954
 30
0.0
 40
0.3
210
0.0
220
0.0
230
1.0
100
AcDbArc
 50
360.0
 51
270.0
  0
ARC
  5
355
100
AcDbEntity
  8
1
390
0
  6
Continuous
 62
     7
100
AcDbCircle
 10
155.75405
 20
60.705954
 30
0.0
 40
0.3
210
0.0
220
0.0
230
1.0
100
AcDbArc
 50
270.0
 51
360.0
  0
ARC
  5
356
100
AcDbEntity
  8
1
390
0
  6
Continuous
 62
     7
100
AcDbCircle
 10
145.35405
 20
60.705954
 30
0.0
 40
0.3
210
0.0
220
0.0
230
1.0
100
AcDbArc
 50
360.0
 51
270.0
  0
ARC
  5
357
100
AcDbEntity
  8
1
390
0
  6
Continuous
 62
     7
100
AcDbCircle
 10
145.35405
 20
60.705954
 30
0.0
 40
0.3
210
0.0
220
0.0
230
1.0
100
AcDbArc
 50
270.0
 51
360.0
  0
ARC
  5
358
100
AcDbEntity
  8
1
390
0
  6
Continuous
 62
     7
100
AcDbCircle
 10
153.25405
 20
60.705954
 30
0.0
 40
0.3
210
0.0
220
0.0
230
1.0
100
AcDbArc
 50
360.0
 51
270.0
  0
ARC
  5
359
100
AcDbEntity
  8
1
390
0
  6
Continuous
 62
     7
100
AcDbCircle
 10
153.25405
 20
60.705954
 30
0.0
 40
0.3
210
0.0
220
0.0
230
1.0
100
AcDbArc
 50
270.0
 51
360.0
  0
ARC
  5
35A
100
AcDbEntity
  8
1
390
0
  6
Continuous
 62
     7
100
AcDbCircle
 10
142.85405
 20
60.705954
 30
0.0
 40
0.3
210
0.0
220
0.0
230
1.0
100
AcDbArc
 50
360.0
 51
270.0
  0
ARC
  5
35B
100
AcDbEntity
  8
1
390
0
  6
Continuous
 62
     7
100
AcDbCircle
 10
142.85405
 20
60.705954
 30
0.0
 40
0.3
210
0.0
220
0.0
230
1.0
100
AcDbArc
 50
270.0
 51
360.0
  0
LINE
  5
35C
100
AcDbEntity
  8
1
390
0
  6
Continuous
 62
     7
100
AcDbLine
 10
146.402871
 20
74.287599
 30
0.0
 11
146.402871
 21
69.355358
 31
0.0
  0
LINE
  5
35D
100
AcDbEntity
  8
1
390
0
  6
Continuous
 62
     7
100
AcDbLine
 10
148.912224
 20
69.355358
 30
0.0
 11
148.912224
 21
74.287599
 31
0.0
  0
LINE
  5
35E
100
AcDbEntity
  8
1
390
0
  6
Continuous
 62
     7
100
AcDbLine
 10
147.003318
 20
69.355358
 30
0.0
 11
147.003318
 21
74.287599
 31
0.0
  0
LINE
  5
35F
100
AcDbEntity
  8
1
390
0
  6
Continuous
 62
     7
100
AcDbLine
 10
131.498926
 20
62.686111
 30
0.0
 11
131.498926
 21
57.75387
 31
0.0
  0
LINE
  5
360
100
AcDbEntity
  8
1
390
0
  6
Continuous
 62
     7
100
AcDbLine
 10
133.407489
 20
57.75387
 30
0.0
 11
133.407489
 21
62.686111
 31
0.0
  0
LINE
  5
361
100
AcDbEntity
  8
1
390
0
  6
Continuous
 62
     7
100
AcDbLine
 10
149.512671
 20
74.287599
 30
0.0
 11
149.512671
 21
69.355358
 31
0.0
  0
LINE
  5
362
100
AcDbEntity
  8
1
390
0
  6
Continuous
 62
     7
100
AcDbLine
 10
151.399789
 20
69.355358
 30
0.0
 11
151.399789
 21
74.287599
 31
0.0
  0
LINE
  5
363
100
AcDbEntity
  8
1
390
0
  6
Continuous
 62
     7
100
AcDbLine
 10
124.014787
 20
57.75387
 30
0.0
 11
124.014787
 21
62.686111
 31
0.0
  0
LINE
  5
364
100
AcDbEntity
  8
1
390
0
  6
Continuous
 62
     7
100
AcDbLine
 10
125.901905
 20
57.75387
 30
0.0
 11
125.901905
 21
62.686111
 31
0.0
  0
LINE
  5
365
100
AcDbEntity
  8
1
390
0
  6
Continuous
 62
     7
100
AcDbLine
 10
156.99681
 20
74.287599
 30
0.0
 11
156.99681
 21
69.355358
 31
0.0
  0
LINE
  5
366
100
AcDbEntity
  8
1
390
0
  6
Continuous
 62
     7
100
AcDbLine
 10
154.209022
 20
57.75387
 30
0.0
 11
154.209022
 21
62.686111
 31
0.0
  0
LINE
  5
367
100
AcDbEntity
  8
1
390
0
  6
Continuous
 62
     7
100
AcDbLine
 10
129.011361
 20
62.686111
 30
0.0
 11
129.011361
 21
57.75387
 31
0.0
  0
LINE
  5
368
100
AcDbEntity
  8
1
390
0
  6
Continuous
 62
     7
100
AcDbLine
 10
130.898479
 20
57.75387
 30
0.0
 11
130.898479
 21
62.686111
 31
0.0
  0
LINE
  5
369
100
AcDbEntity
  8
1
390
0
  6
Continuous
 62
     7
100
AcDbLine
 10
154.809468
 20
62.686111
 30
0.0
 11
154.809468
 21
57.75387
 31
0.0
  0
LINE
  5
36A
100
AcDbEntity
  8
1
390
0
  6
Continuous
 62
     7
100
AcDbLine
 10
156.696587
 20
57.75387
 30
0.0
 11
156.696587
 21
62.686111
 31
0.0
  0
LINE
  5
36B
100
AcDbEntity
  8
1
390
0
  6
Continuous
 62
     7
100
AcDbLine
 10
159.806043
 20
62.686111
 30
0.0
 11
159.806043
 21
57.75387
 31
0.0
  0
LINE
  5
36C
100
AcDbEntity
  8
1
390
0
  6
Continuous
 62
     7
100
AcDbLine
 10
156.396363
 20
69.355358
 30
0.0
 11
156.396363
 21
74.287599
 31
0.0
  0
LINE
  5
36D
100
AcDbEntity
  8
1
390
0
  6
Continuous
 62
     7
100
AcDbLine
 10
154.509245
 20
74.287599
 30
0.0
 11
154.509245
 21
69.355358
 31
0.0
  0
LINE
  5
36E
100
AcDbEntity
  8
1
390
0
  6
Continuous
 62
     7
100
AcDbLine
 10
126.502352
 20
62.686111
 30
0.0
 11
126.502352
 21
57.75387
 31
0.0
  0
LINE
  5
36F
100
AcDbEntity
  8
1
390
0
  6
Continuous
 62
     7
100
AcDbLine
 10
128.410915
 20
57.75387
 30
0.0
 11
128.410915
 21
62.686111
 31
0.0
  0
LINE
  5
370
100
AcDbEntity
  8
1
390
0
  6
Continuous
 62
     7
100
AcDbLine
 10
159.205596
 20
57.75387
 30
0.0
 11
159.205596
 21
62.686111
 31
0.0
  0
LINE
  5
371
100
AcDbEntity
  8
1
390
0
  6
Continuous
 62
     7
100
AcDbLine
 10
157.297033
 20
62.686111
 30
0.0
 11
157.297033
 21
57.75387
 31
0.0
  0
LINE
  5
372
100
AcDbEntity
  8
1
390
0
  6
Continuous
 62
     7
100
AcDbLine
 10
143.808084
 20
57.75387
 30
0.0
 11
143.808084
 21
62.686111
 31
0.0
  0
LINE
  5
373
100
AcDbEntity
  8
1
390
0
  6
Continuous
 62
     7
100
AcDbLine
 10
123.41434
 20
62.686111
 30
0.0
 11
123.41434
 21
57.75387
 31
0.0
  0
LINE
  5
374
100
AcDbEntity
  8
1
390
0
  6
Continuous
 62
     7
100
AcDbLine
 10
136.495501
 20
62.686111
 30
0.0
 11
136.495501
 21
57.75387
 31
0.0
  0
LINE
  5
375
100
AcDbEntity
  8
1
390
0
  6
Continuous
 62
     7
100
AcDbLine
 10
146.896095
 20
62.686111
 30
0.0
 11
146.896095
 21
57.75387
 31
0.0
  0
LINE
  5
376
100
AcDbEntity
  8
1
390
0
  6
Continuous
 62
     7
100
AcDbLine
 10
152.000236
 20
74.287599
 30
0.0
 11
152.000236
 21
69.355358
 31
0.0
  0
LINE
  5
377
100
AcDbEntity
  8
1
390
0
  6
Continuous
 62
     7
100
AcDbLine
 10
153.908798
 20
69.355358
 30
0.0
 11
153.908798
 21
74.287599
 31
0.0
  0
LINE
  5
378
100
AcDbEntity
  8
1
390
0
  6
Continuous
 62
     7
100
AcDbLine
 10
144.40853
 20
62.686111
 30
0.0
 11
144.40853
 21
57.75387
 31
0.0
  0
LINE
  5
379
100
AcDbEntity
  8
1
390
0
  6
Continuous
 62
     7
100
AcDbLine
 10
146.295649
 20
57.75387
 30
0.0
 11
146.295649
 21
62.686111
 31
0.0
  0
LINE
  5
37A
100
AcDbEntity
  8
1
390
0
  6
Continuous
 62
     7
100
AcDbLine
 10
134.007936
 20
62.686111
 30
0.0
 11
134.007936
 21
57.75387
 31
0.0
  0
LINE
  5
37B
100
AcDbEntity
  8
1
390
0
  6
Continuous
 62
     7
100
AcDbLine
 10
135.895054
 20
57.75387
 30
0.0
 11
135.895054
 21
62.686111
 31
0.0
  0
LINE
  5
37C
100
AcDbEntity
  8
1
390
0
  6
DOT
 62
     9
100
AcDbLine
 10
169.713414
 20
51.084954
 30
0.0
 11
169.713414
 21
79.626954
 31
0.0
  0
LINE
  5
37D
100
AcDbEntity
  8
1
390
0
  6
DOT
 62
     9
100
AcDbLine
 10
169.713414
 20
79.626954
 30
0.0
 11
68.194687
 21
79.626954
 31
0.0
  0
LINE
  5
37E
100
AcDbEntity
  8
1
390
0
  6
DOT
 62
     9
100
AcDbLine
 10
169.713414
 20
51.084954
 30
0.0
 11
68.194687
 21
51.084954
 31
0.0
  0
LINE
  5
37F
100
AcDbEntity
  8
1
390
0
  6
DOT
 62
     9
100
AcDbLine
 10
68.194687
 20
51.084954
 30
0.0
 11
68.194687
 21
79.626954
 31
0.0
  0
ARC
  5
380
100
AcDbEntity
  8
1
390
0
  6
DOT
 62
     9
100
AcDbCircle
 10
161.443719
 20
51.355954
 30
0.0
 40
1.0
210
0.0
220
0.0
230
1.0
100
AcDbArc
 50
270.0
 51
360.0
  0
ARC
  5
381
100
AcDbEntity
  8
1
390
0
  6
DOT
 62
     9
100
AcDbCircle
 10
76.464381
 20
79.355954
 30
0.0
 40
1.0
210
0.0
220
0.0
230
1.0
100
AcDbArc
 50
90.0
 51
180.0
  0
LINE
  5
382
100
AcDbEntity
  8
1
390
0
  6
DOT
 62
     9
100
AcDbLine
 10
170.45405
 20
59.855954
 30
0.0
 11
162.443719
 21
59.855954
 31
0.0
  0
LINE
  5
383
100
AcDbEntity
  8
1
390
0
  6
DOT
 62
     9
100
AcDbLine
 10
67.45405
 20
70.855954
 30
0.0
 11
75.464381
 21
70.855954
 31
0.0
  0
LINE
  5
384
100
AcDbEntity
  8
1
390
0
  6
DOT
 62
     9
100
AcDbLine
 10
75.464381
 20
79.355954
 30
0.0
 11
75.464381
 21
70.855954
 31
0.0
  0
LINE
  5
385
100
AcDbEntity
  8
1
390
0
  6
DOT
 62
     9
100
AcDbLine
 10
162.443719
 20
51.355954
 30
0.0
 11
162.443719
 21
59.855954
 31
0.0
  0
POLYLINE
  5
386
100
AcDbEntity
  8
1
390
0
  6
DOT
 62
     9
100
AcDb2dPolyline
 66
     1
 10
0.0
 20
0.0
 30
0.0
 40
1.0
 41
1.0
  0
VERTEX
  5
387
100
AcDbEntity
  8
1
390
0
 62
     9
100
AcDbVertex
100
AcDb2dVertex
 10
136.474056
 20
51.355954
 30
0.0
  0
VERTEX
  5
388
100
AcDbEntity
  8
1
390
0
 62
     9
100
AcDbVertex
100
AcDb2dVertex
 10
136.475238
 20
51.306886
 30
0.0
  0
VERTEX
  5
389
100
AcDbEntity
  8
1
390
0
 62
     9
100
AcDbVertex
100
AcDb2dVertex
 10
136.47878
 20
51.257937
 30
0.0
  0
VERTEX
  5
38A
100
AcDbEntity
  8
1
390
0
 62
     9
100
AcDbVertex
100
AcDb2dVertex
 10
136.484674
 20
51.209224
 30
0.0
  0
VERTEX
  5
38B
100
AcDbEntity
  8
1
390
0
 62
     9
100
AcDbVertex
100
AcDb2dVertex
 10
136.492907
 20
51.160864
 30
0.0
  0
VERTEX
  5
38C
100
AcDbEntity
  8
1
390
0
 62
     9
100
AcDbVertex
100
AcDb2dVertex
 10
136.503457
 20
51.112974
 30
0.0
  0
VERTEX
  5
38D
100
AcDbEntity
  8
1
390
0
 62
     9
100
AcDbVertex
100
AcDb2dVertex
 10
136.516299
 20
51.065669
 30
0.0
  0
VERTEX
  5
38E
100
AcDbEntity
  8
1
390
0
 62
     9
100
AcDbVertex
100
AcDb2dVertex
 10
136.531404
 20
51.019064
 30
0.0
  0
VERTEX
  5
38F
100
AcDbEntity
  8
1
390
0
 62
     9
100
AcDbVertex
100
AcDb2dVertex
 10
136.548734
 20
50.973271
 30
0.0
  0
VERTEX
  5
390
100
AcDbEntity
  8
1
390
0
 62
     9
100
AcDbVertex
100
AcDb2dVertex
 10
136.568247
 20
50.928399
 30
0.0
  0
VERTEX
  5
391
100
AcDbEntity
  8
1
390
0
 62
     9
100
AcDbVertex
100
AcDb2dVertex
 10
136.589897
 20
50.884557
 30
0.0
  0
VERTEX
  5
392
100
AcDbEntity
  8
1
390
0
 62
     9
100
AcDbVertex
100
AcDb2dVertex
 10
136.613631
 20
50.841851
 30
0.0
  0
VERTEX
  5
393
100
AcDbEntity
  8
1
390
0
 62
     9
100
AcDbVertex
100
AcDb2dVertex
 10
136.639392
 20
50.800384
 30
0.0
  0
VERTEX
  5
394
100
AcDbEntity
  8
1
390
0
 62
     9
100
AcDbVertex
100
AcDb2dVertex
 10
136.667118
 20
50.760255
 30
0.0
  0
VERTEX
  5
395
100
AcDbEntity
  8
1
390
0
 62
     9
100
AcDbVertex
100
AcDb2dVertex
 10
136.696743
 20
50.721561
 30
0.0
  0
VERTEX
  5
396
100
AcDbEntity
  8
1
390
0
 62
     9
100
AcDbVertex
100
AcDb2dVertex
 10
136.728194
 20
50.684395
 30
0.0
  0
VERTEX
  5
397
100
AcDbEntity
  8
1
390
0
 62
     9
100
AcDbVertex
100
AcDb2dVertex
 10
136.761397
 20
50.648847
 30
0.0
  0
VERTEX
  5
398
100
AcDbEntity
  8
1
390
0
 62
     9
100
AcDbVertex
100
AcDb2dVertex
 10
136.796271
 20
50.615003
 30
0.0
  0
VERTEX
  5
399
100
AcDbEntity
  8
1
390
0
 62
     9
100
AcDbVertex
100
AcDb2dVertex
 10
136.832732
 20
50.582944
 30
0.0
  0
VERTEX
  5
39A
100
AcDbEntity
  8
1
390
0
 62
     9
100
AcDbVertex
100
AcDb2dVertex
 10
136.870693
 20
50.552747
 30
0.0
  0
VERTEX
  5
39B
100
AcDbEntity
  8
1
390
0
 62
     9
100
AcDbVertex
100
AcDb2dVertex
 10
136.910061
 20
50.524485
 30
0.0
  0
VERTEX
  5
39C
100
AcDbEntity
  8
1
390
0
 62
     9
100
AcDbVertex
100
AcDb2dVertex
 10
136.950743
 20
50.498226
 30
0.0
  0
VERTEX
  5
39D
100
AcDbEntity
  8
1
390
0
 62
     9
100
AcDbVertex
100
AcDb2dVertex
 10
136.992639
 20
50.474033
 30
0.0
  0
VERTEX
  5
39E
100
AcDbEntity
  8
1
390
0
 62
     9
100
AcDbVertex
100
AcDb2dVertex
 10
137.03565
 20
50.451965
 30
0.0
  0
VERTEX
  5
39F
100
AcDbEntity
  8
1
390
0
 62
     9
100
AcDbVertex
100
AcDb2dVertex
 10
137.079671
 20
50.432075
 30
0.0
  0
VERTEX
  5
3A0
100
AcDbEntity
  8
1
390
0
 62
     9
100
AcDbVertex
100
AcDb2dVertex
 10
137.124597
 20
50.41441
 30
0.0
  0
VERTEX
  5
3A1
100
AcDbEntity
  8
1
390
0
 62
     9
100
AcDbVertex
100
AcDb2dVertex
 10
137.170318
 20
50.399014
 30
0.0
  0
VERTEX
  5
3A2
100
AcDbEntity
  8
1
390
0
 62
     9
100
AcDbVertex
100
AcDb2dVertex
 10
137.216726
 20
50.385923
 30
0.0
  0
VERTEX
  5
3A3
100
AcDbEntity
  8
1
390
0
 62
     9
100
AcDbVertex
100
AcDb2dVertex
 10
137.263708
 20
50.375169
 30
0.0
  0
VERTEX
  5
3A4
100
AcDbEntity
  8
1
390
0
 62
     9
100
AcDbVertex
100
AcDb2dVertex
 10
137.311151
 20
50.366778
 30
0.0
  0
VERTEX
  5
3A5
100
AcDbEntity
  8
1
390
0
 62
     9
100
AcDbVertex
100
AcDb2dVertex
 10
137.358941
 20
50.360769
 30
0.0
  0
VERTEX
  5
3A6
100
AcDbEntity
  8
1
390
0
 62
     9
100
AcDbVertex
100
AcDb2dVertex
 10
137.406963
 20
50.357159
 30
0.0
  0
VERTEX
  5
3A7
100
AcDbEntity
  8
1
390
0
 62
     9
100
AcDbVertex
100
AcDb2dVertex
 10
137.4551
 20
50.355954
 30
0.0
  0
SEQEND
  5
3A8
100
AcDbEntity
  8
0
390
0
  0
ELLIPSE
  5
3A9
100
AcDbEntity
  8
1
390
0
  6
DOT
 62
     9
100
AcDbEllipse
 10
137.560012
 20
51.355954
 30
0.0
 11
-1.0001831292220931
 21
0.0
 31
0.0
210
0.0
220
0.0
230
1.0
 40
0.999817
 41
0.0
 42
1.5707963267948926
  0
ELLIPSE
  5
3AA
100
AcDbEntity
  8
1
390
0
  6
DOT
 62
     9
100
AcDbEllipse
 10
99.875966
 20
51.355954
 30
0.0
 11
-1.0001831292220931
 21
0.0
 31
0.0
210
0.0
220
0.0
230
1.0
 40
0.999817
 41
1.5707963267948966
 42
3.1415926535897931
  0
POLYLINE
  5
3AB
100
AcDbEntity
  8
1
390
0
  6
DOT
 62
     9
100
AcDb2dPolyline
 66
     1
 10
0.0
 20
0.0
 30
0.0
 40
1.0
 41
1.0
  0
VERTEX
  5
3AC
100
AcDbEntity
  8
1
390
0
 62
     9
100
AcDbVertex
100
AcDb2dVertex
 10
100.961922
 20
51.355954
 30
0.0
  0
VERTEX
  5
3AD
100
AcDbEntity
  8
1
390
0
 62
     9
100
AcDbVertex
100
AcDb2dVertex
 10
100.96074
 20
51.306886
 30
0.0
  0
VERTEX
  5
3AE
100
AcDbEntity
  8
1
390
0
 62
     9
100
AcDbVertex
100
AcDb2dVertex
 10
100.957198
 20
51.257937
 30
0.0
  0
VERTEX
  5
3AF
100
AcDbEntity
  8
1
390
0
 62
     9
100
AcDbVertex
100
AcDb2dVertex
 10
100.951304
 20
51.209224
 30
0.0
  0
VERTEX
  5
3B0
100
AcDbEntity
  8
1
390
0
 62
     9
100
AcDbVertex
100
AcDb2dVertex
 10
100.943071
 20
51.160864
 30
0.0
  0
VERTEX
  5
3B1
100
AcDbEntity
  8
1
390
0
 62
     9
100
AcDbVertex
100
AcDb2dVertex
 10
100.932521
 20
51.112974
 30
0.0
  0
VERTEX
  5
3B2
100
AcDbEntity
  8
1
390
0
 62
     9
100
AcDbVertex
100
AcDb2dVertex
 10
100.919679
 20
51.065669
 30
0.0
  0
VERTEX
  5
3B3
100
AcDbEntity
  8
1
390
0
 62
     9
100
AcDbVertex
100
AcDb2dVertex
 10
100.904574
 20
51.019064
 30
0.0
  0
VERTEX
  5
3B4
100
AcDbEntity
  8
1
390
0
 62
     9
100
AcDbVertex
100
AcDb2dVertex
 10
100.887244
 20
50.973271
 30
0.0
  0
VERTEX
  5
3B5
100
AcDbEntity
  8
1
390
0
 62
     9
100
AcDbVertex
100
AcDb2dVertex
 10
100.867731
 20
50.928399
 30
0.0
  0
VERTEX
  5
3B6
100
AcDbEntity
  8
1
390
0
 62
     9
100
AcDbVertex
100
AcDb2dVertex
 10
100.846082
 20
50.884557
 30
0.0
  0
VERTEX
  5
3B7
100
AcDbEntity
  8
1
390
0
 62
     9
100
AcDbVertex
100
AcDb2dVertex
 10
100.822347
 20
50.841851
 30
0.0
  0
VERTEX
  5
3B8
100
AcDbEntity
  8
1
390
0
 62
     9
100
AcDbVertex
100
AcDb2dVertex
 10
100.796586
 20
50.800384
 30
0.0
  0
VERTEX
  5
3B9
100
AcDbEntity
  8
1
390
0
 62
     9
100
AcDbVertex
100
AcDb2dVertex
 10
100.76886
 20
50.760255
 30
0.0
  0
VERTEX
  5
3BA
100
AcDbEntity
  8
1
390
0
 62
     9
100
AcDbVertex
100
AcDb2dVertex
 10
100.739235
 20
50.721561
 30
0.0
  0
VERTEX
  5
3BB
100
AcDbEntity
  8
1
390
0
 62
     9
100
AcDbVertex
100
AcDb2dVertex
 10
100.707784
 20
50.684395
 30
0.0
  0
VERTEX
  5
3BC
100
AcDbEntity
  8
1
390
0
 62
     9
100
AcDbVertex
100
AcDb2dVertex
 10
100.674581
 20
50.648847
 30
0.0
  0
VERTEX
  5
3BD
100
AcDbEntity
  8
1
390
0
 62
     9
100
AcDbVertex
100
AcDb2dVertex
 10
100.639707
 20
50.615003
 30
0.0
  0
VERTEX
  5
3BE
100
AcDbEntity
  8
1
390
0
 62
     9
100
AcDbVertex
100
AcDb2dVertex
 10
100.603246
 20
50.582944
 30
0.0
  0
VERTEX
  5
3BF
100
AcDbEntity
  8
1
390
0
 62
     9
100
AcDbVertex
100
AcDb2dVertex
 10
100.565285
 20
50.552747
 30
0.0
  0
VERTEX
  5
3C0
100
AcDbEntity
  8
1
390
0
 62
     9
100
AcDbVertex
100
AcDb2dVertex
 10
100.525917
 20
50.524485
 30
0.0
  0
VERTEX
  5
3C1
100
AcDbEntity
  8
1
390
0
 62
     9
100
AcDbVertex
100
AcDb2dVertex
 10
100.485235
 20
50.498226
 30
0.0
  0
VERTEX
  5
3C2
100
AcDbEntity
  8
1
390
0
 62
     9
100
AcDbVertex
100
AcDb2dVertex
 10
100.443339
 20
50.474033
 30
0.0
  0
VERTEX
  5
3C3
100
AcDbEntity
  8
1
390
0
 62
     9
100
AcDbVertex
100
AcDb2dVertex
 10
100.400328
 20
50.451965
 30
0.0
  0
VERTEX
  5
3C4
100
AcDbEntity
  8
1
390
0
 62
     9
100
AcDbVertex
100
AcDb2dVertex
 10
100.356307
 20
50.432075
 30
0.0
  0
VERTEX
  5
3C5
100
AcDbEntity
  8
1
390
0
 62
     9
100
AcDbVertex
100
AcDb2dVertex
 10
100.311382
 20
50.41441
 30
0.0
  0
VERTEX
  5
3C6
100
AcDbEntity
  8
1
390
0
 62
     9
100
AcDbVertex
100
AcDb2dVertex
 10
100.26566
 20
50.399014
 30
0.0
  0
VERTEX
  5
3C7
100
AcDbEntity
  8
1
390
0
 62
     9
100
AcDbVertex
100
AcDb2dVertex
 10
100.219252
 20
50.385923
 30
0.0
  0
VERTEX
  5
3C8
100
AcDbEntity
  8
1
390
0
 62
     9
100
AcDbVertex
100
AcDb2dVertex
 10
100.17227
 20
50.375169
 30
0.0
  0
VERTEX
  5
3C9
100
AcDbEntity
  8
1
390
0
 62
     9
100
AcDbVertex
100
AcDb2dVertex
 10
100.124827
 20
50.366778
 30
0.0
  0
VERTEX
  5
3CA
100
AcDbEntity
  8
1
390
0
 62
     9
100
AcDbVertex
100
AcDb2dVertex
 10
100.077037
 20
50.360769
 30
0.0
  0
VERTEX
  5
3CB
100
AcDbEntity
  8
1
390
0
 62
     9
100
AcDbVertex
100
AcDb2dVertex
 10
100.029015
 20
50.357159
 30
0.0
  0
VERTEX
  5
3CC
100
AcDbEntity
  8
1
390
0
 62
     9
100
AcDbVertex
100
AcDb2dVertex
 10
99.980878
 20
50.355954
 30
0.0
  0
SEQEND
  5
3CD
100
AcDbEntity
  8
0
390
0
  0
POLYLINE
  5
3CE
100
AcDbEntity
  8
1
390
0
  6
DOT
 62
     9
100
AcDb2dPolyline
 66
     1
 10
0.0
 20
0.0
 30
0.0
 40
1.0
 41
1.0
  0
VERTEX
  5
3CF
100
AcDbEntity
  8
1
390
0
 62
     9
100
AcDbVertex
100
AcDb2dVertex
 10
100.961922
 20
79.355954
 30
0.0
  0
VERTEX
  5
3D0
100
AcDbEntity
  8
1
390
0
 62
     9
100
AcDbVertex
100
AcDb2dVertex
 10
100.96074
 20
79.405022
 30
0.0
  0
VERTEX
  5
3D1
100
AcDbEntity
  8
1
390
0
 62
     9
100
AcDbVertex
100
AcDb2dVertex
 10
100.957198
 20
79.453971
 30
0.0
  0
VERTEX
  5
3D2
100
AcDbEntity
  8
1
390
0
 62
     9
100
AcDbVertex
100
AcDb2dVertex
 10
100.951304
 20
79.502685
 30
0.0
  0
VERTEX
  5
3D3
100
AcDbEntity
  8
1
390
0
 62
     9
100
AcDbVertex
100
AcDb2dVertex
 10
100.943071
 20
79.551044
 30
0.0
  0
VERTEX
  5
3D4
100
AcDbEntity
  8
1
390
0
 62
     9
100
AcDbVertex
100
AcDb2dVertex
 10
100.932521
 20
79.598934
 30
0.0
  0
VERTEX
  5
3D5
100
AcDbEntity
  8
1
390
0
 62
     9
100
AcDbVertex
100
AcDb2dVertex
 10
100.919679
 20
79.646239
 30
0.0
  0
VERTEX
  5
3D6
100
AcDbEntity
  8
1
390
0
 62
     9
100
AcDbVertex
100
AcDb2dVertex
 10
100.904574
 20
79.692844
 30
0.0
  0
VERTEX
  5
3D7
100
AcDbEntity
  8
1
390
0
 62
     9
100
AcDbVertex
100
AcDb2dVertex
 10
100.887244
 20
79.738638
 30
0.0
  0
VERTEX
  5
3D8
100
AcDbEntity
  8
1
390
0
 62
     9
100
AcDbVertex
100
AcDb2dVertex
 10
100.867731
 20
79.783509
 30
0.0
  0
VERTEX
  5
3D9
100
AcDbEntity
  8
1
390
0
 62
     9
100
AcDbVertex
100
AcDb2dVertex
 10
100.846082
 20
79.827351
 30
0.0
  0
VERTEX
  5
3DA
100
AcDbEntity
  8
1
390
0
 62
     9
100
AcDbVertex
100
AcDb2dVertex
 10
100.822347
 20
79.870057
 30
0.0
  0
VERTEX
  5
3DB
100
AcDbEntity
  8
1
390
0
 62
     9
100
AcDbVertex
100
AcDb2dVertex
 10
100.796586
 20
79.911524
 30
0.0
  0
VERTEX
  5
3DC
100
AcDbEntity
  8
1
390
0
 62
     9
100
AcDbVertex
100
AcDb2dVertex
 10
100.76886
 20
79.951653
 30
0.0
  0
VERTEX
  5
3DD
100
AcDbEntity
  8
1
390
0
 62
     9
100
AcDbVertex
100
AcDb2dVertex
 10
100.739235
 20
79.990347
 30
0.0
  0
VERTEX
  5
3DE
100
AcDbEntity
  8
1
390
0
 62
     9
100
AcDbVertex
100
AcDb2dVertex
 10
100.707784
 20
80.027513
 30
0.0
  0
VERTEX
  5
3DF
100
AcDbEntity
  8
1
390
0
 62
     9
100
AcDbVertex
100
AcDb2dVertex
 10
100.674581
 20
80.063061
 30
0.0
  0
VERTEX
  5
3E0
100
AcDbEntity
  8
1
390
0
 62
     9
100
AcDbVertex
100
AcDb2dVertex
 10
100.639707
 20
80.096905
 30
0.0
  0
VERTEX
  5
3E1
100
AcDbEntity
  8
1
390
0
 62
     9
100
AcDbVertex
100
AcDb2dVertex
 10
100.603246
 20
80.128965
 30
0.0
  0
VERTEX
  5
3E2
100
AcDbEntity
  8
1
390
0
 62
     9
100
AcDbVertex
100
AcDb2dVertex
 10
100.565285
 20
80.159162
 30
0.0
  0
VERTEX
  5
3E3
100
AcDbEntity
  8
1
390
0
 62
     9
100
AcDbVertex
100
AcDb2dVertex
 10
100.525917
 20
80.187424
 30
0.0
  0
VERTEX
  5
3E4
100
AcDbEntity
  8
1
390
0
 62
     9
100
AcDbVertex
100
AcDb2dVertex
 10
100.485235
 20
80.213683
 30
0.0
  0
VERTEX
  5
3E5
100
AcDbEntity
  8
1
390
0
 62
     9
100
AcDbVertex
100
AcDb2dVertex
 10
100.443339
 20
80.237875
 30
0.0
  0
VERTEX
  5
3E6
100
AcDbEntity
  8
1
390
0
 62
     9
100
AcDbVertex
100
AcDb2dVertex
 10
100.400328
 20
80.259943
 30
0.0
  0
VERTEX
  5
3E7
100
AcDbEntity
  8
1
390
0
 62
     9
100
AcDbVertex
100
AcDb2dVertex
 10
100.356307
 20
80.279834
 30
0.0
  0
VERTEX
  5
3E8
100
AcDbEntity
  8
1
390
0
 62
     9
100
AcDbVertex
100
AcDb2dVertex
 10
100.311382
 20
80.297498
 30
0.0
  0
VERTEX
  5
3E9
100
AcDbEntity
  8
1
390
0
 62
     9
100
AcDbVertex
100
AcDb2dVertex
 10
100.26566
 20
80.312895
 30
0.0
  0
VERTEX
  5
3EA
100
AcDbEntity
  8
1
390
0
 62
     9
100
AcDbVertex
100
AcDb2dVertex
 10
100.219252
 20
80.325985
 30
0.0
  0
VERTEX
  5
3EB
100
AcDbEntity
  8
1
390
0
 62
     9
100
AcDbVertex
100
AcDb2dVertex
 10
100.17227
 20
80.336739
 30
0.0
  0
VERTEX
  5
3EC
100
AcDbEntity
  8
1
390
0
 62
     9
100
AcDbVertex
100
AcDb2dVertex
 10
100.124827
 20
80.345131
 30
0.0
  0
VERTEX
  5
3ED
100
AcDbEntity
  8
1
390
0
 62
     9
100
AcDbVertex
100
AcDb2dVertex
 10
100.077037
 20
80.351139
 30
0.0
  0
VERTEX
  5
3EE
100
AcDbEntity
  8
1
390
0
 62
     9
100
AcDbVertex
100
AcDb2dVertex
 10
100.029015
 20
80.35475
 30
0.0
  0
VERTEX
  5
3EF
100
AcDbEntity
  8
1
390
0
 62
     9
100
AcDbVertex
100
AcDb2dVertex
 10
99.980878
 20
80.355954
 30
0.0
  0
SEQEND
  5
3F0
100
AcDbEntity
  8
0
390
0
  0
ELLIPSE
  5
3F1
100
AcDbEntity
  8
1
390
0
  6
DOT
 62
     9
100
AcDbEllipse
 10
99.875966
 20
79.355954
 30
0.0
 11
1.0001831292220931
 21
0.0
 31
0.0
210
0.0
220
0.0
230
1.0
 40
0.999817
 41
6.2831853071795791
 42
7.8539816339744828
  0
POLYLINE
  5
3F2
100
AcDbEntity
  8
1
390
0
  6
DOT
 62
     9
100
AcDb2dPolyline
 66
     1
 10
0.0
 20
0.0
 30
0.0
 40
1.0
 41
1.0
  0
VERTEX
  5
3F3
100
AcDbEntity
  8
1
390
0
 62
     9
100
AcDbVertex
100
AcDb2dVertex
 10
136.474056
 20
79.355954
 30
0.0
  0
VERTEX
  5
3F4
100
AcDbEntity
  8
1
390
0
 62
     9
100
AcDbVertex
100
AcDb2dVertex
 10
136.475238
 20
79.405022
 30
0.0
  0
VERTEX
  5
3F5
100
AcDbEntity
  8
1
390
0
 62
     9
100
AcDbVertex
100
AcDb2dVertex
 10
136.47878
 20
79.453971
 30
0.0
  0
VERTEX
  5
3F6
100
AcDbEntity
  8
1
390
0
 62
     9
100
AcDbVertex
100
AcDb2dVertex
 10
136.484674
 20
79.502685
 30
0.0
  0
VERTEX
  5
3F7
100
AcDbEntity
  8
1
390
0
 62
     9
100
AcDbVertex
100
AcDb2dVertex
 10
136.492907
 20
79.551044
 30
0.0
  0
VERTEX
  5
3F8
100
AcDbEntity
  8
1
390
0
 62
     9
100
AcDbVertex
100
AcDb2dVertex
 10
136.503457
 20
79.598934
 30
0.0
  0
VERTEX
  5
3F9
100
AcDbEntity
  8
1
390
0
 62
     9
100
AcDbVertex
100
AcDb2dVertex
 10
136.516299
 20
79.646239
 30
0.0
  0
VERTEX
  5
3FA
100
AcDbEntity
  8
1
390
0
 62
     9
100
AcDbVertex
100
AcDb2dVertex
 10
136.531404
 20
79.692844
 30
0.0
  0
VERTEX
  5
3FB
100
AcDbEntity
  8
1
390
0
 62
     9
100
AcDbVertex
100
AcDb2dVertex
 10
136.548734
 20
79.738638
 30
0.0
  0
VERTEX
  5
3FC
100
AcDbEntity
  8
1
390
0
 62
     9
100
AcDbVertex
100
AcDb2dVertex
 10
136.568247
 20
79.783509
 30
0.0
  0
VERTEX
  5
3FD
100
AcDbEntity
  8
1
390
0
 62
     9
100
AcDbVertex
100
AcDb2dVertex
 10
136.589897
 20
79.827351
 30
0.0
  0
VERTEX
  5
3FE
100
AcDbEntity
  8
1
390
0
 62
     9
100
AcDbVertex
100
AcDb2dVertex
 10
136.613631
 20
79.870057
 30
0.0
  0
VERTEX
  5
3FF
100
AcDbEntity
  8
1
390
0
 62
     9
100
AcDbVertex
100
AcDb2dVertex
 10
136.639392
 20
79.911524
 30
0.0
  0
VERTEX
  5
400
100
AcDbEntity
  8
1
390
0
 62
     9
100
AcDbVertex
100
AcDb2dVertex
 10
136.667118
 20
79.951653
 30
0.0
  0
VERTEX
  5
401
100
AcDbEntity
  8
1
390
0
 62
     9
100
AcDbVertex
100
AcDb2dVertex
 10
136.696743
 20
79.990347
 30
0.0
  0
VERTEX
  5
402
100
AcDbEntity
  8
1
390
0
 62
     9
100
AcDbVertex
100
AcDb2dVertex
 10
136.728194
 20
80.027513
 30
0.0
  0
VERTEX
  5
403
100
AcDbEntity
  8
1
390
0
 62
     9
100
AcDbVertex
100
AcDb2dVertex
 10
136.761397
 20
80.063061
 30
0.0
  0
VERTEX
  5
404
100
AcDbEntity
  8
1
390
0
 62
     9
100
AcDbVertex
100
AcDb2dVertex
 10
136.796271
 20
80.096905
 30
0.0
  0
VERTEX
  5
405
100
AcDbEntity
  8
1
390
0
 62
     9
100
AcDbVertex
100
AcDb2dVertex
 10
136.832732
 20
80.128965
 30
0.0
  0
VERTEX
  5
406
100
AcDbEntity
  8
1
390
0
 62
     9
100
AcDbVertex
100
AcDb2dVertex
 10
136.870693
 20
80.159162
 30
0.0
  0
VERTEX
  5
407
100
AcDbEntity
  8
1
390
0
 62
     9
100
AcDbVertex
100
AcDb2dVertex
 10
136.910061
 20
80.187424
 30
0.0
  0
VERTEX
  5
408
100
AcDbEntity
  8
1
390
0
 62
     9
100
AcDbVertex
100
AcDb2dVertex
 10
136.950743
 20
80.213683
 30
0.0
  0
VERTEX
  5
409
100
AcDbEntity
  8
1
390
0
 62
     9
100
AcDbVertex
100
AcDb2dVertex
 10
136.992639
 20
80.237875
 30
0.0
  0
VERTEX
  5
40A
100
AcDbEntity
  8
1
390
0
 62
     9
100
AcDbVertex
100
AcDb2dVertex
 10
137.03565
 20
80.259943
 30
0.0
  0
VERTEX
  5
40B
100
AcDbEntity
  8
1
390
0
 62
     9
100
AcDbVertex
100
AcDb2dVertex
 10
137.079671
 20
80.279834
 30
0.0
  0
VERTEX
  5
40C
100
AcDbEntity
  8
1
390
0
 62
     9
100
AcDbVertex
100
AcDb2dVertex
 10
137.124597
 20
80.297498
 30
0.0
  0
VERTEX
  5
40D
100
AcDbEntity
  8
1
390
0
 62
     9
100
AcDbVertex
100
AcDb2dVertex
 10
137.170318
 20
80.312895
 30
0.0
  0
VERTEX
  5
40E
100
AcDbEntity
  8
1
390
0
 62
     9
100
AcDbVertex
100
AcDb2dVertex
 10
137.216726
 20
80.325985
 30
0.0
  0
VERTEX
  5
40F
100
AcDbEntity
  8
1
390
0
 62
     9
100
AcDbVertex
100
AcDb2dVertex
 10
137.263708
 20
80.336739
 30
0.0
  0
VERTEX
  5
410
100
AcDbEntity
  8
1
390
0
 62
     9
100
AcDbVertex
100
AcDb2dVertex
 10
137.311151
 20
80.345131
 30
0.0
  0
VERTEX
  5
411
100
AcDbEntity
  8
1
390
0
 62
     9
100
AcDbVertex
100
AcDb2dVertex
 10
137.358941
 20
80.351139
 30
0.0
  0
VERTEX
  5
412
100
AcDbEntity
  8
1
390
0
 62
     9
100
AcDbVertex
100
AcDb2dVertex
 10
137.406963
 20
80.35475
 30
0.0
  0
VERTEX
  5
413
100
AcDbEntity
  8
1
390
0
 62
     9
100
AcDbVertex
100
AcDb2dVertex
 10
137.4551
 20
80.355954
 30
0.0
  0
SEQEND
  5
414
100
AcDbEntity
  8
0
390
0
  0
ELLIPSE
  5
415
100
AcDbEntity
  8
1
390
0
  6
DOT
 62
     9
100
AcDbEllipse
 10
137.560012
 20
79.355954
 30
0.0
 11
1.0001831292220931
 21
0.0
 31
0.0
210
0.0
220
0.0
230
1.0
 40
0.999817
 41
1.5707963267948926
 42
3.141592653589794
  0
LINE
  5
416
100
AcDbEntity
  8
1
390
0
  6
DOT
 62
     9
100
AcDbLine
 10
136.474056
 20
60.355954
 30
0.0
 11
136.474056
 21
70.355954
 31
0.0
  0
LINE
  5
417
100
AcDbEntity
  8
1
390
0
  6
DOT
 62
     9
100
AcDbLine
 10
136.474056
 20
77.855954
 30
0.0
 11
136.474056
 21
79.355954
 31
0.0
  0
LINE
  5
418
100
AcDbEntity
  8
1
390
0
  6
DOT
 62
     9
100
AcDbLine
 10
136.474056
 20
51.355954
 30
0.0
 11
136.474056
 21
52.855954
 31
0.0
  0
LINE
  5
419
100
AcDbEntity
  8
1
390
0
  6
DOT
 62
     9
100
AcDbLine
 10
136.431167
 20
52.855954
 30
0.0
 11
136.431167
 21
60.355954
 31
0.0
  0
LINE
  5
41A
100
AcDbEntity
  8
1
390
0
  6
DOT
 62
     9
100
AcDbLine
 10
136.474056
 20
52.855954
 30
0.0
 11
136.531105
 21
52.855954
 31
0.0
  0
LINE
  5
41B
100
AcDbEntity
  8
1
390
0
  6
DOT
 62
     9
100
AcDbLine
 10
136.431167
 20
52.855954
 30
0.0
 11
136.474056
 21
52.855954
 31
0.0
  0
LINE
  5
41C
100
AcDbEntity
  8
1
390
0
  6
Continuous
 62
     7
100
AcDbLine
 10
63.804219
 20
62.855954
 30
0.0
 11
63.804219
 21
67.855954
 31
0.0
  0
LINE
  5
41D
100
AcDbEntity
  8
1
390
0
  6
Continuous
 62
     7
100
AcDbLine
 10
61.804219
 20
59.355954
 30
0.0
 11
61.804219
 21
71.355954
 31
0.0
  0
ARC
  5
41E
100
AcDbEntity
  8
1
390
0
  6
Continuous
 62
     7
100
AcDbCircle
 10
64.304219
 20
62.855954
 30
0.0
 40
0.5
210
0.0
220
0.0
230
1.0
100
AcDbArc
 50
180.0
 51
270.0
  0
LINE
  5
41F
100
AcDbEntity
  8
1
390
0
  6
Continuous
 62
     7
100
AcDbLine
 10
67.45405
 20
71.355954
 30
0.0
 11
61.804219
 21
71.355954
 31
0.0
  0
LINE
  5
420
100
AcDbEntity
  8
1
390
0
  6
Continuous
 62
     7
100
AcDbLine
 10
67.45405
 20
59.355954
 30
0.0
 11
61.804219
 21
59.355954
 31
0.0
  0
LINE
  5
421
100
AcDbEntity
  8
1
390
0
  6
Continuous
 62
     7
100
AcDbLine
 10
66.804219
 20
62.355954
 30
0.0
 11
64.304219
 21
62.355954
 31
0.0
  0
ARC
  5
422
100
AcDbEntity
  8
1
390
0
  6
Continuous
 62
     7
100
AcDbCircle
 10
64.304219
 20
67.855954
 30
0.0
 40
0.5
210
0.0
220
0.0
230
1.0
100
AcDbArc
 50
90.0
 51
180.0
  0
ARC
  5
423
100
AcDbEntity
  8
1
390
0
  6
Continuous
 62
     7
100
AcDbCircle
 10
66.804219
 20
67.855954
 30
0.0
 40
0.5
210
0.0
220
0.0
230
1.0
100
AcDbArc
 50
360.0
 51
90.0
  0
LINE
  5
424
100
AcDbEntity
  8
1
390
0
  6
Continuous
 62
     7
100
AcDbLine
 10
67.304219
 20
67.855954
 30
0.0
 11
67.304219
 21
62.855954
 31
0.0
  0
LINE
  5
425
100
AcDbEntity
  8
1
390
0
  6
Continuous
 62
     7
100
AcDbLine
 10
64.304219
 20
68.355954
 30
0.0
 11
66.804219
 21
68.355954
 31
0.0
  0
ARC
  5
426
100
AcDbEntity
  8
1
390
0
  6
Continuous
 62
     7
100
AcDbCircle
 10
66.804219
 20
62.855954
 30
0.0
 40
0.5
210
0.0
220
0.0
230
1.0
100
AcDbArc
 50
270.0
 51
360.0
  0
LINE
  5
427
100
AcDbEntity
  8
1
390
0
  6
DOT
 62
     9
100
AcDbLine
 10
136.474056
 20
77.855954
 30
0.0
 11
136.531105
 21
77.855954
 31
0.0
  0
LINE
  5
428
100
AcDbEntity
  8
1
390
0
  6
DOT
 62
     9
100
AcDbLine
 10
136.431167
 20
77.855954
 30
0.0
 11
136.474056
 21
77.855954
 31
0.0
  0
LINE
  5
429
100
AcDbEntity
  8
1
390
0
  6
DOT
 62
     9
100
AcDbLine
 10
136.431167
 20
70.355954
 30
0.0
 11
136.431167
 21
77.855954
 31
0.0
  0
LINE
  5
42A
100
AcDbEntity
  8
1
390
0
  6
DOT
 62
     9
100
AcDbLine
 10
136.474056
 20
70.355954
 30
0.0
 11
136.531105
 21
70.355954
 31
0.0
  0
LINE
  5
42B
100
AcDbEntity
  8
1
390
0
  6
DOT
 62
     9
100
AcDbLine
 10
136.431167
 20
70.355954
 30
0.0
 11
136.474056
 21
70.355954
 31
0.0
  0
LINE
  5
42C
100
AcDbEntity
  8
1
390
0
  6
DOT
 62
     9
100
AcDbLine
 10
136.474056
 20
60.355954
 30
0.0
 11
136.531105
 21
60.355954
 31
0.0
  0
LINE
  5
42D
100
AcDbEntity
  8
1
390
0
  6
DOT
 62
     9
100
AcDbLine
 10
136.431167
 20
60.355954
 30
0.0
 11
136.474056
 21
60.355954
 31
0.0
  0
LINE
  5
42E
100
AcDbEntity
  8
1
390
0
  6
DOT
 62
     9
100
AcDbLine
 10
100.961922
 20
51.355954
 30
0.0
 11
100.961922
 21
79.355954
 31
0.0
  0
LINE
  5
42F
100
AcDbEntity
  8
1
390
0
  6
DOT
 62
     9
100
AcDbLine
 10
101.621385
 20
59.355954
 30
0.0
 11
100.952717
 21
59.355954
 31
0.0
  0
LINE
  5
430
100
AcDbEntity
  8
1
390
0
  6
DOT
 62
     9
100
AcDbLine
 10
101.621385
 20
60.355954
 30
0.0
 11
100.952717
 21
60.355954
 31
0.0
  0
LINE
  5
431
100
AcDbEntity
  8
1
390
0
  6
DOT
 62
     9
100
AcDbLine
 10
100.952717
 20
59.355954
 30
0.0
 11
100.952717
 21
60.355954
 31
0.0
  0
LINE
  5
432
100
AcDbEntity
  8
1
390
0
  6
DOT
 62
     9
100
AcDbLine
 10
100.952717
 20
60.355954
 30
0.0
 11
100.908636
 21
60.355954
 31
0.0
  0
LINE
  5
433
100
AcDbEntity
  8
1
390
0
  6
DOT
 62
     9
100
AcDbLine
 10
100.952717
 20
71.355954
 30
0.0
 11
100.908636
 21
71.355954
 31
0.0
  0
LINE
  5
434
100
AcDbEntity
  8
1
390
0
  6
DOT
 62
     9
100
AcDbLine
 10
101.621385
 20
70.355954
 30
0.0
 11
100.952717
 21
70.355954
 31
0.0
  0
LINE
  5
435
100
AcDbEntity
  8
1
390
0
  6
DOT
 62
     9
100
AcDbLine
 10
101.621385
 20
71.355954
 30
0.0
 11
100.952717
 21
71.355954
 31
0.0
  0
LINE
  5
436
100
AcDbEntity
  8
1
390
0
  6
DOT
 62
     9
100
AcDbLine
 10
100.952717
 20
70.355954
 30
0.0
 11
100.952717
 21
71.355954
 31
0.0
  0
LINE
  5
437
100
AcDbEntity
  8
1
390
0
  6
DOT
 62
     9
100
AcDbLine
 10
100.952717
 20
59.355954
 30
0.0
 11
100.908636
 21
59.355954
 31
0.0
  0
LINE
  5
438
100
AcDbEntity
  8
1
390
0
  6
DOT
 62
     9
100
AcDbLine
 10
100.952717
 20
70.355954
 30
0.0
 11
100.908636
 21
70.355954
 31
0.0
  0
LINE
  5
439
100
AcDbEntity
  8
1
390
0
  6
DOT
 62
     9
100
AcDbLine
 10
101.741385
 20
59.355954
 30
0.0
 11
101.621385
 21
59.355954
 31
0.0
  0
LINE
  5
43A
100
AcDbEntity
  8
1
390
0
  6
DOT
 62
     9
100
AcDbLine
 10
101.741385
 20
60.355954
 30
0.0
 11
101.621385
 21
60.355954
 31
0.0
  0
LINE
  5
43B
100
AcDbEntity
  8
1
390
0
  6
DOT
 62
     9
100
AcDbLine
 10
101.741385
 20
70.355954
 30
0.0
 11
101.621385
 21
70.355954
 31
0.0
  0
LINE
  5
43C
100
AcDbEntity
  8
1
390
0
  6
DOT
 62
     9
100
AcDbLine
 10
101.741385
 20
71.355954
 30
0.0
 11
101.621385
 21
71.355954
 31
0.0
  0
LINE
  5
43D
100
AcDbEntity
  8
1
390
0
  6
DOT
 62
     9
100
AcDbLine
 10
61.804219
 20
60.355954
 30
0.0
 11
67.45405
 21
60.355954
 31
0.0
  0
LINE
  5
43E
100
AcDbEntity
  8
1
390
0
  6
DOT
 62
     9
100
AcDbLine
 10
67.45405
 20
70.355954
 30
0.0
 11
61.804219
 21
70.355954
 31
0.0
  0
LINE
  5
43F
100
AcDbEntity
  8
1
390
0
  6
DOT
 62
     9
100
AcDbLine
 10
134.951495
 20
70.355954
 30
0.0
 11
134.951495
 21
77.855954
 31
0.0
  0
LINE
  5
440
100
AcDbEntity
  8
1
390
0
  6
DOT
 62
     9
100
AcDbLine
 10
134.951495
 20
70.355954
 30
0.0
 11
136.431167
 21
70.355954
 31
0.0
  0
LINE
  5
441
100
AcDbEntity
  8
1
390
0
  6
DOT
 62
     9
100
AcDbLine
 10
134.951495
 20
77.855954
 30
0.0
 11
136.431167
 21
77.855954
 31
0.0
  0
LINE
  5
442
100
AcDbEntity
  8
1
390
0
  6
DOT
 62
     9
100
AcDbLine
 10
134.951495
 20
52.855954
 30
0.0
 11
134.951495
 21
56.402865
 31
0.0
  0
LINE
  5
443
100
AcDbEntity
  8
1
390
0
  6
DOT
 62
     9
100
AcDbLine
 10
134.951495
 20
56.402865
 30
0.0
 11
134.951495
 21
57.196312
 31
0.0
  0
LINE
  5
444
100
AcDbEntity
  8
1
390
0
  6
DOT
 62
     9
100
AcDbLine
 10
134.951495
 20
57.196312
 30
0.0
 11
134.951495
 21
57.75387
 31
0.0
  0
LINE
  5
445
100
AcDbEntity
  8
1
390
0
  6
DOT
 62
     9
100
AcDbLine
 10
134.951495
 20
57.75387
 30
0.0
 11
134.951495
 21
60.355954
 31
0.0
  0
LINE
  5
446
100
AcDbEntity
  8
1
390
0
  6
DOT
 62
     9
100
AcDbLine
 10
134.951495
 20
60.355954
 30
0.0
 11
135.895054
 21
60.355954
 31
0.0
  0
LINE
  5
447
100
AcDbEntity
  8
1
390
0
  6
DOT
 62
     9
100
AcDbLine
 10
135.895054
 20
60.355954
 30
0.0
 11
136.431167
 21
60.355954
 31
0.0
  0
LINE
  5
448
100
AcDbEntity
  8
1
390
0
  6
DOT
 62
     9
100
AcDbLine
 10
134.951495
 20
52.855954
 30
0.0
 11
136.431167
 21
52.855954
 31
0.0
  0
LINE
  5
449
100
AcDbEntity
  8
1
390
0
  6
DOT
 62
     9
100
AcDbLine
 10
67.101016
 20
60.355954
 30
0.0
 11
67.101016
 21
59.355954
 31
0.0
  0
LINE
  5
44A
100
AcDbEntity
  8
1
390
0
  6
DOT
 62
     9
100
AcDbLine
 10
67.101016
 20
71.355954
 30
0.0
 11
67.101016
 21
70.355954
 31
0.0
  0
LINE
  5
44B
100
AcDbEntity
  8
1
390
0
  6
DOT
 62
     9
100
AcDbLine
 10
100.908636
 20
71.355954
 30
0.0
 11
100.908636
 21
70.355954
 31
0.0
  0
LINE
  5
44C
100
AcDbEntity
  8
1
390
0
  6
DOT
 62
     9
100
AcDbLine
 10
100.908636
 20
60.355954
 30
0.0
 11
100.908636
 21
59.355954
 31
0.0
  0
LINE
  5
44D
100
AcDbEntity
  8
1
390
0
  6
DOT
 62
     9
100
AcDbLine
 10
136.531105
 20
70.355954
 30
0.0
 11
136.531105
 21
77.855954
 31
0.0
  0
LINE
  5
44E
100
AcDbEntity
  8
1
390
0
  6
DOT
 62
     9
100
AcDbLine
 10
136.531105
 20
52.855954
 30
0.0
 11
136.531105
 21
60.355954
 31
0.0
  0
LINE
  5
44F
100
AcDbEntity
  8
1
390
0
  6
DOT
 62
     9
100
AcDbLine
 10
100.876149
 20
51.355954
 30
0.0
 11
100.876149
 21
79.355954
 31
0.0
  0
LINE
  5
450
100
AcDbEntity
  8
1
390
0
  6
DOT
 62
     9
100
AcDbLine
 10
136.559829
 20
51.355954
 30
0.0
 11
136.559829
 21
79.355954
 31
0.0
  0
LINE
  5
451
100
AcDbEntity
  8
1
390
0
  6
DOT
 62
     9
100
AcDbLine
 10
101.741385
 20
59.355954
 30
0.0
 11
101.741385
 21
60.355954
 31
0.0
  0
LINE
  5
452
100
AcDbEntity
  8
1
390
0
  6
DOT
 62
     9
100
AcDbLine
 10
101.741385
 20
70.355954
 30
0.0
 11
101.741385
 21
71.355954
 31
0.0
  0
LINE
  5
453
100
AcDbEntity
  8
1
390
0
  6
Continuous
 62
     7
100
AcDbLine
 10
260.301473
 20
152.04319
 30
0.0
 11
260.301473
 21
226.541182
 31
0.0
  0
LINE
  5
454
100
AcDbEntity
  8
1
390
0
  6
Continuous
 62
     7
100
AcDbLine
 10
260.301473
 20
226.541182
 30
0.0
 11
261.301473
 21
226.541182
 31
0.0
  0
LINE
  5
455
100
AcDbEntity
  8
1
390
0
  6
Continuous
 62
     7
100
AcDbLine
 10
261.301473
 20
152.04319
 30
0.0
 11
260.301473
 21
152.04319
 31
0.0
  0
LINE
  5
456
100
AcDbEntity
  8
1
390
0
  6
Continuous
 62
     7
100
AcDbLine
 10
290.301473
 20
226.541182
 30
0.0
 11
290.301473
 21
216.175611
 31
0.0
  0
POLYLINE
  5
457
100
AcDbEntity
  8
1
390
0
  6
Continuous
 62
     7
100
AcDb2dPolyline
 66
     1
 10
0.0
 20
0.0
 30
0.0
 40
1.0
 41
1.0
  0
VERTEX
  5
458
100
AcDbEntity
  8
1
390
0
 62
     7
100
AcDbVertex
100
AcDb2dVertex
 10
290.301473
 20
216.175611
 30
0.0
  0
VERTEX
  5
459
100
AcDbEntity
  8
1
390
0
 62
     7
100
AcDbVertex
100
AcDb2dVertex
 10
290.300269
 20
216.127432
 30
0.0
  0
VERTEX
  5
45A
100
AcDbEntity
  8
1
390
0
 62
     7
100
AcDbVertex
100
AcDb2dVertex
 10
290.296658
 20
216.07937
 30
0.0
  0
VERTEX
  5
45B
100
AcDbEntity
  8
1
390
0
 62
     7
100
AcDbVertex
100
AcDb2dVertex
 10
290.29065
 20
216.03154
 30
0.0
  0
VERTEX
  5
45C
100
AcDbEntity
  8
1
390
0
 62
     7
100
AcDbVertex
100
AcDb2dVertex
 10
290.282258
 20
215.984056
 30
0.0
  0
VERTEX
  5
45D
100
AcDbEntity
  8
1
390
0
 62
     7
100
AcDbVertex
100
AcDb2dVertex
 10
290.271504
 20
215.937035
 30
0.0
  0
VERTEX
  5
45E
100
AcDbEntity
  8
1
390
0
 62
     7
100
AcDbVertex
100
AcDb2dVertex
 10
290.258414
 20
215.890587
 30
0.0
  0
VERTEX
  5
45F
100
AcDbEntity
  8
1
390
0
 62
     7
100
AcDbVertex
100
AcDb2dVertex
 10
290.243017
 20
215.844827
 30
0.0
  0
VERTEX
  5
460
100
AcDbEntity
  8
1
390
0
 62
     7
100
AcDbVertex
100
AcDb2dVertex
 10
290.225353
 20
215.799863
 30
0.0
  0
VERTEX
  5
461
100
AcDbEntity
  8
1
390
0
 62
     7
100
AcDbVertex
100
AcDb2dVertex
 10
290.205462
 20
215.755805
 30
0.0
  0
VERTEX
  5
462
100
AcDbEntity
  8
1
390
0
 62
     7
100
AcDbVertex
100
AcDb2dVertex
 10
290.183394
 20
215.712758
 30
0.0
  0
VERTEX
  5
463
100
AcDbEntity
  8
1
390
0
 62
     7
100
AcDbVertex
100
AcDb2dVertex
 10
290.159202
 20
215.670826
 30
0.0
  0
VERTEX
  5
464
100
AcDbEntity
  8
1
390
0
 62
     7
100
AcDbVertex
100
AcDb2dVertex
 10
290.132943
 20
215.63011
 30
0.0
  0
VERTEX
  5
465
100
AcDbEntity
  8
1
390
0
 62
     7
100
AcDbVertex
100
AcDb2dVertex
 10
290.104681
 20
215.590709
 30
0.0
  0
VERTEX
  5
466
100
AcDbEntity
  8
1
390
0
 62
     7
100
AcDbVertex
100
AcDb2dVertex
 10
290.074484
 20
215.552716
 30
0.0
  0
VERTEX
  5
467
100
AcDbEntity
  8
1
390
0
 62
     7
100
AcDbVertex
100
AcDb2dVertex
 10
290.042424
 20
215.516224
 30
0.0
  0
VERTEX
  5
468
100
AcDbEntity
  8
1
390
0
 62
     7
100
AcDbVertex
100
AcDb2dVertex
 10
290.00858
 20
215.48132
 30
0.0
  0
VERTEX
  5
469
100
AcDbEntity
  8
1
390
0
 62
     7
100
AcDbVertex
100
AcDb2dVertex
 10
289.973032
 20
215.44809
 30
0.0
  0
VERTEX
  5
46A
100
AcDbEntity
  8
1
390
0
 62
     7
100
AcDbVertex
100
AcDb2dVertex
 10
289.935866
 20
215.416611
 30
0.0
  0
VERTEX
  5
46B
100
AcDbEntity
  8
1
390
0
 62
     7
100
AcDbVertex
100
AcDb2dVertex
 10
289.897172
 20
215.386962
 30
0.0
  0
VERTEX
  5
46C
100
AcDbEntity
  8
1
390
0
 62
     7
100
AcDbVertex
100
AcDb2dVertex
 10
289.857043
 20
215.359212
 30
0.0
  0
VERTEX
  5
46D
100
AcDbEntity
  8
1
390
0
 62
     7
100
AcDbVertex
100
AcDb2dVertex
 10
289.815576
 20
215.333429
 30
0.0
  0
VERTEX
  5
46E
100
AcDbEntity
  8
1
390
0
 62
     7
100
AcDbVertex
100
AcDb2dVertex
 10
289.77287
 20
215.309675
 30
0.0
  0
VERTEX
  5
46F
100
AcDbEntity
  8
1
390
0
 62
     7
100
AcDbVertex
100
AcDb2dVertex
 10
289.729028
 20
215.288007
 30
0.0
  0
VERTEX
  5
470
100
AcDbEntity
  8
1
390
0
 62
     7
100
AcDbVertex
100
AcDb2dVertex
 10
289.684157
 20
215.268477
 30
0.0
  0
VERTEX
  5
471
100
AcDbEntity
  8
1
390
0
 62
     7
100
AcDbVertex
100
AcDb2dVertex
 10
289.638363
 20
215.251132
 30
0.0
  0
VERTEX
  5
472
100
AcDbEntity
  8
1
390
0
 62
     7
100
AcDbVertex
100
AcDb2dVertex
 10
289.591758
 20
215.236015
 30
0.0
  0
VERTEX
  5
473
100
AcDbEntity
  8
1
390
0
 62
     7
100
AcDbVertex
100
AcDb2dVertex
 10
289.544453
 20
215.223162
 30
0.0
  0
VERTEX
  5
474
100
AcDbEntity
  8
1
390
0
 62
     7
100
AcDbVertex
100
AcDb2dVertex
 10
289.496563
 20
215.212602
 30
0.0
  0
VERTEX
  5
475
100
AcDbEntity
  8
1
390
0
 62
     7
100
AcDbVertex
100
AcDb2dVertex
 10
289.448204
 20
215.204363
 30
0.0
  0
VERTEX
  5
476
100
AcDbEntity
  8
1
390
0
 62
     7
100
AcDbVertex
100
AcDb2dVertex
 10
289.39949
 20
215.198464
 30
0.0
  0
VERTEX
  5
477
100
AcDbEntity
  8
1
390
0
 62
     7
100
AcDbVertex
100
AcDb2dVertex
 10
289.350541
 20
215.194919
 30
0.0
  0
VERTEX
  5
478
100
AcDbEntity
  8
1
390
0
 62
     7
100
AcDbVertex
100
AcDb2dVertex
 10
289.301473
 20
215.193736
 30
0.0
  0
SEQEND
  5
479
100
AcDbEntity
  8
0
390
0
  0
LINE
  5
47A
100
AcDbEntity
  8
1
390
0
  6
Continuous
 62
     7
100
AcDbLine
 10
289.301473
 20
226.541182
 30
0.0
 11
290.301473
 21
226.541182
 31
0.0
  0
LINE
  5
47B
100
AcDbEntity
  8
1
390
0
  6
Continuous
 62
     7
100
AcDbLine
 10
290.301473
 20
216.175611
 30
0.0
 11
290.301473
 21
216.02908
 31
0.0
  0
POLYLINE
  5
47C
100
AcDbEntity
  8
1
390
0
  6
Continuous
 62
     7
100
AcDb2dPolyline
 66
     1
 10
0.0
 20
0.0
 30
0.0
 40
1.0
 41
1.0
  0
VERTEX
  5
47D
100
AcDbEntity
  8
1
390
0
 62
     7
100
AcDbVertex
100
AcDb2dVertex
 10
290.301473
 20
216.02908
 30
0.0
  0
VERTEX
  5
47E
100
AcDbEntity
  8
1
390
0
 62
     7
100
AcDbVertex
100
AcDb2dVertex
 10
290.300269
 20
215.980902
 30
0.0
  0
VERTEX
  5
47F
100
AcDbEntity
  8
1
390
0
 62
     7
100
AcDbVertex
100
AcDb2dVertex
 10
290.296658
 20
215.93284
 30
0.0
  0
VERTEX
  5
480
100
AcDbEntity
  8
1
390
0
 62
     7
100
AcDbVertex
100
AcDb2dVertex
 10
290.29065
 20
215.885009
 30
0.0
  0
VERTEX
  5
481
100
AcDbEntity
  8
1
390
0
 62
     7
100
AcDbVertex
100
AcDb2dVertex
 10
290.282258
 20
215.837526
 30
0.0
  0
VERTEX
  5
482
100
AcDbEntity
  8
1
390
0
 62
     7
100
AcDbVertex
100
AcDb2dVertex
 10
290.271504
 20
215.790504
 30
0.0
  0
VERTEX
  5
483
100
AcDbEntity
  8
1
390
0
 62
     7
100
AcDbVertex
100
AcDb2dVertex
 10
290.258414
 20
215.744057
 30
0.0
  0
VERTEX
  5
484
100
AcDbEntity
  8
1
390
0
 62
     7
100
AcDbVertex
100
AcDb2dVertex
 10
290.243017
 20
215.698297
 30
0.0
  0
VERTEX
  5
485
100
AcDbEntity
  8
1
390
0
 62
     7
100
AcDbVertex
100
AcDb2dVertex
 10
290.225353
 20
215.653333
 30
0.0
  0
VERTEX
  5
486
100
AcDbEntity
  8
1
390
0
 62
     7
100
AcDbVertex
100
AcDb2dVertex
 10
290.205462
 20
215.609275
 30
0.0
  0
VERTEX
  5
487
100
AcDbEntity
  8
1
390
0
 62
     7
100
AcDbVertex
100
AcDb2dVertex
 10
290.183394
 20
215.566228
 30
0.0
  0
VERTEX
  5
488
100
AcDbEntity
  8
1
390
0
 62
     7
100
AcDbVertex
100
AcDb2dVertex
 10
290.159202
 20
215.524296
 30
0.0
  0
VERTEX
  5
489
100
AcDbEntity
  8
1
390
0
 62
     7
100
AcDbVertex
100
AcDb2dVertex
 10
290.132943
 20
215.48358
 30
0.0
  0
VERTEX
  5
48A
100
AcDbEntity
  8
1
390
0
 62
     7
100
AcDbVertex
100
AcDb2dVertex
 10
290.104681
 20
215.444178
 30
0.0
  0
VERTEX
  5
48B
100
AcDbEntity
  8
1
390
0
 62
     7
100
AcDbVertex
100
AcDb2dVertex
 10
290.074484
 20
215.406186
 30
0.0
  0
VERTEX
  5
48C
100
AcDbEntity
  8
1
390
0
 62
     7
100
AcDbVertex
100
AcDb2dVertex
 10
290.042424
 20
215.369694
 30
0.0
  0
VERTEX
  5
48D
100
AcDbEntity
  8
1
390
0
 62
     7
100
AcDbVertex
100
AcDb2dVertex
 10
290.00858
 20
215.33479
 30
0.0
  0
VERTEX
  5
48E
100
AcDbEntity
  8
1
390
0
 62
     7
100
AcDbVertex
100
AcDb2dVertex
 10
289.973032
 20
215.301559
 30
0.0
  0
VERTEX
  5
48F
100
AcDbEntity
  8
1
390
0
 62
     7
100
AcDbVertex
100
AcDb2dVertex
 10
289.935866
 20
215.270081
 30
0.0
  0
VERTEX
  5
490
100
AcDbEntity
  8
1
390
0
 62
     7
100
AcDbVertex
100
AcDb2dVertex
 10
289.897172
 20
215.240431
 30
0.0
  0
VERTEX
  5
491
100
AcDbEntity
  8
1
390
0
 62
     7
100
AcDbVertex
100
AcDb2dVertex
 10
289.857043
 20
215.212681
 30
0.0
  0
VERTEX
  5
492
100
AcDbEntity
  8
1
390
0
 62
     7
100
AcDbVertex
100
AcDb2dVertex
 10
289.815576
 20
215.186898
 30
0.0
  0
VERTEX
  5
493
100
AcDbEntity
  8
1
390
0
 62
     7
100
AcDbVertex
100
AcDb2dVertex
 10
289.77287
 20
215.163144
 30
0.0
  0
VERTEX
  5
494
100
AcDbEntity
  8
1
390
0
 62
     7
100
AcDbVertex
100
AcDb2dVertex
 10
289.729028
 20
215.141476
 30
0.0
  0
VERTEX
  5
495
100
AcDbEntity
  8
1
390
0
 62
     7
100
AcDbVertex
100
AcDb2dVertex
 10
289.684157
 20
215.121946
 30
0.0
  0
VERTEX
  5
496
100
AcDbEntity
  8
1
390
0
 62
     7
100
AcDbVertex
100
AcDb2dVertex
 10
289.638363
 20
215.104602
 30
0.0
  0
VERTEX
  5
497
100
AcDbEntity
  8
1
390
0
 62
     7
100
AcDbVertex
100
AcDb2dVertex
 10
289.591758
 20
215.089485
 30
0.0
  0
VERTEX
  5
498
100
AcDbEntity
  8
1
390
0
 62
     7
100
AcDbVertex
100
AcDb2dVertex
 10
289.544453
 20
215.076631
 30
0.0
  0
VERTEX
  5
499
100
AcDbEntity
  8
1
390
0
 62
     7
100
AcDbVertex
100
AcDb2dVertex
 10
289.496563
 20
215.066072
 30
0.0
  0
VERTEX
  5
49A
100
AcDbEntity
  8
1
390
0
 62
     7
100
AcDbVertex
100
AcDb2dVertex
 10
289.448204
 20
215.057833
 30
0.0
  0
VERTEX
  5
49B
100
AcDbEntity
  8
1
390
0
 62
     7
100
AcDbVertex
100
AcDb2dVertex
 10
289.39949
 20
215.051934
 30
0.0
  0
VERTEX
  5
49C
100
AcDbEntity
  8
1
390
0
 62
     7
100
AcDbVertex
100
AcDb2dVertex
 10
289.350541
 20
215.048388
 30
0.0
  0
VERTEX
  5
49D
100
AcDbEntity
  8
1
390
0
 62
     7
100
AcDbVertex
100
AcDb2dVertex
 10
289.301473
 20
215.047206
 30
0.0
  0
SEQEND
  5
49E
100
AcDbEntity
  8
0
390
0
  0
LINE
  5
49F
100
AcDbEntity
  8
1
390
0
  6
Continuous
 62
     7
100
AcDbLine
 10
289.301473
 20
215.193736
 30
0.0
 11
280.801473
 21
215.193736
 31
0.0
  0
LINE
  5
4A0
100
AcDbEntity
  8
1
390
0
  6
Continuous
 62
     7
100
AcDbLine
 10
280.801473
 20
175.03877
 30
0.0
 11
280.801473
 21
215.193736
 31
0.0
  0
LINE
  5
4A1
100
AcDbEntity
  8
1
390
0
  6
Continuous
 62
     7
100
AcDbLine
 10
280.801473
 20
175.03877
 30
0.0
 11
289.301473
 21
175.03877
 31
0.0
  0
LINE
  5
4A2
100
AcDbEntity
  8
1
390
0
  6
Continuous
 62
     7
100
AcDbLine
 10
289.301473
 20
152.04319
 30
0.0
 11
261.301473
 21
152.04319
 31
0.0
  0
LINE
  5
4A3
100
AcDbEntity
  8
1
390
0
  6
Continuous
 62
     7
100
AcDbLine
 10
289.301473
 20
226.541182
 30
0.0
 11
261.301473
 21
226.541182
 31
0.0
  0
LINE
  5
4A4
100
AcDbEntity
  8
1
390
0
  6
Continuous
 62
     7
100
AcDbLine
 10
289.301473
 20
151.549966
 30
0.0
 11
290.301473
 21
151.549966
 31
0.0
  0
LINE
  5
4A5
100
AcDbEntity
  8
1
390
0
  6
Continuous
 62
     7
100
AcDbLine
 10
290.301473
 20
151.549966
 30
0.0
 11
290.301473
 21
121.541182
 31
0.0
  0
LINE
  5
4A6
100
AcDbEntity
  8
1
390
0
  6
Continuous
 62
     7
100
AcDbLine
 10
289.301473
 20
120.541182
 30
0.0
 11
261.301473
 21
120.541182
 31
0.0
  0
LINE
  5
4A7
100
AcDbEntity
  8
1
390
0
  6
Continuous
 62
     7
100
AcDbLine
 10
289.301473
 20
215.047206
 30
0.0
 11
280.801473
 21
215.047206
 31
0.0
  0
LINE
  5
4A8
100
AcDbEntity
  8
1
390
0
  6
Continuous
 62
     7
100
AcDbLine
 10
289.301473
 20
151.549966
 30
0.0
 11
261.301473
 21
151.549966
 31
0.0
  0
LINE
  5
4A9
100
AcDbEntity
  8
1
390
0
  6
Continuous
 62
     7
100
AcDbLine
 10
290.301473
 20
184.695387
 30
0.0
 11
290.301473
 21
174.687842
 31
0.0
  0
POLYLINE
  5
4AA
100
AcDbEntity
  8
1
390
0
  6
Continuous
 62
     7
100
AcDb2dPolyline
 66
     1
 10
0.0
 20
0.0
 30
0.0
 40
1.0
 41
1.0
  0
VERTEX
  5
4AB
100
AcDbEntity
  8
1
390
0
 62
     7
100
AcDbVertex
100
AcDb2dVertex
 10
290.301473
 20
174.687842
 30
0.0
  0
VERTEX
  5
4AC
100
AcDbEntity
  8
1
390
0
 62
     7
100
AcDbVertex
100
AcDb2dVertex
 10
290.258414
 20
174.789711
 30
0.0
  0
VERTEX
  5
4AD
100
AcDbEntity
  8
1
390
0
 62
     7
100
AcDbVertex
100
AcDb2dVertex
 10
290.159202
 20
174.868255
 30
0.0
  0
VERTEX
  5
4AE
100
AcDbEntity
  8
1
390
0
 62
     7
100
AcDbVertex
100
AcDb2dVertex
 10
290.042424
 20
174.923511
 30
0.0
 42
0.086517
  0
VERTEX
  5
4AF
100
AcDbEntity
  8
1
390
0
 62
     7
100
AcDbVertex
100
AcDb2dVertex
 10
289.301473
 20
175.03877
 30
0.0
  0
SEQEND
  5
4B0
100
AcDbEntity
  8
0
390
0
  0
POLYLINE
  5
4B1
100
AcDbEntity
  8
1
390
0
  6
Continuous
 62
     7
100
AcDb2dPolyline
 66
     1
 10
0.0
 20
0.0
 30
0.0
 40
1.0
 41
1.0
  0
VERTEX
  5
4B2
100
AcDbEntity
  8
1
390
0
 62
     7
100
AcDbVertex
100
AcDb2dVertex
 10
290.301473
 20
184.695387
 30
0.0
  0
VERTEX
  5
4B3
100
AcDbEntity
  8
1
390
0
 62
     7
100
AcDbVertex
100
AcDb2dVertex
 10
290.258414
 20
184.797256
 30
0.0
  0
VERTEX
  5
4B4
100
AcDbEntity
  8
1
390
0
 62
     7
100
AcDbVertex
100
AcDb2dVertex
 10
290.159202
 20
184.8758
 30
0.0
  0
VERTEX
  5
4B5
100
AcDbEntity
  8
1
390
0
 62
     7
100
AcDbVertex
100
AcDb2dVertex
 10
290.042424
 20
184.931055
 30
0.0
 42
0.086517
  0
VERTEX
  5
4B6
100
AcDbEntity
  8
1
390
0
 62
     7
100
AcDbVertex
100
AcDb2dVertex
 10
289.301473
 20
185.046315
 30
0.0
  0
SEQEND
  5
4B7
100
AcDbEntity
  8
0
390
0
  0
LINE
  5
4B8
100
AcDbEntity
  8
1
390
0
  6
Continuous
 62
     7
100
AcDbLine
 10
260.301473
 20
121.541182
 30
0.0
 11
260.301473
 21
151.549966
 31
0.0
  0
LINE
  5
4B9
100
AcDbEntity
  8
1
390
0
  6
Continuous
 62
     7
100
AcDbLine
 10
260.301473
 20
151.549966
 30
0.0
 11
261.301473
 21
151.549966
 31
0.0
  0
ARC
  5
4BA
100
AcDbEntity
  8
1
390
0
  6
Continuous
 62
     7
100
AcDbCircle
 10
289.301473
 20
121.541182
 30
0.0
 40
1.0
210
0.0
220
0.0
230
1.0
100
AcDbArc
 50
270.0
 51
360.0
  0
ARC
  5
4BB
100
AcDbEntity
  8
1
390
0
  6
Continuous
 62
     7
100
AcDbCircle
 10
261.301473
 20
121.541182
 30
0.0
 40
1.0
210
0.0
220
0.0
230
1.0
100
AcDbArc
 50
180.0
 51
270.0
  0
LINE
  5
4BC
100
AcDbEntity
  8
1
390
0
  6
Continuous
 62
     7
100
AcDbLine
 10
290.301473
 20
174.687842
 30
0.0
 11
290.301473
 21
152.04319
 31
0.0
  0
LINE
  5
4BD
100
AcDbEntity
  8
1
390
0
  6
Continuous
 62
     7
100
AcDbLine
 10
290.301473
 20
152.04319
 30
0.0
 11
289.301473
 21
152.04319
 31
0.0
  0
LINE
  5
4BE
100
AcDbEntity
  8
1
390
0
  6
Continuous
 62
     7
100
AcDbLine
 10
289.301473
 20
185.046315
 30
0.0
 11
280.801473
 21
185.046315
 31
0.0
  0
LINE
  5
4BF
100
AcDbEntity
  8
1
390
0
  6
Continuous
 62
     7
100
AcDbLine
 10
289.572473
 20
152.04319
 30
0.0
 11
289.572473
 21
151.549966
 31
0.0
  0
LINE
  5
4C0
100
AcDbEntity
  8
1
390
0
  6
Continuous
 62
     7
100
AcDbLine
 10
261.030473
 20
152.04319
 30
0.0
 11
261.030473
 21
151.549966
 31
0.0
  0
LINE
  5
4C1
100
AcDbEntity
  8
1
390
0
  6
DOT
 62
     9
100
AcDbLine
 10
275.769306
 20
121.541182
 30
0.0
 11
275.269306
 21
121.541182
 31
0.0
  0
LINE
  5
4C2
100
AcDbEntity
  8
1
390
0
  6
DOT
 62
     9
100
AcDbLine
 10
275.269306
 20
120.541182
 30
0.0
 11
275.269306
 21
121.541182
 31
0.0
  0
LINE
  5
4C3
100
AcDbEntity
  8
1
390
0
  6
DOT
 62
     9
100
AcDbLine
 10
284.254563
 20
120.541182
 30
0.0
 11
284.254563
 21
121.541182
 31
0.0
  0
LINE
  5
4C4
100
AcDbEntity
  8
1
390
0
  6
DOT
 62
     9
100
AcDbLine
 10
284.254563
 20
121.541182
 30
0.0
 11
283.754563
 21
121.541182
 31
0.0
  0
LINE
  5
4C5
100
AcDbEntity
  8
1
390
0
  6
DOT
 62
     9
100
AcDbLine
 10
283.754563
 20
121.541182
 30
0.0
 11
275.769306
 21
121.541182
 31
0.0
  0
LINE
  5
4C6
100
AcDbEntity
  8
1
390
0
  6
Continuous
 62
     7
100
AcDbLine
 10
283.454116
 20
119.541182
 30
0.0
 11
277.163424
 21
119.541182
 31
0.0
  0
LINE
  5
4C7
100
AcDbEntity
  8
1
390
0
  6
Continuous
 62
     7
100
AcDbLine
 10
283.654116
 20
119.541182
 30
0.0
 11
283.654116
 21
120.541182
 31
0.0
  0
LINE
  5
4C8
100
AcDbEntity
  8
1
390
0
  6
DOT
 62
     9
100
AcDbLine
 10
283.654116
 20
120.541182
 30
0.0
 11
283.654116
 21
121.541182
 31
0.0
  0
LINE
  5
4C9
100
AcDbEntity
  8
1
390
0
  6
Continuous
 62
     7
100
AcDbLine
 10
283.654116
 20
119.541182
 30
0.0
 11
283.454116
 21
119.541182
 31
0.0
  0
LINE
  5
4CA
100
AcDbEntity
  8
1
390
0
  6
Continuous
 62
     7
100
AcDbLine
 10
276.963424
 20
119.541182
 30
0.0
 11
276.963424
 21
120.541182
 31
0.0
  0
LINE
  5
4CB
100
AcDbEntity
  8
1
390
0
  6
DOT
 62
     9
100
AcDbLine
 10
276.963424
 20
120.541182
 30
0.0
 11
276.963424
 21
121.541182
 31
0.0
  0
LINE
  5
4CC
100
AcDbEntity
  8
1
390
0
  6
Continuous
 62
     7
100
AcDbLine
 10
277.163424
 20
119.541182
 30
0.0
 11
276.963424
 21
119.541182
 31
0.0
  0
LINE
  5
4CD
100
AcDbEntity
  8
1
390
0
  6
DOT
 62
     9
100
AcDbLine
 10
277.720758
 20
126.041182
 30
0.0
 11
277.220758
 21
126.041182
 31
0.0
  0
LINE
  5
4CE
100
AcDbEntity
  8
1
390
0
  6
DOT
 62
     9
100
AcDbLine
 10
277.220758
 20
119.541182
 30
0.0
 11
277.220758
 21
126.041182
 31
0.0
  0
LINE
  5
4CF
100
AcDbEntity
  8
1
390
0
  6
DOT
 62
     9
100
AcDbLine
 10
282.403557
 20
126.041182
 30
0.0
 11
277.720758
 21
126.041182
 31
0.0
  0
LINE
  5
4D0
100
AcDbEntity
  8
1
390
0
  6
DOT
 62
     9
100
AcDbLine
 10
282.903557
 20
119.541182
 30
0.0
 11
282.903557
 21
126.041182
 31
0.0
  0
LINE
  5
4D1
100
AcDbEntity
  8
1
390
0
  6
DOT
 62
     9
100
AcDbLine
 10
282.903557
 20
126.041182
 30
0.0
 11
282.403557
 21
126.041182
 31
0.0
  0
LINE
  5
4D2
100
AcDbEntity
  8
1
390
0
  6
Continuous
 62
     7
100
AcDbLine
 10
290.301473
 20
216.02908
 30
0.0
 11
290.301473
 21
184.695387
 31
0.0
  0
LINE
  5
4D3
100
AcDbEntity
  8
1
390
0
  6
DOT
 62
     9
100
AcDbLine
 10
277.971317
 20
119.541182
 30
0.0
 11
277.971317
 21
120.541182
 31
0.0
  0
LINE
  5
4D4
100
AcDbEntity
  8
1
390
0
  6
DOT
 62
     9
100
AcDbLine
 10
277.971317
 20
120.541182
 30
0.0
 11
277.971317
 21
126.041182
 31
0.0
  0
LINE
  5
4D5
100
AcDbEntity
  8
1
390
0
  6
DOT
 62
     9
100
AcDbLine
 10
272.567296
 20
120.541182
 30
0.0
 11
272.567296
 21
121.541182
 31
0.0
  0
LINE
  5
4D6
100
AcDbEntity
  8
1
390
0
  6
DOT
 62
     9
100
AcDbLine
 10
272.067296
 20
121.541182
 30
0.0
 11
272.567296
 21
121.541182
 31
0.0
  0
LINE
  5
4D7
100
AcDbEntity
  8
1
390
0
  6
DOT
 62
     9
100
AcDbLine
 10
264.060596
 20
121.541182
 30
0.0
 11
272.067296
 21
121.541182
 31
0.0
  0
LINE
  5
4D8
100
AcDbEntity
  8
1
390
0
  6
DOT
 62
     9
100
AcDbLine
 10
263.560596
 20
120.541182
 30
0.0
 11
263.560596
 21
121.541182
 31
0.0
  0
LINE
  5
4D9
100
AcDbEntity
  8
1
390
0
  6
DOT
 62
     9
100
AcDbLine
 10
263.560596
 20
121.541182
 30
0.0
 11
264.060596
 21
121.541182
 31
0.0
  0
LINE
  5
4DA
100
AcDbEntity
  8
1
390
0
  6
DOT
 62
     9
100
AcDbLine
 10
283.461115
 20
119.541182
 30
0.0
 11
283.461115
 21
121.541182
 31
0.0
  0
LINE
  5
4DB
100
AcDbEntity
  8
1
390
0
  6
DOT
 62
     9
100
AcDbLine
 10
280.151473
 20
122.041182
 30
0.0
 11
279.951473
 21
122.041182
 31
0.0
  0
LINE
  5
4DC
100
AcDbEntity
  8
1
390
0
  6
DOT
 62
     9
100
AcDbLine
 10
279.951473
 20
122.041182
 30
0.0
 11
279.751473
 21
122.041182
 31
0.0
  0
LINE
  5
4DD
100
AcDbEntity
  8
1
390
0
  6
DOT
 62
     9
100
AcDbLine
 10
277.713982
 20
120.541182
 30
0.0
 11
277.713982
 21
121.541182
 31
0.0
  0
LINE
  5
4DE
100
AcDbEntity
  8
1
390
0
  6
Continuous
 62
     7
100
AcDbLine
 10
272.052628
 20
119.541182
 30
0.0
 11
271.852628
 21
119.541182
 31
0.0
  0
LINE
  5
4DF
100
AcDbEntity
  8
1
390
0
  6
Continuous
 62
     7
100
AcDbLine
 10
272.052628
 20
119.541182
 30
0.0
 11
272.052628
 21
120.541182
 31
0.0
  0
LINE
  5
4E0
100
AcDbEntity
  8
1
390
0
  6
DOT
 62
     9
100
AcDbLine
 10
272.052628
 20
120.541182
 30
0.0
 11
272.052628
 21
121.541182
 31
0.0
  0
LINE
  5
4E1
100
AcDbEntity
  8
1
390
0
  6
Continuous
 62
     7
100
AcDbLine
 10
271.852628
 20
119.541182
 30
0.0
 11
265.561936
 21
119.541182
 31
0.0
  0
LINE
  5
4E2
100
AcDbEntity
  8
1
390
0
  6
Continuous
 62
     7
100
AcDbLine
 10
265.561936
 20
119.541182
 30
0.0
 11
265.361936
 21
119.541182
 31
0.0
  0
LINE
  5
4E3
100
AcDbEntity
  8
1
390
0
  6
Continuous
 62
     7
100
AcDbLine
 10
265.361936
 20
119.541182
 30
0.0
 11
265.361936
 21
120.541182
 31
0.0
  0
LINE
  5
4E4
100
AcDbEntity
  8
1
390
0
  6
DOT
 62
     9
100
AcDbLine
 10
265.361936
 20
120.541182
 30
0.0
 11
265.361936
 21
121.541182
 31
0.0
  0
LINE
  5
4E5
100
AcDbEntity
  8
1
390
0
  6
DOT
 62
     9
100
AcDbLine
 10
266.11927
 20
126.041182
 30
0.0
 11
265.61927
 21
126.041182
 31
0.0
  0
LINE
  5
4E6
100
AcDbEntity
  8
1
390
0
  6
DOT
 62
     9
100
AcDbLine
 10
265.61927
 20
119.541182
 30
0.0
 11
265.61927
 21
126.041182
 31
0.0
  0
LINE
  5
4E7
100
AcDbEntity
  8
1
390
0
  6
DOT
 62
     9
100
AcDbLine
 10
271.302069
 20
119.541182
 30
0.0
 11
271.302069
 21
126.041182
 31
0.0
  0
LINE
  5
4E8
100
AcDbEntity
  8
1
390
0
  6
DOT
 62
     9
100
AcDbLine
 10
271.302069
 20
126.041182
 30
0.0
 11
270.802069
 21
126.041182
 31
0.0
  0
LINE
  5
4E9
100
AcDbEntity
  8
1
390
0
  6
DOT
 62
     9
100
AcDbLine
 10
270.802069
 20
126.041182
 30
0.0
 11
266.11927
 21
126.041182
 31
0.0
  0
LINE
  5
4EA
100
AcDbEntity
  8
1
390
0
  6
DOT
 62
     9
100
AcDbLine
 10
277.971317
 20
126.041182
 30
0.0
 11
277.971317
 21
126.341182
 31
0.0
  0
LINE
  5
4EB
100
AcDbEntity
  8
1
390
0
  6
DOT
 62
     9
100
AcDbLine
 10
282.903557
 20
126.041182
 30
0.0
 11
282.903557
 21
126.341182
 31
0.0
  0
LINE
  5
4EC
100
AcDbEntity
  8
1
390
0
  6
DOT
 62
     9
100
AcDbLine
 10
282.903557
 20
126.341182
 30
0.0
 11
277.971317
 21
126.341182
 31
0.0
  0
LINE
  5
4ED
100
AcDbEntity
  8
1
390
0
  6
DOT
 62
     9
100
AcDbLine
 10
266.369828
 20
119.541182
 30
0.0
 11
266.369828
 21
120.541182
 31
0.0
  0
LINE
  5
4EE
100
AcDbEntity
  8
1
390
0
  6
DOT
 62
     9
100
AcDbLine
 10
266.369828
 20
120.541182
 30
0.0
 11
266.369828
 21
126.041182
 31
0.0
  0
LINE
  5
4EF
100
AcDbEntity
  8
1
390
0
  6
DOT
 62
     9
100
AcDbLine
 10
271.859627
 20
119.541182
 30
0.0
 11
271.859627
 21
121.541182
 31
0.0
  0
LINE
  5
4F0
100
AcDbEntity
  8
1
390
0
  6
DOT
 62
     9
100
AcDbLine
 10
268.551473
 20
122.041182
 30
0.0
 11
268.351473
 21
122.041182
 31
0.0
  0
LINE
  5
4F1
100
AcDbEntity
  8
1
390
0
  6
DOT
 62
     9
100
AcDbLine
 10
268.351473
 20
122.041182
 30
0.0
 11
268.151473
 21
122.041182
 31
0.0
  0
LINE
  5
4F2
100
AcDbEntity
  8
1
390
0
  6
DOT
 62
     9
100
AcDbLine
 10
266.112494
 20
120.541182
 30
0.0
 11
266.112494
 21
121.541182
 31
0.0
  0
LINE
  5
4F3
100
AcDbEntity
  8
1
390
0
  6
DOT
 62
     9
100
AcDbLine
 10
277.520982
 20
120.541182
 30
0.0
 11
277.520982
 21
121.541182
 31
0.0
  0
LINE
  5
4F4
100
AcDbEntity
  8
1
390
0
  6
DOT
 62
     9
100
AcDbLine
 10
265.940938
 20
120.541182
 30
0.0
 11
265.940938
 21
121.541182
 31
0.0
  0
LINE
  5
4F5
100
AcDbEntity
  8
1
390
0
  6
DOT
 62
     9
100
AcDbLine
 10
271.302069
 20
126.341182
 30
0.0
 11
266.369828
 21
126.341182
 31
0.0
  0
LINE
  5
4F6
100
AcDbEntity
  8
1
390
0
  6
DOT
 62
     9
100
AcDbLine
 10
266.369828
 20
126.041182
 30
0.0
 11
266.369828
 21
126.341182
 31
0.0
  0
LINE
  5
4F7
100
AcDbEntity
  8
1
390
0
  6
DOT
 62
     9
100
AcDbLine
 10
271.302069
 20
126.041182
 30
0.0
 11
271.302069
 21
126.341182
 31
0.0
  0
POLYLINE
  5
4F8
100
AcDbEntity
  8
1
390
0
  6
DOT
 62
     9
100
AcDb2dPolyline
 66
     1
 10
0.0
 20
0.0
 30
0.0
 40
1.0
 41
1.0
  0
VERTEX
  5
4F9
100
AcDbEntity
  8
1
390
0
 62
     9
100
AcDbVertex
100
AcDb2dVertex
 10
289.301473
 20
222.059565
 30
0.0
  0
VERTEX
  5
4FA
100
AcDbEntity
  8
1
390
0
 62
     9
100
AcDbVertex
100
AcDb2dVertex
 10
289.350541
 20
222.058361
 30
0.0
  0
VERTEX
  5
4FB
100
AcDbEntity
  8
1
390
0
 62
     9
100
AcDbVertex
100
AcDb2dVertex
 10
289.39949
 20
222.05475
 30
0.0
  0
VERTEX
  5
4FC
100
AcDbEntity
  8
1
390
0
 62
     9
100
AcDbVertex
100
AcDb2dVertex
 10
289.448204
 20
222.048742
 30
0.0
  0
VERTEX
  5
4FD
100
AcDbEntity
  8
1
390
0
 62
     9
100
AcDbVertex
100
AcDb2dVertex
 10
289.496563
 20
222.040351
 30
0.0
  0
VERTEX
  5
4FE
100
AcDbEntity
  8
1
390
0
 62
     9
100
AcDbVertex
100
AcDb2dVertex
 10
289.544453
 20
222.029597
 30
0.0
  0
VERTEX
  5
4FF
100
AcDbEntity
  8
1
390
0
 62
     9
100
AcDbVertex
100
AcDb2dVertex
 10
289.591758
 20
222.016506
 30
0.0
  0
VERTEX
  5
500
100
AcDbEntity
  8
1
390
0
 62
     9
100
AcDbVertex
100
AcDb2dVertex
 10
289.638363
 20
222.001109
 30
0.0
  0
VERTEX
  5
501
100
AcDbEntity
  8
1
390
0
 62
     9
100
AcDbVertex
100
AcDb2dVertex
 10
289.684157
 20
221.983445
 30
0.0
  0
VERTEX
  5
502
100
AcDbEntity
  8
1
390
0
 62
     9
100
AcDbVertex
100
AcDb2dVertex
 10
289.729028
 20
221.963555
 30
0.0
  0
VERTEX
  5
503
100
AcDbEntity
  8
1
390
0
 62
     9
100
AcDbVertex
100
AcDb2dVertex
 10
289.77287
 20
221.941487
 30
0.0
  0
VERTEX
  5
504
100
AcDbEntity
  8
1
390
0
 62
     9
100
AcDbVertex
100
AcDb2dVertex
 10
289.815576
 20
221.917294
 30
0.0
  0
VERTEX
  5
505
100
AcDbEntity
  8
1
390
0
 62
     9
100
AcDbVertex
100
AcDb2dVertex
 10
289.857043
 20
221.891035
 30
0.0
  0
VERTEX
  5
506
100
AcDbEntity
  8
1
390
0
 62
     9
100
AcDbVertex
100
AcDb2dVertex
 10
289.897172
 20
221.862773
 30
0.0
  0
VERTEX
  5
507
100
AcDbEntity
  8
1
390
0
 62
     9
100
AcDbVertex
100
AcDb2dVertex
 10
289.935866
 20
221.832576
 30
0.0
  0
VERTEX
  5
508
100
AcDbEntity
  8
1
390
0
 62
     9
100
AcDbVertex
100
AcDb2dVertex
 10
289.973032
 20
221.800517
 30
0.0
  0
VERTEX
  5
509
100
AcDbEntity
  8
1
390
0
 62
     9
100
AcDbVertex
100
AcDb2dVertex
 10
290.00858
 20
221.766672
 30
0.0
  0
VERTEX
  5
50A
100
AcDbEntity
  8
1
390
0
 62
     9
100
AcDbVertex
100
AcDb2dVertex
 10
290.042424
 20
221.731124
 30
0.0
  0
VERTEX
  5
50B
100
AcDbEntity
  8
1
390
0
 62
     9
100
AcDbVertex
100
AcDb2dVertex
 10
290.074484
 20
221.693959
 30
0.0
  0
VERTEX
  5
50C
100
AcDbEntity
  8
1
390
0
 62
     9
100
AcDbVertex
100
AcDb2dVertex
 10
290.104681
 20
221.655265
 30
0.0
  0
VERTEX
  5
50D
100
AcDbEntity
  8
1
390
0
 62
     9
100
AcDbVertex
100
AcDb2dVertex
 10
290.132943
 20
221.615136
 30
0.0
  0
VERTEX
  5
50E
100
AcDbEntity
  8
1
390
0
 62
     9
100
AcDbVertex
100
AcDb2dVertex
 10
290.159202
 20
221.573668
 30
0.0
  0
VERTEX
  5
50F
100
AcDbEntity
  8
1
390
0
 62
     9
100
AcDbVertex
100
AcDb2dVertex
 10
290.183394
 20
221.530962
 30
0.0
  0
VERTEX
  5
510
100
AcDbEntity
  8
1
390
0
 62
     9
100
AcDbVertex
100
AcDb2dVertex
 10
290.205462
 20
221.48712
 30
0.0
  0
VERTEX
  5
511
100
AcDbEntity
  8
1
390
0
 62
     9
100
AcDbVertex
100
AcDb2dVertex
 10
290.225353
 20
221.442249
 30
0.0
  0
VERTEX
  5
512
100
AcDbEntity
  8
1
390
0
 62
     9
100
AcDbVertex
100
AcDb2dVertex
 10
290.243017
 20
221.396455
 30
0.0
  0
VERTEX
  5
513
100
AcDbEntity
  8
1
390
0
 62
     9
100
AcDbVertex
100
AcDb2dVertex
 10
290.258414
 20
221.34985
 30
0.0
  0
VERTEX
  5
514
100
AcDbEntity
  8
1
390
0
 62
     9
100
AcDbVertex
100
AcDb2dVertex
 10
290.271504
 20
221.302546
 30
0.0
  0
VERTEX
  5
515
100
AcDbEntity
  8
1
390
0
 62
     9
100
AcDbVertex
100
AcDb2dVertex
 10
290.282258
 20
221.254656
 30
0.0
  0
VERTEX
  5
516
100
AcDbEntity
  8
1
390
0
 62
     9
100
AcDbVertex
100
AcDb2dVertex
 10
290.29065
 20
221.206296
 30
0.0
  0
VERTEX
  5
517
100
AcDbEntity
  8
1
390
0
 62
     9
100
AcDbVertex
100
AcDb2dVertex
 10
290.296658
 20
221.157583
 30
0.0
  0
VERTEX
  5
518
100
AcDbEntity
  8
1
390
0
 62
     9
100
AcDbVertex
100
AcDb2dVertex
 10
290.300269
 20
221.108633
 30
0.0
  0
VERTEX
  5
519
100
AcDbEntity
  8
1
390
0
 62
     9
100
AcDbVertex
100
AcDb2dVertex
 10
290.301473
 20
221.059565
 30
0.0
  0
SEQEND
  5
51A
100
AcDbEntity
  8
0
390
0
  0
POLYLINE
  5
51B
100
AcDbEntity
  8
1
390
0
  6
DOT
 62
     9
100
AcDb2dPolyline
 66
     1
 10
0.0
 20
0.0
 30
0.0
 40
1.0
 41
1.0
  0
VERTEX
  5
51C
100
AcDbEntity
  8
1
390
0
 62
     9
100
AcDbVertex
100
AcDb2dVertex
 10
261.301473
 20
222.059565
 30
0.0
  0
VERTEX
  5
51D
100
AcDbEntity
  8
1
390
0
 62
     9
100
AcDbVertex
100
AcDb2dVertex
 10
261.252405
 20
222.058361
 30
0.0
  0
VERTEX
  5
51E
100
AcDbEntity
  8
1
390
0
 62
     9
100
AcDbVertex
100
AcDb2dVertex
 10
261.203456
 20
222.05475
 30
0.0
  0
VERTEX
  5
51F
100
AcDbEntity
  8
1
390
0
 62
     9
100
AcDbVertex
100
AcDb2dVertex
 10
261.154743
 20
222.048742
 30
0.0
  0
VERTEX
  5
520
100
AcDbEntity
  8
1
390
0
 62
     9
100
AcDbVertex
100
AcDb2dVertex
 10
261.106383
 20
222.040351
 30
0.0
  0
VERTEX
  5
521
100
AcDbEntity
  8
1
390
0
 62
     9
100
AcDbVertex
100
AcDb2dVertex
 10
261.058493
 20
222.029597
 30
0.0
  0
VERTEX
  5
522
100
AcDbEntity
  8
1
390
0
 62
     9
100
AcDbVertex
100
AcDb2dVertex
 10
261.011188
 20
222.016506
 30
0.0
  0
VERTEX
  5
523
100
AcDbEntity
  8
1
390
0
 62
     9
100
AcDbVertex
100
AcDb2dVertex
 10
260.964583
 20
222.001109
 30
0.0
  0
VERTEX
  5
524
100
AcDbEntity
  8
1
390
0
 62
     9
100
AcDbVertex
100
AcDb2dVertex
 10
260.91879
 20
221.983445
 30
0.0
  0
VERTEX
  5
525
100
AcDbEntity
  8
1
390
0
 62
     9
100
AcDbVertex
100
AcDb2dVertex
 10
260.873918
 20
221.963555
 30
0.0
  0
VERTEX
  5
526
100
AcDbEntity
  8
1
390
0
 62
     9
100
AcDbVertex
100
AcDb2dVertex
 10
260.830076
 20
221.941487
 30
0.0
  0
VERTEX
  5
527
100
AcDbEntity
  8
1
390
0
 62
     9
100
AcDbVertex
100
AcDb2dVertex
 10
260.78737
 20
221.917294
 30
0.0
  0
VERTEX
  5
528
100
AcDbEntity
  8
1
390
0
 62
     9
100
AcDbVertex
100
AcDb2dVertex
 10
260.745903
 20
221.891035
 30
0.0
  0
VERTEX
  5
529
100
AcDbEntity
  8
1
390
0
 62
     9
100
AcDbVertex
100
AcDb2dVertex
 10
260.705774
 20
221.862773
 30
0.0
  0
VERTEX
  5
52A
100
AcDbEntity
  8
1
390
0
 62
     9
100
AcDbVertex
100
AcDb2dVertex
 10
260.66708
 20
221.832576
 30
0.0
  0
VERTEX
  5
52B
100
AcDbEntity
  8
1
390
0
 62
     9
100
AcDbVertex
100
AcDb2dVertex
 10
260.629914
 20
221.800517
 30
0.0
  0
VERTEX
  5
52C
100
AcDbEntity
  8
1
390
0
 62
     9
100
AcDbVertex
100
AcDb2dVertex
 10
260.594366
 20
221.766672
 30
0.0
  0
VERTEX
  5
52D
100
AcDbEntity
  8
1
390
0
 62
     9
100
AcDbVertex
100
AcDb2dVertex
 10
260.560522
 20
221.731124
 30
0.0
  0
VERTEX
  5
52E
100
AcDbEntity
  8
1
390
0
 62
     9
100
AcDbVertex
100
AcDb2dVertex
 10
260.528463
 20
221.693959
 30
0.0
  0
VERTEX
  5
52F
100
AcDbEntity
  8
1
390
0
 62
     9
100
AcDbVertex
100
AcDb2dVertex
 10
260.498266
 20
221.655265
 30
0.0
  0
VERTEX
  5
530
100
AcDbEntity
  8
1
390
0
 62
     9
100
AcDbVertex
100
AcDb2dVertex
 10
260.470004
 20
221.615136
 30
0.0
  0
VERTEX
  5
531
100
AcDbEntity
  8
1
390
0
 62
     9
100
AcDbVertex
100
AcDb2dVertex
 10
260.443745
 20
221.573668
 30
0.0
  0
VERTEX
  5
532
100
AcDbEntity
  8
1
390
0
 62
     9
100
AcDbVertex
100
AcDb2dVertex
 10
260.419552
 20
221.530962
 30
0.0
  0
VERTEX
  5
533
100
AcDbEntity
  8
1
390
0
 62
     9
100
AcDbVertex
100
AcDb2dVertex
 10
260.397484
 20
221.48712
 30
0.0
  0
VERTEX
  5
534
100
AcDbEntity
  8
1
390
0
 62
     9
100
AcDbVertex
100
AcDb2dVertex
 10
260.377594
 20
221.442249
 30
0.0
  0
VERTEX
  5
535
100
AcDbEntity
  8
1
390
0
 62
     9
100
AcDbVertex
100
AcDb2dVertex
 10
260.359929
 20
221.396455
 30
0.0
  0
VERTEX
  5
536
100
AcDbEntity
  8
1
390
0
 62
     9
100
AcDbVertex
100
AcDb2dVertex
 10
260.344533
 20
221.34985
 30
0.0
  0
VERTEX
  5
537
100
AcDbEntity
  8
1
390
0
 62
     9
100
AcDbVertex
100
AcDb2dVertex
 10
260.331442
 20
221.302546
 30
0.0
  0
VERTEX
  5
538
100
AcDbEntity
  8
1
390
0
 62
     9
100
AcDbVertex
100
AcDb2dVertex
 10
260.320688
 20
221.254656
 30
0.0
  0
VERTEX
  5
539
100
AcDbEntity
  8
1
390
0
 62
     9
100
AcDbVertex
100
AcDb2dVertex
 10
260.312297
 20
221.206296
 30
0.0
  0
VERTEX
  5
53A
100
AcDbEntity
  8
1
390
0
 62
     9
100
AcDbVertex
100
AcDb2dVertex
 10
260.306288
 20
221.157583
 30
0.0
  0
VERTEX
  5
53B
100
AcDbEntity
  8
1
390
0
 62
     9
100
AcDbVertex
100
AcDb2dVertex
 10
260.302678
 20
221.108633
 30
0.0
  0
VERTEX
  5
53C
100
AcDbEntity
  8
1
390
0
 62
     9
100
AcDbVertex
100
AcDb2dVertex
 10
260.301473
 20
221.059565
 30
0.0
  0
SEQEND
  5
53D
100
AcDbEntity
  8
0
390
0
  0
LINE
  5
53E
100
AcDbEntity
  8
1
390
0
  6
DOT
 62
     9
100
AcDbLine
 10
262.801473
 20
222.059565
 30
0.0
 11
262.801473
 21
225.040354
 31
0.0
  0
LINE
  5
53F
100
AcDbEntity
  8
1
390
0
  6
DOT
 62
     9
100
AcDbLine
 10
287.801473
 20
225.040354
 30
0.0
 11
280.301473
 21
225.040354
 31
0.0
  0
LINE
  5
540
100
AcDbEntity
  8
1
390
0
  6
DOT
 62
     9
100
AcDbLine
 10
270.301473
 20
222.059565
 30
0.0
 11
270.301473
 21
225.040354
 31
0.0
  0
LINE
  5
541
100
AcDbEntity
  8
1
390
0
  6
DOT
 62
     9
100
AcDbLine
 10
270.301473
 20
225.040354
 30
0.0
 11
262.801473
 21
225.040354
 31
0.0
  0
LINE
  5
542
100
AcDbEntity
  8
1
390
0
  6
DOT
 62
     9
100
AcDbLine
 10
287.801473
 20
222.059565
 30
0.0
 11
287.801473
 21
225.040354
 31
0.0
  0
LINE
  5
543
100
AcDbEntity
  8
1
390
0
  6
DOT
 62
     9
100
AcDbLine
 10
280.301473
 20
222.059565
 30
0.0
 11
280.301473
 21
225.040354
 31
0.0
  0
LINE
  5
544
100
AcDbEntity
  8
1
390
0
  6
DOT
 62
     9
100
AcDbLine
 10
262.801473
 20
222.059565
 30
0.0
 11
261.301473
 21
222.059565
 31
0.0
  0
LINE
  5
545
100
AcDbEntity
  8
1
390
0
  6
DOT
 62
     9
100
AcDbLine
 10
280.301473
 20
222.059565
 30
0.0
 11
270.301473
 21
222.059565
 31
0.0
  0
LINE
  5
546
100
AcDbEntity
  8
1
390
0
  6
DOT
 62
     9
100
AcDbLine
 10
289.301473
 20
222.059565
 30
0.0
 11
287.801473
 21
222.059565
 31
0.0
  0
LINE
  5
547
100
AcDbEntity
  8
1
390
0
  6
DOT
 62
     9
100
AcDbLine
 10
270.301473
 20
222.059565
 30
0.0
 11
262.801473
 21
222.059565
 31
0.0
  0
LINE
  5
548
100
AcDbEntity
  8
1
390
0
  6
DOT
 62
     9
100
AcDbLine
 10
270.301473
 20
223.067458
 30
0.0
 11
262.801473
 21
223.067458
 31
0.0
  0
LINE
  5
549
100
AcDbEntity
  8
1
390
0
  6
DOT
 62
     9
100
AcDbLine
 10
287.801473
 20
223.067458
 30
0.0
 11
280.301473
 21
223.067458
 31
0.0
  0
LINE
  5
54A
100
AcDbEntity
  8
1
390
0
  6
DOT
 62
     9
100
AcDbLine
 10
287.801473
 20
222.059565
 30
0.0
 11
280.301473
 21
222.059565
 31
0.0
  0
LINE
  5
54B
100
AcDbEntity
  8
1
390
0
  6
DOT
 62
     9
100
AcDbLine
 10
287.801473
 20
223.753683
 30
0.0
 11
280.301473
 21
223.753683
 31
0.0
  0
LINE
  5
54C
100
AcDbEntity
  8
1
390
0
  6
DOT
 62
     9
100
AcDbLine
 10
270.301473
 20
223.753683
 30
0.0
 11
262.801473
 21
223.753683
 31
0.0
  0
LINE
  5
54D
100
AcDbEntity
  8
1
390
0
  6
Continuous
 62
     7
100
AcDbLine
 10
284.651473
 20
118.441182
 30
0.0
 11
283.301473
 21
118.441182
 31
0.0
  0
LINE
  5
54E
100
AcDbEntity
  8
1
390
0
  6
Continuous
 62
     7
100
AcDbLine
 10
283.301473
 20
118.441182
 30
0.0
 11
281.951473
 21
118.441182
 31
0.0
  0
LINE
  5
54F
100
AcDbEntity
  8
1
390
0
  6
DOT
 62
     9
100
AcDbLine
 10
269.301473
 20
223.406863
 30
0.0
 11
269.301473
 21
223.042025
 31
0.0
  0
LINE
  5
550
100
AcDbEntity
  8
1
390
0
  6
DOT
 62
     9
100
AcDbLine
 10
281.301473
 20
223.406863
 30
0.0
 11
281.301473
 21
223.042025
 31
0.0
  0
LINE
  5
551
100
AcDbEntity
  8
1
390
0
  6
DOT
 62
     9
100
AcDbLine
 10
281.301473
 20
224.672191
 30
0.0
 11
281.301473
 21
223.406863
 31
0.0
  0
LINE
  5
552
100
AcDbEntity
  8
1
390
0
  6
DOT
 62
     9
100
AcDbLine
 10
269.301473
 20
224.672191
 30
0.0
 11
269.301473
 21
223.406863
 31
0.0
  0
LINE
  5
553
100
AcDbEntity
  8
1
390
0
  6
DOT
 62
     9
100
AcDbLine
 10
281.301473
 20
222.540525
 30
0.0
 11
280.301473
 21
222.540525
 31
0.0
  0
LINE
  5
554
100
AcDbEntity
  8
1
390
0
  6
DOT
 62
     9
100
AcDbLine
 10
281.301473
 20
223.042025
 30
0.0
 11
281.301473
 21
222.540525
 31
0.0
  0
LINE
  5
555
100
AcDbEntity
  8
1
390
0
  6
DOT
 62
     9
100
AcDbLine
 10
270.301473
 20
222.540525
 30
0.0
 11
269.301473
 21
222.540525
 31
0.0
  0
LINE
  5
556
100
AcDbEntity
  8
1
390
0
  6
DOT
 62
     9
100
AcDbLine
 10
269.301473
 20
223.042025
 30
0.0
 11
269.301473
 21
222.540525
 31
0.0
  0
LINE
  5
557
100
AcDbEntity
  8
1
390
0
  6
DOT
 62
     9
100
AcDbLine
 10
280.301473
 20
224.843759
 30
0.0
 11
281.301473
 21
224.843759
 31
0.0
  0
LINE
  5
558
100
AcDbEntity
  8
1
390
0
  6
DOT
 62
     9
100
AcDbLine
 10
281.301473
 20
224.843759
 30
0.0
 11
281.301473
 21
224.672191
 31
0.0
  0
LINE
  5
559
100
AcDbEntity
  8
1
390
0
  6
DOT
 62
     9
100
AcDbLine
 10
269.301473
 20
224.843759
 30
0.0
 11
270.301473
 21
224.843759
 31
0.0
  0
LINE
  5
55A
100
AcDbEntity
  8
1
390
0
  6
DOT
 62
     9
100
AcDbLine
 10
269.301473
 20
224.843759
 30
0.0
 11
269.301473
 21
224.672191
 31
0.0
  0
POLYLINE
  5
55B
100
AcDbEntity
  8
1
390
0
  6
DOT
 62
     9
100
AcDb2dPolyline
 66
     1
 10
0.0
 20
0.0
 30
0.0
 40
1.0
 41
1.0
  0
VERTEX
  5
55C
100
AcDbEntity
  8
1
390
0
 62
     9
100
AcDbVertex
100
AcDb2dVertex
 10
260.301473
 20
184.695387
 30
0.0
  0
VERTEX
  5
55D
100
AcDbEntity
  8
1
390
0
 62
     9
100
AcDbVertex
100
AcDb2dVertex
 10
260.344533
 20
184.797256
 30
0.0
  0
VERTEX
  5
55E
100
AcDbEntity
  8
1
390
0
 62
     9
100
AcDbVertex
100
AcDb2dVertex
 10
260.443745
 20
184.8758
 30
0.0
  0
VERTEX
  5
55F
100
AcDbEntity
  8
1
390
0
 62
     9
100
AcDbVertex
100
AcDb2dVertex
 10
260.560522
 20
184.931055
 30
0.0
 42
-0.086517
  0
VERTEX
  5
560
100
AcDbEntity
  8
1
390
0
 62
     9
100
AcDbVertex
100
AcDb2dVertex
 10
261.301473
 20
185.046315
 30
0.0
  0
SEQEND
  5
561
100
AcDbEntity
  8
0
390
0
  0
POLYLINE
  5
562
100
AcDbEntity
  8
1
390
0
  6
DOT
 62
     9
100
AcDb2dPolyline
 66
     1
 10
0.0
 20
0.0
 30
0.0
 40
1.0
 41
1.0
  0
VERTEX
  5
563
100
AcDbEntity
  8
1
390
0
 62
     9
100
AcDbVertex
100
AcDb2dVertex
 10
260.301473
 20
216.02908
 30
0.0
  0
VERTEX
  5
564
100
AcDbEntity
  8
1
390
0
 62
     9
100
AcDbVertex
100
AcDb2dVertex
 10
260.302678
 20
215.980902
 30
0.0
  0
VERTEX
  5
565
100
AcDbEntity
  8
1
390
0
 62
     9
100
AcDbVertex
100
AcDb2dVertex
 10
260.306288
 20
215.93284
 30
0.0
  0
VERTEX
  5
566
100
AcDbEntity
  8
1
390
0
 62
     9
100
AcDbVertex
100
AcDb2dVertex
 10
260.312297
 20
215.885009
 30
0.0
  0
VERTEX
  5
567
100
AcDbEntity
  8
1
390
0
 62
     9
100
AcDbVertex
100
AcDb2dVertex
 10
260.320688
 20
215.837526
 30
0.0
  0
VERTEX
  5
568
100
AcDbEntity
  8
1
390
0
 62
     9
100
AcDbVertex
100
AcDb2dVertex
 10
260.331442
 20
215.790504
 30
0.0
  0
VERTEX
  5
569
100
AcDbEntity
  8
1
390
0
 62
     9
100
AcDbVertex
100
AcDb2dVertex
 10
260.344533
 20
215.744057
 30
0.0
  0
VERTEX
  5
56A
100
AcDbEntity
  8
1
390
0
 62
     9
100
AcDbVertex
100
AcDb2dVertex
 10
260.359929
 20
215.698297
 30
0.0
  0
VERTEX
  5
56B
100
AcDbEntity
  8
1
390
0
 62
     9
100
AcDbVertex
100
AcDb2dVertex
 10
260.377594
 20
215.653333
 30
0.0
  0
VERTEX
  5
56C
100
AcDbEntity
  8
1
390
0
 62
     9
100
AcDbVertex
100
AcDb2dVertex
 10
260.397484
 20
215.609275
 30
0.0
  0
VERTEX
  5
56D
100
AcDbEntity
  8
1
390
0
 62
     9
100
AcDbVertex
100
AcDb2dVertex
 10
260.419552
 20
215.566228
 30
0.0
  0
VERTEX
  5
56E
100
AcDbEntity
  8
1
390
0
 62
     9
100
AcDbVertex
100
AcDb2dVertex
 10
260.443745
 20
215.524296
 30
0.0
  0
VERTEX
  5
56F
100
AcDbEntity
  8
1
390
0
 62
     9
100
AcDbVertex
100
AcDb2dVertex
 10
260.470004
 20
215.48358
 30
0.0
  0
VERTEX
  5
570
100
AcDbEntity
  8
1
390
0
 62
     9
100
AcDbVertex
100
AcDb2dVertex
 10
260.498266
 20
215.444178
 30
0.0
  0
VERTEX
  5
571
100
AcDbEntity
  8
1
390
0
 62
     9
100
AcDbVertex
100
AcDb2dVertex
 10
260.528463
 20
215.406186
 30
0.0
  0
VERTEX
  5
572
100
AcDbEntity
  8
1
390
0
 62
     9
100
AcDbVertex
100
AcDb2dVertex
 10
260.560522
 20
215.369694
 30
0.0
  0
VERTEX
  5
573
100
AcDbEntity
  8
1
390
0
 62
     9
100
AcDbVertex
100
AcDb2dVertex
 10
260.594366
 20
215.33479
 30
0.0
  0
VERTEX
  5
574
100
AcDbEntity
  8
1
390
0
 62
     9
100
AcDbVertex
100
AcDb2dVertex
 10
260.629914
 20
215.301559
 30
0.0
  0
VERTEX
  5
575
100
AcDbEntity
  8
1
390
0
 62
     9
100
AcDbVertex
100
AcDb2dVertex
 10
260.66708
 20
215.270081
 30
0.0
  0
VERTEX
  5
576
100
AcDbEntity
  8
1
390
0
 62
     9
100
AcDbVertex
100
AcDb2dVertex
 10
260.705774
 20
215.240431
 30
0.0
  0
VERTEX
  5
577
100
AcDbEntity
  8
1
390
0
 62
     9
100
AcDbVertex
100
AcDb2dVertex
 10
260.745903
 20
215.212681
 30
0.0
  0
VERTEX
  5
578
100
AcDbEntity
  8
1
390
0
 62
     9
100
AcDbVertex
100
AcDb2dVertex
 10
260.78737
 20
215.186898
 30
0.0
  0
VERTEX
  5
579
100
AcDbEntity
  8
1
390
0
 62
     9
100
AcDbVertex
100
AcDb2dVertex
 10
260.830076
 20
215.163144
 30
0.0
  0
VERTEX
  5
57A
100
AcDbEntity
  8
1
390
0
 62
     9
100
AcDbVertex
100
AcDb2dVertex
 10
260.873918
 20
215.141476
 30
0.0
  0
VERTEX
  5
57B
100
AcDbEntity
  8
1
390
0
 62
     9
100
AcDbVertex
100
AcDb2dVertex
 10
260.91879
 20
215.121946
 30
0.0
  0
VERTEX
  5
57C
100
AcDbEntity
  8
1
390
0
 62
     9
100
AcDbVertex
100
AcDb2dVertex
 10
260.964583
 20
215.104602
 30
0.0
  0
VERTEX
  5
57D
100
AcDbEntity
  8
1
390
0
 62
     9
100
AcDbVertex
100
AcDb2dVertex
 10
261.011188
 20
215.089485
 30
0.0
  0
VERTEX
  5
57E
100
AcDbEntity
  8
1
390
0
 62
     9
100
AcDbVertex
100
AcDb2dVertex
 10
261.058493
 20
215.076631
 30
0.0
  0
VERTEX
  5
57F
100
AcDbEntity
  8
1
390
0
 62
     9
100
AcDbVertex
100
AcDb2dVertex
 10
261.106383
 20
215.066072
 30
0.0
  0
VERTEX
  5
580
100
AcDbEntity
  8
1
390
0
 62
     9
100
AcDbVertex
100
AcDb2dVertex
 10
261.154743
 20
215.057833
 30
0.0
  0
VERTEX
  5
581
100
AcDbEntity
  8
1
390
0
 62
     9
100
AcDbVertex
100
AcDb2dVertex
 10
261.203456
 20
215.051934
 30
0.0
  0
VERTEX
  5
582
100
AcDbEntity
  8
1
390
0
 62
     9
100
AcDbVertex
100
AcDb2dVertex
 10
261.252405
 20
215.048388
 30
0.0
  0
VERTEX
  5
583
100
AcDbEntity
  8
1
390
0
 62
     9
100
AcDbVertex
100
AcDb2dVertex
 10
261.301473
 20
215.047206
 30
0.0
  0
SEQEND
  5
584
100
AcDbEntity
  8
0
390
0
  0
POLYLINE
  5
585
100
AcDbEntity
  8
1
390
0
  6
DOT
 62
     9
100
AcDb2dPolyline
 66
     1
 10
0.0
 20
0.0
 30
0.0
 40
1.0
 41
1.0
  0
VERTEX
  5
586
100
AcDbEntity
  8
1
390
0
 62
     9
100
AcDbVertex
100
AcDb2dVertex
 10
260.301473
 20
216.175611
 30
0.0
  0
VERTEX
  5
587
100
AcDbEntity
  8
1
390
0
 62
     9
100
AcDbVertex
100
AcDb2dVertex
 10
260.302678
 20
216.127432
 30
0.0
  0
VERTEX
  5
588
100
AcDbEntity
  8
1
390
0
 62
     9
100
AcDbVertex
100
AcDb2dVertex
 10
260.306288
 20
216.07937
 30
0.0
  0
VERTEX
  5
589
100
AcDbEntity
  8
1
390
0
 62
     9
100
AcDbVertex
100
AcDb2dVertex
 10
260.312297
 20
216.03154
 30
0.0
  0
VERTEX
  5
58A
100
AcDbEntity
  8
1
390
0
 62
     9
100
AcDbVertex
100
AcDb2dVertex
 10
260.320688
 20
215.984056
 30
0.0
  0
VERTEX
  5
58B
100
AcDbEntity
  8
1
390
0
 62
     9
100
AcDbVertex
100
AcDb2dVertex
 10
260.331442
 20
215.937035
 30
0.0
  0
VERTEX
  5
58C
100
AcDbEntity
  8
1
390
0
 62
     9
100
AcDbVertex
100
AcDb2dVertex
 10
260.344533
 20
215.890587
 30
0.0
  0
VERTEX
  5
58D
100
AcDbEntity
  8
1
390
0
 62
     9
100
AcDbVertex
100
AcDb2dVertex
 10
260.359929
 20
215.844827
 30
0.0
  0
VERTEX
  5
58E
100
AcDbEntity
  8
1
390
0
 62
     9
100
AcDbVertex
100
AcDb2dVertex
 10
260.377594
 20
215.799863
 30
0.0
  0
VERTEX
  5
58F
100
AcDbEntity
  8
1
390
0
 62
     9
100
AcDbVertex
100
AcDb2dVertex
 10
260.397484
 20
215.755805
 30
0.0
  0
VERTEX
  5
590
100
AcDbEntity
  8
1
390
0
 62
     9
100
AcDbVertex
100
AcDb2dVertex
 10
260.419552
 20
215.712758
 30
0.0
  0
VERTEX
  5
591
100
AcDbEntity
  8
1
390
0
 62
     9
100
AcDbVertex
100
AcDb2dVertex
 10
260.443745
 20
215.670826
 30
0.0
  0
VERTEX
  5
592
100
AcDbEntity
  8
1
390
0
 62
     9
100
AcDbVertex
100
AcDb2dVertex
 10
260.470004
 20
215.63011
 30
0.0
  0
VERTEX
  5
593
100
AcDbEntity
  8
1
390
0
 62
     9
100
AcDbVertex
100
AcDb2dVertex
 10
260.498266
 20
215.590709
 30
0.0
  0
VERTEX
  5
594
100
AcDbEntity
  8
1
390
0
 62
     9
100
AcDbVertex
100
AcDb2dVertex
 10
260.528463
 20
215.552716
 30
0.0
  0
VERTEX
  5
595
100
AcDbEntity
  8
1
390
0
 62
     9
100
AcDbVertex
100
AcDb2dVertex
 10
260.560522
 20
215.516224
 30
0.0
  0
VERTEX
  5
596
100
AcDbEntity
  8
1
390
0
 62
     9
100
AcDbVertex
100
AcDb2dVertex
 10
260.594366
 20
215.48132
 30
0.0
  0
VERTEX
  5
597
100
AcDbEntity
  8
1
390
0
 62
     9
100
AcDbVertex
100
AcDb2dVertex
 10
260.629914
 20
215.44809
 30
0.0
  0
VERTEX
  5
598
100
AcDbEntity
  8
1
390
0
 62
     9
100
AcDbVertex
100
AcDb2dVertex
 10
260.66708
 20
215.416611
 30
0.0
  0
VERTEX
  5
599
100
AcDbEntity
  8
1
390
0
 62
     9
100
AcDbVertex
100
AcDb2dVertex
 10
260.705774
 20
215.386962
 30
0.0
  0
VERTEX
  5
59A
100
AcDbEntity
  8
1
390
0
 62
     9
100
AcDbVertex
100
AcDb2dVertex
 10
260.745903
 20
215.359212
 30
0.0
  0
VERTEX
  5
59B
100
AcDbEntity
  8
1
390
0
 62
     9
100
AcDbVertex
100
AcDb2dVertex
 10
260.78737
 20
215.333429
 30
0.0
  0
VERTEX
  5
59C
100
AcDbEntity
  8
1
390
0
 62
     9
100
AcDbVertex
100
AcDb2dVertex
 10
260.830076
 20
215.309675
 30
0.0
  0
VERTEX
  5
59D
100
AcDbEntity
  8
1
390
0
 62
     9
100
AcDbVertex
100
AcDb2dVertex
 10
260.873918
 20
215.288007
 30
0.0
  0
VERTEX
  5
59E
100
AcDbEntity
  8
1
390
0
 62
     9
100
AcDbVertex
100
AcDb2dVertex
 10
260.91879
 20
215.268477
 30
0.0
  0
VERTEX
  5
59F
100
AcDbEntity
  8
1
390
0
 62
     9
100
AcDbVertex
100
AcDb2dVertex
 10
260.964583
 20
215.251132
 30
0.0
  0
VERTEX
  5
5A0
100
AcDbEntity
  8
1
390
0
 62
     9
100
AcDbVertex
100
AcDb2dVertex
 10
261.011188
 20
215.236015
 30
0.0
  0
VERTEX
  5
5A1
100
AcDbEntity
  8
1
390
0
 62
     9
100
AcDbVertex
100
AcDb2dVertex
 10
261.058493
 20
215.223162
 30
0.0
  0
VERTEX
  5
5A2
100
AcDbEntity
  8
1
390
0
 62
     9
100
AcDbVertex
100
AcDb2dVertex
 10
261.106383
 20
215.212602
 30
0.0
  0
VERTEX
  5
5A3
100
AcDbEntity
  8
1
390
0
 62
     9
100
AcDbVertex
100
AcDb2dVertex
 10
261.154743
 20
215.204363
 30
0.0
  0
VERTEX
  5
5A4
100
AcDbEntity
  8
1
390
0
 62
     9
100
AcDbVertex
100
AcDb2dVertex
 10
261.203456
 20
215.198464
 30
0.0
  0
VERTEX
  5
5A5
100
AcDbEntity
  8
1
390
0
 62
     9
100
AcDbVertex
100
AcDb2dVertex
 10
261.252405
 20
215.194919
 30
0.0
  0
VERTEX
  5
5A6
100
AcDbEntity
  8
1
390
0
 62
     9
100
AcDbVertex
100
AcDb2dVertex
 10
261.301473
 20
215.193736
 30
0.0
  0
SEQEND
  5
5A7
100
AcDbEntity
  8
0
390
0
  0
POLYLINE
  5
5A8
100
AcDbEntity
  8
1
390
0
  6
DOT
 62
     9
100
AcDb2dPolyline
 66
     1
 10
0.0
 20
0.0
 30
0.0
 40
1.0
 41
1.0
  0
VERTEX
  5
5A9
100
AcDbEntity
  8
1
390
0
 62
     9
100
AcDbVertex
100
AcDb2dVertex
 10
260.301473
 20
174.687842
 30
0.0
  0
VERTEX
  5
5AA
100
AcDbEntity
  8
1
390
0
 62
     9
100
AcDbVertex
100
AcDb2dVertex
 10
260.344533
 20
174.789711
 30
0.0
  0
VERTEX
  5
5AB
100
AcDbEntity
  8
1
390
0
 62
     9
100
AcDbVertex
100
AcDb2dVertex
 10
260.443745
 20
174.868255
 30
0.0
  0
VERTEX
  5
5AC
100
AcDbEntity
  8
1
390
0
 62
     9
100
AcDbVertex
100
AcDb2dVertex
 10
260.560522
 20
174.923511
 30
0.0
 42
-0.086517
  0
VERTEX
  5
5AD
100
AcDbEntity
  8
1
390
0
 62
     9
100
AcDbVertex
100
AcDb2dVertex
 10
261.301473
 20
175.03877
 30
0.0
  0
SEQEND
  5
5AE
100
AcDbEntity
  8
0
390
0
  0
LINE
  5
5AF
100
AcDbEntity
  8
1
390
0
  6
DOT
 62
     9
100
AcDbLine
 10
261.301473
 20
215.047206
 30
0.0
 11
269.801473
 21
215.047206
 31
0.0
  0
LINE
  5
5B0
100
AcDbEntity
  8
1
390
0
  6
DOT
 62
     9
100
AcDbLine
 10
269.801473
 20
185.046315
 30
0.0
 11
269.801473
 21
215.047206
 31
0.0
  0
LINE
  5
5B1
100
AcDbEntity
  8
1
390
0
  6
DOT
 62
     9
100
AcDbLine
 10
269.801473
 20
215.047206
 30
0.0
 11
269.801473
 21
215.193736
 31
0.0
  0
LINE
  5
5B2
100
AcDbEntity
  8
1
390
0
  6
DOT
 62
     9
100
AcDbLine
 10
269.801473
 20
175.03877
 30
0.0
 11
269.801473
 21
185.046315
 31
0.0
  0
LINE
  5
5B3
100
AcDbEntity
  8
1
390
0
  6
DOT
 62
     9
100
AcDbLine
 10
261.301473
 20
185.046315
 30
0.0
 11
269.801473
 21
185.046315
 31
0.0
  0
LINE
  5
5B4
100
AcDbEntity
  8
1
390
0
  6
DOT
 62
     9
100
AcDbLine
 10
269.801473
 20
175.03877
 30
0.0
 11
261.301473
 21
175.03877
 31
0.0
  0
LINE
  5
5B5
100
AcDbEntity
  8
1
390
0
  6
DOT
 62
     9
100
AcDbLine
 10
261.301473
 20
215.193736
 30
0.0
 11
269.801473
 21
215.193736
 31
0.0
  0
LINE
  5
5B6
100
AcDbEntity
  8
1
390
0
  6
DOT
 62
     9
100
AcDbLine
 10
270.301473
 20
223.864298
 30
0.0
 11
269.301473
 21
223.864298
 31
0.0
  0
LINE
  5
5B7
100
AcDbEntity
  8
1
390
0
  6
DOT
 62
     9
100
AcDbLine
 10
269.301473
 20
222.540525
 30
0.0
 11
269.301473
 21
222.059565
 31
0.0
  0
LINE
  5
5B8
100
AcDbEntity
  8
1
390
0
  6
DOT
 62
     9
100
AcDbLine
 10
280.301473
 20
223.048247
 30
0.0
 11
270.301473
 21
223.048247
 31
0.0
  0
LINE
  5
5B9
100
AcDbEntity
  8
1
390
0
  6
DOT
 62
     9
100
AcDbLine
 10
281.301473
 20
223.864298
 30
0.0
 11
280.301473
 21
223.864298
 31
0.0
  0
LINE
  5
5BA
100
AcDbEntity
  8
1
390
0
  6
DOT
 62
     9
100
AcDbLine
 10
281.301473
 20
222.540525
 30
0.0
 11
281.301473
 21
222.059565
 31
0.0
  0
LINE
  5
5BB
100
AcDbEntity
  8
1
390
0
  6
DOT
 62
     9
100
AcDbLine
 10
272.301473
 20
223.048247
 30
0.0
 11
272.301473
 21
222.059565
 31
0.0
  0
LINE
  5
5BC
100
AcDbEntity
  8
1
390
0
  6
DOT
 62
     9
100
AcDbLine
 10
278.301473
 20
222.059565
 30
0.0
 11
278.301473
 21
223.048247
 31
0.0
  0
LINE
  5
5BD
100
AcDbEntity
  8
1
390
0
  6
DOT
 62
     9
100
AcDbLine
 10
269.301473
 20
226.048247
 30
0.0
 11
270.301473
 21
226.048247
 31
0.0
  0
LINE
  5
5BE
100
AcDbEntity
  8
1
390
0
  6
DOT
 62
     9
100
AcDbLine
 10
270.301473
 20
225.548247
 30
0.0
 11
270.301473
 21
226.048247
 31
0.0
  0
LINE
  5
5BF
100
AcDbEntity
  8
1
390
0
  6
DOT
 62
     9
100
AcDbLine
 10
269.301473
 20
225.548247
 30
0.0
 11
269.301473
 21
226.048247
 31
0.0
  0
LINE
  5
5C0
100
AcDbEntity
  8
1
390
0
  6
DOT
 62
     9
100
AcDbLine
 10
281.301473
 20
225.548247
 30
0.0
 11
281.301473
 21
224.843759
 31
0.0
  0
LINE
  5
5C1
100
AcDbEntity
  8
1
390
0
  6
DOT
 62
     9
100
AcDbLine
 10
280.301473
 20
225.040354
 30
0.0
 11
280.301473
 21
225.548247
 31
0.0
  0
LINE
  5
5C2
100
AcDbEntity
  8
1
390
0
  6
DOT
 62
     9
100
AcDbLine
 10
270.301473
 20
225.548247
 30
0.0
 11
270.301473
 21
225.040354
 31
0.0
  0
LINE
  5
5C3
100
AcDbEntity
  8
1
390
0
  6
DOT
 62
     9
100
AcDbLine
 10
269.301473
 20
225.548247
 30
0.0
 11
269.301473
 21
224.843759
 31
0.0
  0
LINE
  5
5C4
100
AcDbEntity
  8
1
390
0
  6
DOT
 62
     9
100
AcDbLine
 10
280.301473
 20
226.048247
 30
0.0
 11
281.301473
 21
226.048247
 31
0.0
  0
LINE
  5
5C5
100
AcDbEntity
  8
1
390
0
  6
DOT
 62
     9
100
AcDbLine
 10
281.301473
 20
226.048247
 30
0.0
 11
281.301473
 21
225.548247
 31
0.0
  0
LINE
  5
5C6
100
AcDbEntity
  8
1
390
0
  6
DOT
 62
     9
100
AcDbLine
 10
280.301473
 20
226.048247
 30
0.0
 11
280.301473
 21
225.548247
 31
0.0
  0
LINE
  5
5C7
100
AcDbEntity
  8
1
390
0
  6
DOT
 62
     9
100
AcDbLine
 10
280.251473
 20
122.141182
 30
0.0
 11
280.251473
 21
126.041182
 31
0.0
  0
LINE
  5
5C8
100
AcDbEntity
  8
1
390
0
  6
DOT
 62
     9
100
AcDbLine
 10
279.651473
 20
126.041182
 30
0.0
 11
279.651473
 21
122.141182
 31
0.0
  0
ARC
  5
5C9
100
AcDbEntity
  8
1
390
0
  6
DOT
 62
     9
100
AcDbCircle
 10
280.151473
 20
122.141182
 30
0.0
 40
0.1
210
0.0
220
0.0
230
1.0
100
AcDbArc
 50
270.0
 51
360.0
  0
ARC
  5
5CA
100
AcDbEntity
  8
1
390
0
  6
DOT
 62
     9
100
AcDbCircle
 10
279.751473
 20
122.141182
 30
0.0
 40
0.1
210
0.0
220
0.0
230
1.0
100
AcDbArc
 50
180.0
 51
270.0
  0
LINE
  5
5CB
100
AcDbEntity
  8
1
390
0
  6
DOT
 62
     9
100
AcDbLine
 10
268.651473
 20
122.141182
 30
0.0
 11
268.651473
 21
126.041182
 31
0.0
  0
LINE
  5
5CC
100
AcDbEntity
  8
1
390
0
  6
DOT
 62
     9
100
AcDbLine
 10
268.051473
 20
126.041182
 30
0.0
 11
268.051473
 21
122.141182
 31
0.0
  0
ARC
  5
5CD
100
AcDbEntity
  8
1
390
0
  6
DOT
 62
     9
100
AcDbCircle
 10
268.551473
 20
122.141182
 30
0.0
 40
0.1
210
0.0
220
0.0
230
1.0
100
AcDbArc
 50
270.0
 51
360.0
  0
ARC
  5
5CE
100
AcDbEntity
  8
1
390
0
  6
DOT
 62
     9
100
AcDbCircle
 10
268.151473
 20
122.141182
 30
0.0
 40
0.1
210
0.0
220
0.0
230
1.0
100
AcDbArc
 50
180.0
 51
270.0
  0
LINE
  5
5CF
100
AcDbEntity
  8
1
390
0
  6
Continuous
 62
     7
100
AcDbLine
 10
284.851473
 20
118.641182
 30
0.0
 11
284.851473
 21
120.541182
 31
0.0
  0
LINE
  5
5D0
100
AcDbEntity
  8
1
390
0
  6
DOT
 62
     9
100
AcDbLine
 10
281.751473
 20
120.541182
 30
0.0
 11
281.751473
 21
119.541182
 31
0.0
  0
LINE
  5
5D1
100
AcDbEntity
  8
1
390
0
  6
Continuous
 62
     7
100
AcDbLine
 10
281.751473
 20
119.541182
 30
0.0
 11
281.751473
 21
118.641182
 31
0.0
  0
ARC
  5
5D2
100
AcDbEntity
  8
1
390
0
  6
Continuous
 62
     7
100
AcDbCircle
 10
284.651473
 20
118.641182
 30
0.0
 40
0.2
210
0.0
220
0.0
230
1.0
100
AcDbArc
 50
270.0
 51
360.0
  0
ARC
  5
5D3
100
AcDbEntity
  8
1
390
0
  6
Continuous
 62
     7
100
AcDbCircle
 10
281.951473
 20
118.641182
 30
0.0
 40
0.2
210
0.0
220
0.0
230
1.0
100
AcDbArc
 50
180.0
 51
270.0
  0
INSERT
  5
5E5
100
AcDbEntity
  8
1
390
0
100
AcDbBlockReference
  2
AID2179
 10
0.0
 20
0.0
 30
0.0
  0
INSERT
  5
5F7
100
AcDbEntity
  8
1
390
0
100
AcDbBlockReference
  2
AID2187
 10
0.0
 20
0.0
 30
0.0
  0
INSERT
  5
609
100
AcDbEntity
  8
1
390
0
100
AcDbBlockReference
  2
AID2195
 10
0.0
 20
0.0
 30
0.0
  0
INSERT
  5
61B
100
AcDbEntity
  8
1
390
0
100
AcDbBlockReference
  2
AID2203
 10
0.0
 20
0.0
 30
0.0
  0
INSERT
  5
62D
100
AcDbEntity
  8
1
390
0
100
AcDbBlockReference
  2
AID2211
 10
0.0
 20
0.0
 30
0.0
  0
LINE
  5
62F
100
AcDbEntity
  8
1
390
0
  6
CENTER
 62
     1
100
AcDbLine
 10
118.95405
 20
227.541182
 30
0.0
 11
118.95405
 21
119.541182
 31
0.0
  0
LINE
  5
630
100
AcDbEntity
  8
1
390
0
  6
CENTER
 62
     1
100
AcDbLine
 10
66.479438
 20
174.041182
 30
0.0
 11
171.655762
 21
174.041182
 31
0.0
  0
LINE
  5
631
100
AcDbEntity
  8
1
390
0
  6
CENTER
 62
     1
100
AcDbLine
 10
118.95405
 20
49.487855
 30
0.0
 11
118.95405
 21
81.734461
 31
0.0
  0
LINE
  5
632
100
AcDbEntity
  8
1
390
0
  6
CENTER
 62
     1
100
AcDbLine
 10
275.301473
 20
119.541182
 30
0.0
 11
275.301473
 21
227.541182
 31
0.0
  0
LINE
  5
634
100
AcDbEntity
  8
5
390
0
  6
Continuous
 62
     7
100
AcDbLine
 10
289.301473
 20
227.541182
 30
0.0
 11
261.301473
 21
227.541182
 31
0.0
  0
POINT
  5
635
100
AcDbEntity
  8
5
390
0
 62
     7
100
AcDbPoint
 10
275.301473
 20
227.541182
 30
0.0
  0
POINT
  5
636
100
AcDbEntity
  8
5
390
0
 62
     7
100
AcDbPoint
 10
275.301473
 20
119.541182
 30
0.0
  0
POINT
  5
637
100
AcDbEntity
  8
5
390
0
 62
     7
100
AcDbPoint
 10
121.455441
 20
81.734461
 30
0.0
  0
POINT
  5
638
100
AcDbEntity
  8
5
390
0
 62
     7
100
AcDbPoint
 10
119.546651
 20
49.487855
 30
0.0
  0
POINT
  5
639
100
AcDbEntity
  8
5
390
0
 62
     7
100
AcDbPoint
 10
171.655762
 20
176.091381
 30
0.0
  0
POINT
  5
63A
100
AcDbEntity
  8
5
390
0
 62
     7
100
AcDbPoint
 10
66.479438
 20
172.632242
 30
0.0
  0
INSERT
  5
63F
100
AcDbEntity
  8
1
390
0
100
AcDbBlockReference
  2
AID2243
 10
0.0
 20
0.0
 30
0.0
  0
INSERT
  5
644
100
AcDbEntity
  8
1
390
0
100
AcDbBlockReference
  2
AID2247
 10
0.0
 20
0.0
 30
0.0
  0
INSERT
  5
649
100
AcDbEntity
  8
1
390
0
100
AcDbBlockReference
  2
AID2251
 10
0.0
 20
0.0
 30
0.0
  0
ENDSEC
  0
SECTION
  2
OBJECTS
  0
DICTIONARY
  5
19
100
AcDbDictionary
280
     0
281
     1
  3
ACAD_GROUP
350
1A
  3
ACAD_MLINESTYLE
350
1B
  3
ACAD_LAYOUT
350
1E
  3
ACAD_PLOTSETTINGS
350
22
  3
ACAD_PLOTSTYLENAME
350
1F
  3
ACAD_WIPEOUT_VARS
350
23
  0
DICTIONARY
  5
1A
102
{ACAD_REACTORS
330
19
102
}
100
AcDbDictionary
280
     0
281
     1
  0
DICTIONARY
  5
1B
102
{ACAD_REACTORS
330
19
102
}
100
AcDbDictionary
280
     0
281
     1
  3
Standard
350
1C
  0
MLINESTYLE
  5
1C
102
{ACAD_REACTORS
330
1B
102
}
100
AcDbMlineStyle
  2
Standard
 70
     0
  3

 62
     0
 51
90.0
 52
90.0
 71
     2
 49
0.5
 62
   256
  6
ByLayer
 49
-0.5
 62
   256
  6
ByLayer
  0
ACDBDICTIONARYWDFLT
  5
1F
102
{ACAD_REACTORS
330
19
102
}
100
AcDbDictionary
281
     1
  3
Normal
350
1D
100
AcDbDictionaryWithDefault
340
1D
  0
ACDBPLACEHOLDER
  5
1D
102
{ACAD_REACTORS
330
1F
102
}
  0
LAYOUT
  5
20
102
{ACAD_REACTORS
330
1E
102
}
100
AcDbPlotSettings
  1

  2

  4

  6

 40
0.0
 41
0.0
 42
0.0
 43
0.0
 44
0.0
 45
0.0
 46
0.0
 47
0.0
 48
0.0
 49
0.0
140
0.0
141
0.0
142
1.0
143
1.0
 70
  1024
 72
     0
 73
     0
 74
     0
  7

 75
     0
147
1.0
148
0.0
149
0.0
100
AcDbLayout
  1
Model
 70
     0
 71
     0
 10
0.0
 20
0.0
 11
0.0
 21
0.0
 12
0.0
 22
0.0
 32
0.0
 14
0.0
 24
0.0
 34
0.0
 15
0.0
 25
0.0
 35
0.0
146
0.0
 13
0.0
 23
0.0
 33
0.0
 16
0.0
 26
0.0
 36
0.0
 17
0.0
 27
0.0
 37
0.0
 76
     0
330
A
331
0
345
0
346
0
  0
LAYOUT
  5
21
102
{ACAD_REACTORS
330
1E
102
}
100
AcDbPlotSettings
  1

  2

  4

  6

 40
0.0
 41
0.0
 42
0.0
 43
0.0
 44
0.0
 45
0.0
 46
0.0
 47
0.0
 48
0.0
 49
0.0
140
0.0
141
0.0
142
1.0
143
1.0
 70
     0
 72
     0
 73
     0
 74
     0
  7

 75
     0
147
1.0
148
0.0
149
0.0
100
AcDbLayout
  1
Layout1
 70
     0
 71
     0
 10
0.0
 20
0.0
 11
0.0
 21
0.0
 12
0.0
 22
0.0
 32
0.0
 14
0.0
 24
0.0
 34
0.0
 15
0.0
 25
0.0
 35
0.0
146
0.0
 13
0.0
 23
0.0
 33
0.0
 16
0.0
 26
0.0
 36
0.0
 17
0.0
 27
0.0
 37
0.0
 76
     0
330
B
331
0
345
0
346
0
  0
DICTIONARY
  5
1E
102
{ACAD_REACTORS
330
19
102
}
100
AcDbDictionary
280
     0
281
     1
  3
Layout1
350
21
  3
Model
350
20
  0
DICTIONARY
  5
22
102
{ACAD_REACTORS
330
19
102
}
100
AcDbDictionary
280
     0
281
     1
  0
WIPEOUTVARIABLES
  5
23
100
AcDbWipeoutVariables
 70
     1
  0
ENDSEC
  0
EOF
