  0
SECTION
  2
HEADER
  9
$ACADVER
  1
AC1015
  9
$ACADMAINTVER
 70
     6
  9
$DWGCODEPAGE
  3
DOS932
  9
$INSBASE
 10
0.0
 20
0.0
 30
0.0
  9
$EXTMIN
 10
0.0
 20
0.0
 30
0.0
  9
$EXTMAX
 10
410.0
 20
287.0
 30
10.0
  9
$LIMMIN
 10
0.0
 20
0.0
  9
$LIMMAX
 10
410.0
 20
287.0
  9
$ORTHOMODE
 70
     0
  9
$REGENMODE
 70
     1
  9
$FILLMODE
 70
     1
  9
$QTEXTMODE
 70
     0
  9
$MIRRTEXT
 70
     1
  9
$LTSCALE
 40
10.0
  9
$ATTMODE
 70
     1
  9
$TEXTSIZE
 40
0.2
  9
$TRACEWID
 40
0.05
  9
$TEXTSTYLE
  7
Standard
  9
$CLAYER
  8
0
  9
$CELTYPE
  6
Continuous
  9
$CECOLOR
 62
   256
  9
$CELTSCALE
 40
1.0
  9
$DISPSILH
 70
     0
  9
$DIMSCALE
 40
1.0
  9
$DIMASZ
 40
3.2
  9
$DIMEXO
 40
3.2
  9
$DIMDLI
 40
0.38
  9
$DIMRND
 40
0.0
  9
$DIMDLE
 40
0.0
  9
$DIMEXE
 40
2.4
  9
$DIMTP
 40
0.0
  9
$DIMTM
 40
0.0
  9
$DIMTXT
 40
8.0
  9
$DIMCEN
 40
0.09
  9
$DIMTSZ
 40
0.0
  9
$DIMTOL
 70
     0
  9
$DIMLIM
 70
     0
  9
$DIMTIH
 70
     0
  9
$DIMTOH
 70
     0
  9
$DIMSE1
 70
     0
  9
$DIMSE2
 70
     0
  9
$DIMTAD
 70
     1
  9
$DIMZIN
 70
     0
  9
$DIMBLK
  1

  9
$DIMASO
 70
     1
  9
$DIMSHO
 70
     1
  9
$DIMPOST
  1

  9
$DIMAPOST
  1

  9
$DIMALT
 70
     0
  9
$DIMALTD
 70
     2
  9
$DIMALTF
 40
25.4
  9
$DIMLFAC
 40
1.0
  9
$DIMTOFL
 70
     0
  9
$DIMTVP
 40
0.0
  9
$DIMTIX
 70
     0
  9
$DIMSOXD
 70
     0
  9
$DIMSAH
 70
     0
  9
$DIMBLK1
  1

  9
$DIMBLK2
  1

  9
$DIMSTYLE
  2
Standard
  9
$DIMCLRD
 70
     7
  9
$DIMCLRE
 70
     7
  9
$DIMCLRT
 70
     7
  9
$DIMTFAC
 40
0.6
  9
$DIMGAP
 40
4.0
  9
$DIMJUST
 70
     0
  9
$DIMSD1
 70
     0
  9
$DIMSD2
 70
     0
  9
$DIMTOLJ
 70
     1
  9
$DIMTZIN
 70
     0
  9
$DIMALTZ
 70
     0
  9
$DIMALTTZ
 70
     0
  9
$DIMUPT
 70
     0
  9
$DIMDEC
 70
     6
  9
$DIMTDEC
 70
     4
  9
$DIMALTU
 70
     2
  9
$DIMALTTD
 70
     2
  9
$DIMTXSTY
  7
Standard
  9
$DIMAUNIT
 70
     0
  9
$DIMADEC
 70
     0
  9
$DIMALTRND
 40
0.0
  9
$DIMAZIN
 70
     0
  9
$DIMDSEP
 70
     0
  9
$DIMATFIT
 70
     3
  9
$DIMFRAC
 70
     0
  9
$DIMLDRBLK
  1

  9
$DIMLUNIT
 70
     2
  9
$DIMLWD
 70
     0
  9
$DIMLWE
 70
     0
  9
$DIMTMOVE
 70
     0
  9
$LUNITS
 70
     2
  9
$LUPREC
 70
     4
  9
$SKETCHINC
 40
0.1
  9
$FILLETRAD
 40
0.0
  9
$AUNITS
 70
     0
  9
$AUPREC
 70
     0
  9
$MENU
  1
acad
  9
$ELEVATION
 40
0.0
  9
$PELEVATION
 40
0.0
  9
$THICKNESS
 40
0.0
  9
$LIMCHECK
 70
     0
  9
$CHAMFERA
 40
0.0
  9
$CHAMFERB
 40
0.0
  9
$CHAMFERC
 40
0.0
  9
$CHAMFERD
 40
0.0
  9
$SKPOLY
 70
     0
  9
$TDCREATE
 40
2458421.501608796
  9
$TDUCREATE
 40
0.000000000
  9
$TDUPDATE
 40
2458421.126550926
  9
$TDUUPDATE
 40
0.000000000
  9
$TDINDWG
 40
0.0000000000
  9
$TDUSRTIMER
 40
0.0000000000
  9
$USRTIMER
 70
     1
  9
$ANGBASE
 50
0.0
  9
$ANGDIR
 70
     0
  9
$PDMODE
 70
     0
  9
$PDSIZE
 40
0.0
  9
$PLINEWID
 40
0.0
  9
$SPLFRAME
 70
     0
  9
$SPLINETYPE
 70
     6
  9
$SPLINESEGS
 70
     8
  9
$HANDSEED
  5
30D
  9
$SURFTAB1
 70
     6
  9
$SURFTAB2
 70
     6
  9
$SURFTYPE
 70
     6
  9
$SURFU
 70
     6
  9
$SURFV
 70
     6
  9
$UCSBASE
  2

  9
$UCSNAME
  2

  9
$UCSORG
 10
0.0
 20
0.0
 30
0.0
  9
$UCSXDIR
 10
1.0
 20
0.0
 30
0.0
  9
$UCSYDIR
 10
0.0
 20
1.0
 30
0.0
  9
$UCSORTHOREF
  2

  9
$UCSORTHOVIEW
 70
     0
  9
$UCSORGTOP
 10
0.0
 20
0.0
 30
0.0
  9
$UCSORGBOTTOM
 10
0.0
 20
0.0
 30
0.0
  9
$UCSORGLEFT
 10
0.0
 20
0.0
 30
0.0
  9
$UCSORGRIGHT
 10
0.0
 20
0.0
 30
0.0
  9
$UCSORGFRONT
 10
0.0
 20
0.0
 30
0.0
  9
$UCSORGBACK
 10
0.0
 20
0.0
 30
0.0
  9
$PUCSBASE
  2

  9
$PUCSNAME
  2

  9
$PUCSORG
 10
0.0
 20
0.0
 30
0.0
  9
$PUCSXDIR
 10
1.0
 20
0.0
 30
0.0
  9
$PUCSYDIR
 10
0.0
 20
1.0
 30
0.0
  9
$PUCSORTHOREF
  2

  9
$PUCSORTHOVIEW
 70
     0
  9
$PUCSORGTOP
 10
0.0
 20
0.0
 30
0.0
  9
$PUCSORGBOTTOM
 10
0.0
 20
0.0
 30
0.0
  9
$PUCSORGLEFT
 10
0.0
 20
0.0
 30
0.0
  9
$PUCSORGRIGHT
 10
0.0
 20
0.0
 30
0.0
  9
$PUCSORGFRONT
 10
0.0
 20
0.0
 30
0.0
  9
$PUCSORGBACK
 10
0.0
 20
0.0
 30
0.0
  9
$USERI1
 70
     0
  9
$USERI2
 70
     0
  9
$USERI3
 70
     0
  9
$USERI4
 70
     0
  9
$USERI5
 70
     0
  9
$USERR1
 40
0.0
  9
$USERR2
 40
0.0
  9
$USERR3
 40
0.0
  9
$USERR4
 40
0.0
  9
$USERR5
 40
0.0
  9
$WORLDVIEW
 70
     1
  9
$SHADEDGE
 70
     3
  9
$SHADEDIF
 70
    70
  9
$TILEMODE
 70
     1
  9
$MAXACTVP
 70
    16
  9
$PINSBASE
 10
0.0
 20
0.0
 30
0.0
  9
$PLIMCHECK
 70
     0
  9
$PEXTMIN
 10
1.000000E+20
 20
1.000000E+20
 30
1.000000E+20
  9
$PEXTMAX
 10
-1.000000E+20
 20
-1.000000E+20
 30
-1.000000E+20
  9
$PLIMMIN
 10
0.0
 20
0.0
  9
$PLIMMAX
 10
12.0
 20
9.0
  9
$UNITMODE
 70
     0
  9
$VISRETAIN
 70
     0
  9
$PLINEGEN
 70
     1
  9
$PSLTSCALE
 70
     0
  9
$TREEDEPTH
 70
  3020
  9
$CMLSTYLE
  2
Standard
  9
$CMLJUST
 70
     0
  9
$CMLSCALE
 40
1.0
  9
$PROXYGRAPHICS
 70
     0
  9
$MEASUREMENT
 70
     0
  9
$CELWEIGHT
370
     0
  9
$ENDCAPS
280
     0
  9
$JOINSTYLE
280
     0
  9
$LWDISPLAY
290
     0
  9
$INSUNITS
 70
     0
  9
$HYPERLINKBASE
  1

  9
$STYLESHEET
  1

  9
$XEDIT
290
     1
  9
$CEPSNTYPE
380
     0
  9
$PSTYLEMODE
290
     1
  9
$FINGERPRINTGUID
  2

  9
$VERSIONGUID
  2

  9
$EXTNAMES
290
     1
  9
$PSVPSCALE
 40
0.0
  0
ENDSEC
  0
SECTION
  2
CLASSES
  0
CLASS
  1
LWPOLYLINE
  2
AcDbPolyline
  3
AutoCAD 2000
 90
        0
280
     0
281
     1
  0
CLASS
  1
IMAGE
  2
AcDbRasterImage
  3
ISM
 90
      127
280
     0
281
     1
  0
CLASS
  1
OLE2FRAME
  2
AcDbOle2Frame
  3
AutoCAD 2000
 90
        0
280
     0
281
     1
  0
CLASS
  1
HATCH
  2
AcDbHatch
  3
AutoCAD 2000
 90
        0
280
     0
281
     1
  0
CLASS
  1
DICTIONARYVAR
  2
AcDbDictionaryVar
  3
AutoCAD 2000
 90
        0
280
     0
281
     0
  0
CLASS
  1
RASTERVARIABLES
  2
AcDbRasterVariables
  3
ISM
 90
        0
280
     0
281
     0
  0
CLASS
  1
IMAGEDEF
  2
AcDbRasterImageDef
  3
ISM
 90
        0
280
     0
281
     0
  0
CLASS
  1
IMAGEDEF_REACTOR
  2
AcDbRasterImageDefReactor
  3
ISM
 90
        1
280
     0
281
     0
  0
CLASS
  1
IDBUFFER
  2
AcDbIdBuffer
  3
AutoCAD 2000
 90
        0
280
     0
281
     0
  0
CLASS
  1
SPATIAL_FILTER
  2
AcDbSpatialFilter
  3
AutoCAD 2000
 90
        0
280
     0
281
     0
  0
CLASS
  1
XRECORD
  2
AcDbXrecord
  3
AutoCAD 2000
 90
        0
280
     0
281
     0
  0
CLASS
  1
SORTENTSTABLE
  2
AcDbSortentsTable
  3
AutoCAD 2000
 90
        0
280
     0
281
     0
  0
CLASS
  1
LAYER_INDEX
  2
AcDbLayerIndex
  3
AutoCAD 2000
 90
        0
280
     0
281
     0
  0
CLASS
  1
SPATIAL_INDEX
  2
AcDbSpatialIndex
  3
AutoCAD 2000
 90
        0
280
     0
281
     0
  0
CLASS
  1
OBJECT_PTR
  2
CAseDLPNTableRecord
  3
"ASE-LPNTableRecord"
 90
        1
280
     0
281
     0
  0
CLASS
  1
LAYOUT
  2
AcDbLayout
  3
AutoCAD 2000
 90
        0
280
     0
281
     0
  0
CLASS
  1
PLOTSETTINGS
  2
AcDbPlotSettings
  3
AutoCAD 2000
 90
        0
280
     0
281
     0
  0
CLASS
  1
ACDBDICTIONARYWDFLT
  2
AcDbDictionaryWithDefault
  3
AutoCAD 2000
 90
        0
280
     0
281
     0
  0
CLASS
  1
ACDBPLACEHOLDER
  2
AcDbPlaceHolder
  3
AutoCAD 2000
 90
        0
280
     0
281
     0
  0
CLASS
  1
VBA_PROJECT
  2
AcDbVbaProject
  3
acadvba
 90
        0
280
     0
281
     0
  0
CLASS
  1
WIPEOUT
  2
AcDbWipeout
  3
WipeOut|AutoCAD Express Tool|expresstools@autodesk.com
 90
      127
280
     0
281
     1
  0
CLASS
  1
WIPEOUTVARIABLES
  2
AcDbWipeoutVariables
  3
WipeOut|AutoCAD Express Tool|expresstools@autodesk.com
 90
        0
280
     0
281
     0
  0
CLASS
  1
RTEXT
  2
RText
  3
RText|AutoCAD Express Tool|expresstools@autodesk.com
 90
        0
280
     0
281
     1
  0
CLASS
  1
ARCALIGNEDTEXT
  2
AcDbArcAlignedText
  3
ATEXT|AutoCAD Express Tool|expresstools@autodesk.com
 90
        0
280
     0
281
     1
  0
ENDSEC
  0
SECTION
  2
TABLES
  0
TABLE
  2
VPORT
  5
7
100
AcDbSymbolTable
 70
     1
  0
VPORT
  5
15
100
AcDbSymbolTableRecord
100
AcDbViewportTableRecord
  2
*ACTIVE
 70
     0
 10
0.0
 20
0.0
 11
1.0
 21
1.0
 12
6.591288
 22
4.579184
 13
0.0
 23
0.0
 14
1.0
 24
1.0
 15
0.0
 25
0.0
 16
0.0
 26
0.0
 36
1.0
 17
0.0
 27
0.0
 37
0.0
 40
9.158369
 41
0.688564
 42
50.0
 43
0.0
 44
0.0
 50
0.0
 51
0.0
 71
     0
 72
   100
 73
     1
 74
     1
 75
     0
 76
     0
 77
     0
 78
     0
281
     0
 65
     0
110
0.0
120
0.0
130
0.0
111
1.0
121
0.0
131
0.0
112
0.0
122
1.0
132
0.0
345
0
346
0
 79
     0
146
0.0
  0
ENDTAB
  0
TABLE
  2
LTYPE
  5
4
100
AcDbSymbolTable
 70
     5
  0
LTYPE
  5
11
100
AcDbSymbolTableRecord
100
AcDbLinetypeTableRecord
  2
ByBlock
 70
    64
  3

 72
    65
 73
     0
 40
0.0
  0
LTYPE
  5
12
100
AcDbSymbolTableRecord
100
AcDbLinetypeTableRecord
  2
ByLayer
 70
    64
  3

 72
    65
 73
     0
 40
0.0
  0
LTYPE
  5
13
100
AcDbSymbolTableRecord
100
AcDbLinetypeTableRecord
  2
Continuous
 70
    64
  3
Solid line
 72
    65
 73
     0
 40
0.0
  0
LTYPE
  5
125
100
AcDbSymbolTableRecord
100
AcDbLinetypeTableRecord
  2
DOT
 70
    64
  3
..............................................
 72
    65
 73
     2
 40
0.5
 49
0.25
 74
     0
 49
-0.25
 74
     0
  0
LTYPE
  5
1D0
100
AcDbSymbolTableRecord
100
AcDbLinetypeTableRecord
  2
CENTER
 70
    64
  3
____ _ ____ _ ____ _ ____ _ ____ _ ____ _ ____
 72
    65
 73
     4
 40
2.0
 49
1.25
 74
     0
 49
-0.25
 74
     0
 49
0.25
 74
     0
 49
-0.25
 74
     0
  0
ENDTAB
  0
TABLE
  2
LAYER
  5
2
100
AcDbSymbolTable
 70
     4
  0
LAYER
  5
14
100
AcDbSymbolTableRecord
100
AcDbLayerTableRecord
  2
0
 70
     0
 62
     7
  6
Continuous
290
     1
370
    -3
390
1D
  0
LAYER
  5
27
100
AcDbSymbolTableRecord
100
AcDbLayerTableRecord
  2
256
 70
     0
 62
     7
  6
Continuous
290
     1
370
    -3
390
1D
  0
LAYER
  5
B8
100
AcDbSymbolTableRecord
100
AcDbLayerTableRecord
  2
1
 70
     0
 62
     7
  6
Continuous
290
     1
370
    -3
390
1D
  0
LAYER
  5
1D5
100
AcDbSymbolTableRecord
100
AcDbLayerTableRecord
  2
5
 70
     0
 62
     7
  6
Continuous
290
     1
370
    -3
390
1D
  0
ENDTAB
  0
TABLE
  2
STYLE
  5
3
100
AcDbSymbolTable
 70
     1
  0
STYLE
  5
17
100
AcDbSymbolTableRecord
100
AcDbTextStyleTableRecord
  2
Standard
 70
     0
 40
0.0
 41
1.0
 50
0.0
 71
     0
 42
0.0
  3
ＭＳ Ｐゴシック
  4

1001
ACAD
1000
ＭＳ Ｐゴシック
1071
        0
  0
ENDTAB
  0
TABLE
  2
VIEW
  5
5
100
AcDbSymbolTable
 70
     0
  0
ENDTAB
  0
TABLE
  2
UCS
  5
6
100
AcDbSymbolTable
 70
     0
  0
ENDTAB
  0
TABLE
  2
APPID
  5
8
100
AcDbSymbolTable
 70
     2
  0
APPID
  5
16
100
AcDbSymbolTableRecord
100
AcDbRegAppTableRecord
  2
ACAD
 70
     0
  0
APPID
  5
26
100
AcDbSymbolTableRecord
100
AcDbRegAppTableRecord
  2
TOPsolid_Design
 70
     0
  0
ENDTAB
  0
TABLE
  2
DIMSTYLE
  5
9
100
AcDbSymbolTable
 70
     1
100
AcDbDimStyleTable
 71
     0
  0
DIMSTYLE
105
18
100
AcDbSymbolTableRecord
100
AcDbDimStyleTableRecord
  2
Standard
 70
     0
  3

  4

 40
1.0
 41
3.2
 42
3.2
 43
0.38
 44
2.4
 45
0.0
 46
0.0
 47
0.0
 48
0.0
 71
     0
 72
     0
 73
     0
 74
     0
 75
     0
 76
     0
 77
     1
 78
     0
 79
     0
140
8.0
141
0.09
142
0.0
143
25.4
144
1.0
145
0.0
146
0.6
147
4.0
148
0.0
170
     0
171
     2
172
     0
173
     0
174
     0
175
     0
176
     7
177
     7
178
     7
179
     0
271
     6
272
     4
273
     2
274
     2
275
     0
276
     0
277
     2
278
    46
279
     0
280
     0
281
     0
282
     0
283
     1
284
     0
285
     0
286
     0
288
     0
289
     3
340
17
341
0
342
0
343
0
344
0
371
    -2
372
    -2
  0
ENDTAB
  0
TABLE
  2
BLOCK_RECORD
  5
1
100
AcDbSymbolTable
 70
    20
  0
BLOCK_RECORD
  5
A
100
AcDbSymbolTableRecord
100
AcDbBlockTableRecord
  2
*MODEL_SPACE
340
20
  0
BLOCK_RECORD
  5
B
100
AcDbSymbolTableRecord
100
AcDbBlockTableRecord
  2
*PAPER_SPACE
340
21
  0
BLOCK_RECORD
  5
B3
100
AcDbSymbolTableRecord
100
AcDbBlockTableRecord
  2
AID278
340
0
102
{BLKREFS
331
B7
102
}
  0
BLOCK_RECORD
  5
1D8
100
AcDbSymbolTableRecord
100
AcDbBlockTableRecord
  2
AID585
340
0
102
{BLKREFS
331
1EC
102
}
  0
BLOCK_RECORD
  5
1ED
100
AcDbSymbolTableRecord
100
AcDbBlockTableRecord
  2
AID604
340
0
102
{BLKREFS
331
201
102
}
  0
BLOCK_RECORD
  5
208
100
AcDbSymbolTableRecord
100
AcDbBlockTableRecord
  2
AID635
340
0
102
{BLKREFS
331
217
102
}
  0
BLOCK_RECORD
  5
218
100
AcDbSymbolTableRecord
100
AcDbBlockTableRecord
  2
AID652
340
0
102
{BLKREFS
331
225
102
}
  0
BLOCK_RECORD
  5
226
100
AcDbSymbolTableRecord
100
AcDbBlockTableRecord
  2
AID665
340
0
102
{BLKREFS
331
237
102
}
  0
BLOCK_RECORD
  5
238
100
AcDbSymbolTableRecord
100
AcDbBlockTableRecord
  2
AID678
340
0
102
{BLKREFS
331
249
102
}
  0
BLOCK_RECORD
  5
24A
100
AcDbSymbolTableRecord
100
AcDbBlockTableRecord
  2
AID691
340
0
102
{BLKREFS
331
25A
102
}
  0
BLOCK_RECORD
  5
25B
100
AcDbSymbolTableRecord
100
AcDbBlockTableRecord
  2
AID702
340
0
102
{BLKREFS
331
26C
102
}
  0
BLOCK_RECORD
  5
26D
100
AcDbSymbolTableRecord
100
AcDbBlockTableRecord
  2
AID715
340
0
102
{BLKREFS
331
27E
102
}
  0
BLOCK_RECORD
  5
27F
100
AcDbSymbolTableRecord
100
AcDbBlockTableRecord
  2
AID728
340
0
102
{BLKREFS
331
290
102
}
  0
BLOCK_RECORD
  5
293
100
AcDbSymbolTableRecord
100
AcDbBlockTableRecord
  2
AID745
340
0
102
{BLKREFS
331
2A5
102
}
  0
BLOCK_RECORD
  5
2A6
100
AcDbSymbolTableRecord
100
AcDbBlockTableRecord
  2
AID760
340
0
102
{BLKREFS
331
2BB
102
}
  0
BLOCK_RECORD
  5
2BC
100
AcDbSymbolTableRecord
100
AcDbBlockTableRecord
  2
AID781
340
0
102
{BLKREFS
331
2CD
102
}
  0
BLOCK_RECORD
  5
2CE
100
AcDbSymbolTableRecord
100
AcDbBlockTableRecord
  2
AID794
340
0
102
{BLKREFS
331
2DF
102
}
  0
BLOCK_RECORD
  5
2E0
100
AcDbSymbolTableRecord
100
AcDbBlockTableRecord
  2
AID807
340
0
102
{BLKREFS
331
2F1
102
}
  0
BLOCK_RECORD
  5
2F2
100
AcDbSymbolTableRecord
100
AcDbBlockTableRecord
  2
AID820
340
0
102
{BLKREFS
331
2FD
102
}
  0
BLOCK_RECORD
  5
2FE
100
AcDbSymbolTableRecord
100
AcDbBlockTableRecord
  2
AID829
340
0
102
{BLKREFS
331
302
102
}
  0
BLOCK_RECORD
  5
303
100
AcDbSymbolTableRecord
100
AcDbBlockTableRecord
  2
AID832
340
0
102
{BLKREFS
331
307
102
}
  0
BLOCK_RECORD
  5
308
100
AcDbSymbolTableRecord
100
AcDbBlockTableRecord
  2
AID835
340
0
102
{BLKREFS
331
30C
102
}
  0
ENDTAB
  0
ENDSEC
  0
SECTION
  2
BLOCKS
  0
BLOCK
  5
D
100
AcDbEntity
  8
0
390
0
100
AcDbBlockBegin
  2
*MODEL_SPACE
 70
     0
 10
0.0
 20
0.0
 30
0.0
  3
*MODEL_SPACE
  1

  0
ENDBLK
  5
E
100
AcDbEntity
  8
0
390
0
100
AcDbBlockEnd
  0
BLOCK
  5
F
100
AcDbEntity
 67
     1
  8
0
390
0
100
AcDbBlockBegin
  2
*PAPER_SPACE
 70
     0
 10
0.0
 20
0.0
 30
0.0
  3
*PAPER_SPACE
  1

  0
ENDBLK
  5
10
100
AcDbEntity
 67
     1
  8
0
390
0
100
AcDbBlockEnd
  0
BLOCK
  5
B4
100
AcDbEntity
  8
0
390
0
100
AcDbBlockBegin
  2
AID278
 70
     0
 10
0.0
 20
0.0
 30
0.0
  3
D_GROUP
  1

  0
MTEXT
  5
B5
100
AcDbEntity
  8
256
390
0
 62
     7
100
AcDbMText
 10
406.171318
 20
6.951938
 30
0.0
 40
3.0
 41
7.472727
 71
     7
 72
     1
  1
A3
210
0.0
220
0.0
230
1.0
 73
     1
 44
1.0
  0
ENDBLK
  5
B6
100
AcDbEntity
  8
0
390
0
100
AcDbBlockEnd
  0
BLOCK
  5
1D9
100
AcDbEntity
  8
0
390
0
100
AcDbBlockBegin
  2
AID585
 70
     0
 10
0.0
 20
0.0
 30
0.0
  3
D_GROUP
  1

  0
MTEXT
  5
1DA
100
AcDbEntity
  8
1
390
0
 62
     2
100
AcDbMText
 10
110.582824
 20
203.156339
 30
0.0
 40
6.0
 41
9.490909
 71
     7
 72
     1
  1
Φ
210
0.0
220
0.0
230
1.0
 11
0.0
 21
1.0
 31
0.0
 73
     1
 44
1.0
  0
MTEXT
  5
1DB
100
AcDbEntity
  8
1
390
0
 62
     2
100
AcDbMText
 10
110.582824
 20
209.101794
 30
0.0
 40
6.0
 41
6.054545
 71
     7
 72
     1
  1
4
210
0.0
220
0.0
230
1.0
 11
0.0
 21
1.0
 31
0.0
 73
     1
 44
1.0
  0
MTEXT
  5
1DC
100
AcDbEntity
  8
1
390
0
 62
     2
100
AcDbMText
 10
111.782824
 20
215.374521
 30
0.0
 40
4.2
 41
25.696364
 71
     7
 72
     1
  1
-0.008
210
0.0
220
0.0
230
1.0
 11
0.0
 21
1.0
 31
0.0
 73
     1
 44
1.0
  0
MTEXT
  5
1DD
100
AcDbEntity
  8
1
390
0
 62
     2
100
AcDbMText
 10
106.895552
 20
215.374521
 30
0.0
 40
4.2
 41
4.2
 71
     7
 72
     1
  1
 0
210
0.0
220
0.0
230
1.0
 11
0.0
 21
1.0
 31
0.0
 73
     1
 44
1.0
  0
LINE
  5
1DE
100
AcDbEntity
  8
1
390
0
  6
Continuous
 62
    11
100
AcDbLine
 10
112.963734
 20
228.956339
 30
0.0
 11
112.963734
 21
184.947248
 31
0.0
  0
LINE
  5
1DF
100
AcDbEntity
  8
1
390
0
  6
Continuous
 62
    11
100
AcDbLine
 10
129.072493
 20
197.947248
 30
0.0
 11
111.163734
 21
197.947248
 31
0.0
  0
LINE
  5
1E0
100
AcDbEntity
  8
1
390
0
  6
Continuous
 62
    11
100
AcDbLine
 10
129.072493
 20
193.947248
 30
0.0
 11
111.163734
 21
193.947248
 31
0.0
  0
POLYLINE
  5
1E1
100
AcDbEntity
  8
1
390
0
  6
Continuous
 62
    11
100
AcDb2dPolyline
 66
     1
 10
0.0
 20
0.0
 30
0.0
 40
3.0
 41
3.0
  0
VERTEX
  5
1E2
100
AcDbEntity
  8
1
390
0
 62
    11
100
AcDbVertex
100
AcDb2dVertex
 10
112.063734
 20
202.447248
 30
0.0
  0
VERTEX
  5
1E3
100
AcDbEntity
  8
1
390
0
 62
    11
100
AcDbVertex
100
AcDb2dVertex
 10
112.963734
 20
197.947248
 30
0.0
  0
VERTEX
  5
1E4
100
AcDbEntity
  8
1
390
0
 62
    11
100
AcDbVertex
100
AcDb2dVertex
 10
113.863734
 20
202.447248
 30
0.0
  0
SEQEND
  5
1E5
100
AcDbEntity
  8
0
390
0
  0
POLYLINE
  5
1E6
100
AcDbEntity
  8
1
390
0
  6
Continuous
 62
    11
100
AcDb2dPolyline
 66
     1
 10
0.0
 20
0.0
 30
0.0
 40
3.0
 41
3.0
  0
VERTEX
  5
1E7
100
AcDbEntity
  8
1
390
0
 62
    11
100
AcDbVertex
100
AcDb2dVertex
 10
113.863734
 20
189.447248
 30
0.0
  0
VERTEX
  5
1E8
100
AcDbEntity
  8
1
390
0
 62
    11
100
AcDbVertex
100
AcDb2dVertex
 10
112.963734
 20
193.947248
 30
0.0
  0
VERTEX
  5
1E9
100
AcDbEntity
  8
1
390
0
 62
    11
100
AcDbVertex
100
AcDb2dVertex
 10
112.063734
 20
189.447248
 30
0.0
  0
SEQEND
  5
1EA
100
AcDbEntity
  8
0
390
0
  0
ENDBLK
  5
1EB
100
AcDbEntity
  8
0
390
0
100
AcDbBlockEnd
  0
BLOCK
  5
1EE
100
AcDbEntity
  8
0
390
0
100
AcDbBlockBegin
  2
AID604
 70
     0
 10
0.0
 20
0.0
 30
0.0
  3
D_GROUP
  1

  0
MTEXT
  5
1EF
100
AcDbEntity
  8
1
390
0
 62
     2
100
AcDbMText
 10
99.388207
 20
204.656339
 30
0.0
 40
6.0
 41
9.490909
 71
     7
 72
     1
  1
Φ
210
0.0
220
0.0
230
1.0
 11
0.0
 21
1.0
 31
0.0
 73
     1
 44
1.0
  0
MTEXT
  5
1F0
100
AcDbEntity
  8
1
390
0
 62
     2
100
AcDbMText
 10
99.388207
 20
210.601794
 30
0.0
 40
6.0
 41
5.181818
 71
     7
 72
     1
  1
7
210
0.0
220
0.0
230
1.0
 11
0.0
 21
1.0
 31
0.0
 73
     1
 44
1.0
  0
MTEXT
  5
1F1
100
AcDbEntity
  8
1
390
0
 62
     2
100
AcDbMText
 10
100.588207
 20
216.656339
 30
0.0
 40
4.2
 41
14.547273
 71
     7
 72
     1
  1
-0.1
210
0.0
220
0.0
230
1.0
 11
0.0
 21
1.0
 31
0.0
 73
     1
 44
1.0
  0
MTEXT
  5
1F2
100
AcDbEntity
  8
1
390
0
 62
     2
100
AcDbMText
 10
95.700934
 20
216.656339
 30
0.0
 40
4.2
 41
4.2
 71
     7
 72
     1
  1
 0
210
0.0
220
0.0
230
1.0
 11
0.0
 21
1.0
 31
0.0
 73
     1
 44
1.0
  0
LINE
  5
1F3
100
AcDbEntity
  8
1
390
0
  6
Continuous
 62
    11
100
AcDbLine
 10
101.750025
 20
224.663612
 30
0.0
 11
101.750025
 21
183.447248
 31
0.0
  0
LINE
  5
1F4
100
AcDbEntity
  8
1
390
0
  6
Continuous
 62
    11
100
AcDbLine
 10
137.072493
 20
199.447248
 30
0.0
 11
99.950025
 21
199.447248
 31
0.0
  0
LINE
  5
1F5
100
AcDbEntity
  8
1
390
0
  6
Continuous
 62
    11
100
AcDbLine
 10
137.072493
 20
192.447248
 30
0.0
 11
99.950025
 21
192.447248
 31
0.0
  0
POLYLINE
  5
1F6
100
AcDbEntity
  8
1
390
0
  6
Continuous
 62
    11
100
AcDb2dPolyline
 66
     1
 10
0.0
 20
0.0
 30
0.0
 40
3.0
 41
3.0
  0
VERTEX
  5
1F7
100
AcDbEntity
  8
1
390
0
 62
    11
100
AcDbVertex
100
AcDb2dVertex
 10
100.850025
 20
203.947248
 30
0.0
  0
VERTEX
  5
1F8
100
AcDbEntity
  8
1
390
0
 62
    11
100
AcDbVertex
100
AcDb2dVertex
 10
101.750025
 20
199.447248
 30
0.0
  0
VERTEX
  5
1F9
100
AcDbEntity
  8
1
390
0
 62
    11
100
AcDbVertex
100
AcDb2dVertex
 10
102.650025
 20
203.947248
 30
0.0
  0
SEQEND
  5
1FA
100
AcDbEntity
  8
0
390
0
  0
POLYLINE
  5
1FB
100
AcDbEntity
  8
1
390
0
  6
Continuous
 62
    11
100
AcDb2dPolyline
 66
     1
 10
0.0
 20
0.0
 30
0.0
 40
3.0
 41
3.0
  0
VERTEX
  5
1FC
100
AcDbEntity
  8
1
390
0
 62
    11
100
AcDbVertex
100
AcDb2dVertex
 10
102.650025
 20
187.947248
 30
0.0
  0
VERTEX
  5
1FD
100
AcDbEntity
  8
1
390
0
 62
    11
100
AcDbVertex
100
AcDb2dVertex
 10
101.750025
 20
192.447248
 30
0.0
  0
VERTEX
  5
1FE
100
AcDbEntity
  8
1
390
0
 62
    11
100
AcDbVertex
100
AcDb2dVertex
 10
100.850025
 20
187.947248
 30
0.0
  0
SEQEND
  5
1FF
100
AcDbEntity
  8
0
390
0
  0
ENDBLK
  5
200
100
AcDbEntity
  8
0
390
0
100
AcDbBlockEnd
  0
BLOCK
  5
209
100
AcDbEntity
  8
0
390
0
100
AcDbBlockBegin
  2
AID635
 70
     0
 10
0.0
 20
0.0
 30
0.0
  3
D_GROUP
  1

  0
MTEXT
  5
20A
100
AcDbEntity
  8
1
390
0
 62
     2
100
AcDbMText
 10
107.889766
 20
174.983819
 30
0.0
 40
6.0
 41
5.672727
 71
     7
 72
     1
  1
8
210
0.0
220
0.0
230
1.0
 73
     1
 44
1.0
  0
MTEXT
  5
20B
100
AcDbEntity
  8
1
390
0
 62
     2
100
AcDbMText
 10
114.053402
 20
173.783819
 30
0.0
 40
4.2
 41
4.2
 71
     7
 72
     1
  1
 0
210
0.0
220
0.0
230
1.0
 73
     1
 44
1.0
  0
MTEXT
  5
20C
100
AcDbEntity
  8
1
390
0
 62
     2
100
AcDbMText
 10
114.053402
 20
178.671092
 30
0.0
 40
4.2
 41
20.770909
 71
     7
 72
     1
  1
+0.02
210
0.0
220
0.0
230
1.0
 73
     1
 44
1.0
  0
LINE
  5
20D
100
AcDbEntity
  8
1
390
0
  6
Continuous
 62
    11
100
AcDbLine
 10
107.617038
 20
172.622001
 30
0.0
 11
138.872493
 21
172.622001
 31
0.0
  0
LINE
  5
20E
100
AcDbEntity
  8
1
390
0
  6
Continuous
 62
    11
100
AcDbLine
 10
130.872493
 20
192.147248
 30
0.0
 11
130.872493
 21
170.822001
 31
0.0
  0
LINE
  5
20F
100
AcDbEntity
  8
1
390
0
  6
Continuous
 62
    11
100
AcDbLine
 10
138.872493
 20
190.647248
 30
0.0
 11
138.872493
 21
170.822001
 31
0.0
  0
POLYLINE
  5
210
100
AcDbEntity
  8
1
390
0
  6
Continuous
 62
    11
100
AcDb2dPolyline
 66
     1
 10
0.0
 20
0.0
 30
0.0
 40
3.0
 41
3.0
  0
VERTEX
  5
211
100
AcDbEntity
  8
1
390
0
 62
    11
100
AcDbVertex
100
AcDb2dVertex
 10
126.372493
 20
171.722001
 30
0.0
  0
VERTEX
  5
212
100
AcDbEntity
  8
1
390
0
 62
    11
100
AcDbVertex
100
AcDb2dVertex
 10
130.872493
 20
172.622001
 30
0.0
  0
VERTEX
  5
213
100
AcDbEntity
  8
1
390
0
 62
    11
100
AcDbVertex
100
AcDb2dVertex
 10
126.372493
 20
173.522001
 30
0.0
  0
SEQEND
  5
214
100
AcDbEntity
  8
0
390
0
  0
HATCH
  5
215
100
AcDbEntity
  8
1
390
0
 62
    11
100
AcDbHatch
 10
139.9974930209053
 20
172.62200121946714
 30
0.0
210
0.0
220
0.0
230
1.0
  2
SOLID
 70
     1
 71
     1
 91
        1
 92
        1
 93
       72
 72
     1
 10
139.9974930209053
 20
172.62200121946714
 11
139.99321205625853
 21
172.72005143005825
 72
     1
 10
139.99321205625853
 20
172.72005143005825
 11
139.98040174304404
 21
172.81735541934242
 72
     1
 10
139.98040174304404
 20
172.81735541934242
 11
139.95915957548053
 21
172.91317264520748
 72
     1
 10
139.95915957548053
 20
172.91317264520748
 11
139.92964721928951
 21
173.00677388070855
 72
     1
 10
139.92964721928951
 20
173.00677388070855
 11
139.89208928132155
 21
173.0974467639254
 72
     1
 10
139.89208928132155
 20
173.0974467639254
 11
139.84677160016281
 21
173.18450121946714
 72
     1
 10
139.84677160016281
 20
173.18450121946714
 11
139.79403907073043
 21
173.26727471036207
 72
     1
 10
139.79403907073043
 20
173.26727471036207
 11
139.73429301941417
 21
173.3451372803645
 72
     1
 10
139.73429301941417
 20
173.3451372803645
 11
139.66798814974018
 21
173.417496348302
 72
     1
 10
139.66798814974018
 20
173.417496348302
 11
139.59562908180268
 21
173.48380121797598
 72
     1
 10
139.59562908180268
 20
173.48380121797598
 11
139.51776651180026
 21
173.54354726929225
 72
     1
 10
139.51776651180026
 20
173.54354726929225
 11
139.43499302090535
 21
173.59627979872462
 72
     1
 10
139.43499302090535
 20
173.59627979872462
 11
139.34793856536359
 21
173.64159747988336
 72
     1
 10
139.34793856536359
 20
173.64159747988336
 11
139.25726568214668
 21
173.67915541785129
 72
     1
 10
139.25726568214668
 20
173.67915541785129
 11
139.1636644466457
 21
173.70866777404234
 72
     1
 10
139.1636644466457
 20
173.70866777404234
 11
139.06784722078061
 21
173.72990994160585
 72
     1
 10
139.06784722078061
 20
173.72990994160585
 11
138.97054323149644
 21
173.74272025482034
 72
     1
 10
138.97054323149644
 20
173.74272025482034
 11
138.87249302090532
 21
173.74700121946714
 72
     1
 10
138.87249302090532
 20
173.74700121946714
 11
138.77444281031421
 21
173.74272025482034
 72
     1
 10
138.77444281031421
 20
173.74272025482034
 11
138.67713882103001
 21
173.72990994160585
 72
     1
 10
138.67713882103001
 20
173.72990994160585
 11
138.58132159516498
 21
173.70866777404234
 72
     1
 10
138.58132159516498
 20
173.70866777404234
 11
138.48772035966394
 21
173.67915541785129
 72
     1
 10
138.48772035966394
 20
173.67915541785129
 11
138.39704747644709
 21
173.64159747988336
 72
     1
 10
138.39704747644709
 20
173.64159747988336
 11
138.30999302090532
 21
173.59627979872462
 72
     1
 10
138.30999302090532
 20
173.59627979872462
 11
138.22721953001039
 21
173.54354726929225
 72
     1
 10
138.22721953001039
 20
173.54354726929225
 11
138.14935696000796
 21
173.48380121797598
 72
     1
 10
138.14935696000796
 20
173.48380121797598
 11
138.07699789207047
 21
173.417496348302
 72
     1
 10
138.07699789207047
 20
173.417496348302
 11
138.01069302239645
 21
173.3451372803645
 72
     1
 10
138.01069302239645
 20
173.3451372803645
 11
137.95094697108021
 21
173.26727471036207
 72
     1
 10
137.95094697108021
 20
173.26727471036207
 11
137.89821444164781
 21
173.18450121946714
 72
     1
 10
137.89821444164781
 20
173.18450121946714
 11
137.85289676048913
 21
173.0974467639254
 72
     1
 10
137.85289676048913
 20
173.0974467639254
 11
137.81533882252117
 21
173.00677388070855
 72
     1
 10
137.81533882252117
 20
173.00677388070855
 11
137.78582646633012
 21
172.91317264520748
 72
     1
 10
137.78582646633012
 20
172.91317264520748
 11
137.76458429876658
 21
172.81735541934242
 72
     1
 10
137.76458429876658
 20
172.81735541934242
 11
137.75177398555212
 21
172.72005143005825
 72
     1
 10
137.75177398555212
 20
172.72005143005825
 11
137.74749302090532
 21
172.62200121946714
 72
     1
 10
137.74749302090532
 20
172.62200121946714
 11
137.75177398555212
 21
172.52395100887603
 72
     1
 10
137.75177398555212
 20
172.52395100887603
 11
137.76458429876658
 21
172.42664701959185
 72
     1
 10
137.76458429876658
 20
172.42664701959185
 11
137.78582646633012
 21
172.33082979372679
 72
     1
 10
137.78582646633012
 20
172.33082979372679
 11
137.81533882252117
 21
172.23722855822575
 72
     1
 10
137.81533882252117
 20
172.23722855822575
 11
137.85289676048913
 21
172.14655567500887
 72
     1
 10
137.85289676048913
 20
172.14655567500887
 11
137.89821444164781
 21
172.05950121946714
 72
     1
 10
137.89821444164781
 20
172.05950121946714
 11
137.95094697108021
 21
171.9767277285722
 72
     1
 10
137.95094697108021
 20
171.9767277285722
 11
138.01069302239645
 21
171.89886515856978
 72
     1
 10
138.01069302239645
 20
171.89886515856978
 11
138.07699789207047
 21
171.82650609063228
 72
     1
 10
138.07699789207047
 20
171.82650609063228
 11
138.14935696000796
 21
171.76020122095832
 72
     1
 10
138.14935696000796
 20
171.76020122095832
 11
138.22721953001039
 21
171.70045516964203
 72
     1
 10
138.22721953001039
 20
171.70045516964203
 11
138.30999302090532
 21
171.64772264020968
 72
     1
 10
138.30999302090532
 20
171.64772264020968
 11
138.39704747644709
 21
171.60240495905092
 72
     1
 10
138.39704747644709
 20
171.60240495905092
 11
138.48772035966394
 21
171.56484702108298
 72
     1
 10
138.48772035966394
 20
171.56484702108298
 11
138.58132159516498
 21
171.53533466489193
 72
     1
 10
138.58132159516498
 20
171.53533466489193
 11
138.67713882103001
 21
171.51409249732845
 72
     1
 10
138.67713882103001
 20
171.51409249732845
 11
138.77444281031421
 21
171.50128218411393
 72
     1
 10
138.77444281031421
 20
171.50128218411393
 11
138.87249302090532
 21
171.49700121946714
 72
     1
 10
138.87249302090532
 20
171.49700121946714
 11
138.97054323149644
 21
171.50128218411393
 72
     1
 10
138.97054323149644
 20
171.50128218411393
 11
139.06784722078061
 21
171.51409249732845
 72
     1
 10
139.06784722078061
 20
171.51409249732845
 11
139.1636644466457
 21
171.53533466489193
 72
     1
 10
139.1636644466457
 20
171.53533466489193
 11
139.25726568214668
 21
171.56484702108298
 72
     1
 10
139.25726568214668
 20
171.56484702108298
 11
139.34793856536359
 21
171.60240495905092
 72
     1
 10
139.34793856536359
 20
171.60240495905092
 11
139.43499302090535
 21
171.64772264020968
 72
     1
 10
139.43499302090535
 20
171.64772264020968
 11
139.51776651180026
 21
171.70045516964203
 72
     1
 10
139.51776651180026
 20
171.70045516964203
 11
139.59562908180268
 21
171.76020122095832
 72
     1
 10
139.59562908180268
 20
171.76020122095832
 11
139.66798814974018
 21
171.82650609063228
 72
     1
 10
139.66798814974018
 20
171.82650609063228
 11
139.73429301941417
 21
171.89886515856978
 72
     1
 10
139.73429301941417
 20
171.89886515856978
 11
139.79403907073043
 21
171.9767277285722
 72
     1
 10
139.79403907073043
 20
171.9767277285722
 11
139.84677160016281
 21
172.05950121946714
 72
     1
 10
139.84677160016281
 20
172.05950121946714
 11
139.89208928132155
 21
172.14655567500887
 72
     1
 10
139.89208928132155
 20
172.14655567500887
 11
139.92964721928951
 21
172.23722855822575
 72
     1
 10
139.92964721928951
 20
172.23722855822575
 11
139.95915957548053
 21
172.33082979372679
 72
     1
 10
139.95915957548053
 20
172.33082979372679
 11
139.98040174304404
 21
172.42664701959185
 72
     1
 10
139.98040174304404
 20
172.42664701959185
 11
139.99321205625853
 21
172.52395100887603
 72
     1
 10
139.99321205625853
 20
172.52395100887603
 11
139.9974930209053
 21
172.62200121946714
 97
        0
 75
     0
 76
     1
 98
        1
 10
0.0
 20
0.0
  0
ENDBLK
  5
216
100
AcDbEntity
  8
0
390
0
100
AcDbBlockEnd
  0
BLOCK
  5
219
100
AcDbEntity
  8
0
390
0
100
AcDbBlockBegin
  2
AID652
 70
     0
 10
0.0
 20
0.0
 30
0.0
  3
D_GROUP
  1

  0
MTEXT
  5
21A
100
AcDbEntity
  8
1
390
0
 62
     2
100
AcDbMText
 10
149.817948
 20
173.794728
 30
0.0
 40
6.0
 41
5.563636
 71
     7
 72
     1
  1
5
210
0.0
220
0.0
230
1.0
 73
     1
 44
1.0
  0
LINE
  5
21B
100
AcDbEntity
  8
1
390
0
  6
Continuous
 62
    11
100
AcDbLine
 10
138.872493
 20
172.622001
 30
0.0
 11
153.554311
 21
172.622001
 31
0.0
  0
LINE
  5
21C
100
AcDbEntity
  8
1
390
0
  6
Continuous
 62
    11
100
AcDbLine
 10
138.872493
 20
190.647248
 30
0.0
 11
138.872493
 21
170.822001
 31
0.0
  0
LINE
  5
21D
100
AcDbEntity
  8
1
390
0
  6
Continuous
 62
    11
100
AcDbLine
 10
143.872493
 20
190.647248
 30
0.0
 11
143.872493
 21
170.822001
 31
0.0
  0
HATCH
  5
21E
100
AcDbEntity
  8
1
390
0
 62
    11
100
AcDbHatch
 10
137.74749302090532
 20
172.62200121946714
 30
0.0
210
0.0
220
0.0
230
1.0
  2
SOLID
 70
     1
 71
     1
 91
        1
 92
        1
 93
       72
 72
     1
 10
137.74749302090532
 20
172.62200121946714
 11
137.75177398555212
 21
172.52395100887603
 72
     1
 10
137.75177398555212
 20
172.52395100887603
 11
137.76458429876658
 21
172.42664701959185
 72
     1
 10
137.76458429876658
 20
172.42664701959185
 11
137.78582646633012
 21
172.33082979372679
 72
     1
 10
137.78582646633012
 20
172.33082979372679
 11
137.81533882252117
 21
172.23722855822575
 72
     1
 10
137.81533882252117
 20
172.23722855822575
 11
137.85289676048913
 21
172.14655567500887
 72
     1
 10
137.85289676048913
 20
172.14655567500887
 11
137.89821444164781
 21
172.05950121946714
 72
     1
 10
137.89821444164781
 20
172.05950121946714
 11
137.95094697108021
 21
171.9767277285722
 72
     1
 10
137.95094697108021
 20
171.9767277285722
 11
138.01069302239645
 21
171.89886515856978
 72
     1
 10
138.01069302239645
 20
171.89886515856978
 11
138.07699789207047
 21
171.82650609063228
 72
     1
 10
138.07699789207047
 20
171.82650609063228
 11
138.14935696000796
 21
171.76020122095832
 72
     1
 10
138.14935696000796
 20
171.76020122095832
 11
138.22721953001039
 21
171.70045516964203
 72
     1
 10
138.22721953001039
 20
171.70045516964203
 11
138.30999302090532
 21
171.64772264020968
 72
     1
 10
138.30999302090532
 20
171.64772264020968
 11
138.39704747644709
 21
171.60240495905092
 72
     1
 10
138.39704747644709
 20
171.60240495905092
 11
138.48772035966394
 21
171.56484702108298
 72
     1
 10
138.48772035966394
 20
171.56484702108298
 11
138.58132159516498
 21
171.53533466489193
 72
     1
 10
138.58132159516498
 20
171.53533466489193
 11
138.67713882103001
 21
171.51409249732845
 72
     1
 10
138.67713882103001
 20
171.51409249732845
 11
138.77444281031421
 21
171.50128218411393
 72
     1
 10
138.77444281031421
 20
171.50128218411393
 11
138.87249302090532
 21
171.49700121946714
 72
     1
 10
138.87249302090532
 20
171.49700121946714
 11
138.97054323149644
 21
171.50128218411393
 72
     1
 10
138.97054323149644
 20
171.50128218411393
 11
139.06784722078061
 21
171.51409249732845
 72
     1
 10
139.06784722078061
 20
171.51409249732845
 11
139.1636644466457
 21
171.53533466489193
 72
     1
 10
139.1636644466457
 20
171.53533466489193
 11
139.25726568214668
 21
171.56484702108298
 72
     1
 10
139.25726568214668
 20
171.56484702108298
 11
139.34793856536359
 21
171.60240495905092
 72
     1
 10
139.34793856536359
 20
171.60240495905092
 11
139.43499302090535
 21
171.64772264020968
 72
     1
 10
139.43499302090535
 20
171.64772264020968
 11
139.51776651180026
 21
171.70045516964203
 72
     1
 10
139.51776651180026
 20
171.70045516964203
 11
139.59562908180268
 21
171.76020122095832
 72
     1
 10
139.59562908180268
 20
171.76020122095832
 11
139.66798814974018
 21
171.82650609063228
 72
     1
 10
139.66798814974018
 20
171.82650609063228
 11
139.73429301941417
 21
171.89886515856978
 72
     1
 10
139.73429301941417
 20
171.89886515856978
 11
139.79403907073043
 21
171.9767277285722
 72
     1
 10
139.79403907073043
 20
171.9767277285722
 11
139.84677160016281
 21
172.05950121946714
 72
     1
 10
139.84677160016281
 20
172.05950121946714
 11
139.89208928132155
 21
172.14655567500887
 72
     1
 10
139.89208928132155
 20
172.14655567500887
 11
139.92964721928951
 21
172.23722855822575
 72
     1
 10
139.92964721928951
 20
172.23722855822575
 11
139.95915957548053
 21
172.33082979372679
 72
     1
 10
139.95915957548053
 20
172.33082979372679
 11
139.98040174304404
 21
172.42664701959185
 72
     1
 10
139.98040174304404
 20
172.42664701959185
 11
139.99321205625853
 21
172.52395100887603
 72
     1
 10
139.99321205625853
 20
172.52395100887603
 11
139.9974930209053
 21
172.62200121946714
 72
     1
 10
139.9974930209053
 20
172.62200121946714
 11
139.99321205625853
 21
172.72005143005825
 72
     1
 10
139.99321205625853
 20
172.72005143005825
 11
139.98040174304404
 21
172.81735541934242
 72
     1
 10
139.98040174304404
 20
172.81735541934242
 11
139.95915957548053
 21
172.91317264520748
 72
     1
 10
139.95915957548053
 20
172.91317264520748
 11
139.92964721928951
 21
173.00677388070855
 72
     1
 10
139.92964721928951
 20
173.00677388070855
 11
139.89208928132155
 21
173.0974467639254
 72
     1
 10
139.89208928132155
 20
173.0974467639254
 11
139.84677160016281
 21
173.18450121946714
 72
     1
 10
139.84677160016281
 20
173.18450121946714
 11
139.79403907073043
 21
173.26727471036207
 72
     1
 10
139.79403907073043
 20
173.26727471036207
 11
139.73429301941417
 21
173.3451372803645
 72
     1
 10
139.73429301941417
 20
173.3451372803645
 11
139.66798814974018
 21
173.417496348302
 72
     1
 10
139.66798814974018
 20
173.417496348302
 11
139.59562908180268
 21
173.48380121797598
 72
     1
 10
139.59562908180268
 20
173.48380121797598
 11
139.51776651180026
 21
173.54354726929225
 72
     1
 10
139.51776651180026
 20
173.54354726929225
 11
139.43499302090535
 21
173.59627979872462
 72
     1
 10
139.43499302090535
 20
173.59627979872462
 11
139.34793856536359
 21
173.64159747988336
 72
     1
 10
139.34793856536359
 20
173.64159747988336
 11
139.25726568214668
 21
173.67915541785129
 72
     1
 10
139.25726568214668
 20
173.67915541785129
 11
139.1636644466457
 21
173.70866777404234
 72
     1
 10
139.1636644466457
 20
173.70866777404234
 11
139.06784722078061
 21
173.72990994160585
 72
     1
 10
139.06784722078061
 20
173.72990994160585
 11
138.97054323149644
 21
173.74272025482034
 72
     1
 10
138.97054323149644
 20
173.74272025482034
 11
138.87249302090532
 21
173.74700121946714
 72
     1
 10
138.87249302090532
 20
173.74700121946714
 11
138.77444281031421
 21
173.74272025482034
 72
     1
 10
138.77444281031421
 20
173.74272025482034
 11
138.67713882103001
 21
173.72990994160585
 72
     1
 10
138.67713882103001
 20
173.72990994160585
 11
138.58132159516498
 21
173.70866777404234
 72
     1
 10
138.58132159516498
 20
173.70866777404234
 11
138.48772035966394
 21
173.67915541785129
 72
     1
 10
138.48772035966394
 20
173.67915541785129
 11
138.39704747644709
 21
173.64159747988336
 72
     1
 10
138.39704747644709
 20
173.64159747988336
 11
138.30999302090532
 21
173.59627979872462
 72
     1
 10
138.30999302090532
 20
173.59627979872462
 11
138.22721953001039
 21
173.54354726929225
 72
     1
 10
138.22721953001039
 20
173.54354726929225
 11
138.14935696000796
 21
173.48380121797598
 72
     1
 10
138.14935696000796
 20
173.48380121797598
 11
138.07699789207047
 21
173.417496348302
 72
     1
 10
138.07699789207047
 20
173.417496348302
 11
138.01069302239645
 21
173.3451372803645
 72
     1
 10
138.01069302239645
 20
173.3451372803645
 11
137.95094697108021
 21
173.26727471036207
 72
     1
 10
137.95094697108021
 20
173.26727471036207
 11
137.89821444164781
 21
173.18450121946714
 72
     1
 10
137.89821444164781
 20
173.18450121946714
 11
137.85289676048913
 21
173.0974467639254
 72
     1
 10
137.85289676048913
 20
173.0974467639254
 11
137.81533882252117
 21
173.00677388070855
 72
     1
 10
137.81533882252117
 20
173.00677388070855
 11
137.78582646633012
 21
172.91317264520748
 72
     1
 10
137.78582646633012
 20
172.91317264520748
 11
137.76458429876658
 21
172.81735541934242
 72
     1
 10
137.76458429876658
 20
172.81735541934242
 11
137.75177398555212
 21
172.72005143005825
 72
     1
 10
137.75177398555212
 20
172.72005143005825
 11
137.74749302090532
 21
172.62200121946714
 97
        0
 75
     0
 76
     1
 98
        1
 10
0.0
 20
0.0
  0
POLYLINE
  5
21F
100
AcDbEntity
  8
1
390
0
  6
Continuous
 62
    11
100
AcDb2dPolyline
 66
     1
 10
0.0
 20
0.0
 30
0.0
 40
3.0
 41
3.0
  0
VERTEX
  5
220
100
AcDbEntity
  8
1
390
0
 62
    11
100
AcDbVertex
100
AcDb2dVertex
 10
148.372493
 20
173.522001
 30
0.0
  0
VERTEX
  5
221
100
AcDbEntity
  8
1
390
0
 62
    11
100
AcDbVertex
100
AcDb2dVertex
 10
143.872493
 20
172.622001
 30
0.0
  0
VERTEX
  5
222
100
AcDbEntity
  8
1
390
0
 62
    11
100
AcDbVertex
100
AcDb2dVertex
 10
148.372493
 20
171.722001
 30
0.0
  0
SEQEND
  5
223
100
AcDbEntity
  8
0
390
0
  0
ENDBLK
  5
224
100
AcDbEntity
  8
0
390
0
100
AcDbBlockEnd
  0
BLOCK
  5
227
100
AcDbEntity
  8
0
390
0
100
AcDbBlockBegin
  2
AID665
 70
     0
 10
0.0
 20
0.0
 30
0.0
  3
D_GROUP
  1

  0
MTEXT
  5
228
100
AcDbEntity
  8
1
390
0
 62
     2
100
AcDbMText
 10
162.817948
 20
183.834907
 30
0.0
 40
6.0
 41
5.563636
 71
     7
 72
     1
  1
5
210
0.0
220
0.0
230
1.0
 73
     1
 44
1.0
  0
LINE
  5
229
100
AcDbEntity
  8
1
390
0
  6
Continuous
 62
    11
100
AcDbLine
 10
166.554311
 20
182.66218
 30
0.0
 11
142.872493
 21
182.66218
 31
0.0
  0
LINE
  5
22A
100
AcDbEntity
  8
1
390
0
  6
Continuous
 62
    11
100
AcDbLine
 10
156.872493
 20
191.897248
 30
0.0
 11
156.872493
 21
180.86218
 31
0.0
  0
LINE
  5
22B
100
AcDbEntity
  8
1
390
0
  6
Continuous
 62
    11
100
AcDbLine
 10
151.872493
 20
191.647248
 30
0.0
 11
151.872493
 21
180.86218
 31
0.0
  0
POLYLINE
  5
22C
100
AcDbEntity
  8
1
390
0
  6
Continuous
 62
    11
100
AcDb2dPolyline
 66
     1
 10
0.0
 20
0.0
 30
0.0
 40
3.0
 41
3.0
  0
VERTEX
  5
22D
100
AcDbEntity
  8
1
390
0
 62
    11
100
AcDbVertex
100
AcDb2dVertex
 10
161.372493
 20
183.56218
 30
0.0
  0
VERTEX
  5
22E
100
AcDbEntity
  8
1
390
0
 62
    11
100
AcDbVertex
100
AcDb2dVertex
 10
156.872493
 20
182.66218
 30
0.0
  0
VERTEX
  5
22F
100
AcDbEntity
  8
1
390
0
 62
    11
100
AcDbVertex
100
AcDb2dVertex
 10
161.372493
 20
181.76218
 30
0.0
  0
SEQEND
  5
230
100
AcDbEntity
  8
0
390
0
  0
POLYLINE
  5
231
100
AcDbEntity
  8
1
390
0
  6
Continuous
 62
    11
100
AcDb2dPolyline
 66
     1
 10
0.0
 20
0.0
 30
0.0
 40
3.0
 41
3.0
  0
VERTEX
  5
232
100
AcDbEntity
  8
1
390
0
 62
    11
100
AcDbVertex
100
AcDb2dVertex
 10
147.372493
 20
181.76218
 30
0.0
  0
VERTEX
  5
233
100
AcDbEntity
  8
1
390
0
 62
    11
100
AcDbVertex
100
AcDb2dVertex
 10
151.872493
 20
182.66218
 30
0.0
  0
VERTEX
  5
234
100
AcDbEntity
  8
1
390
0
 62
    11
100
AcDbVertex
100
AcDb2dVertex
 10
147.372493
 20
183.56218
 30
0.0
  0
SEQEND
  5
235
100
AcDbEntity
  8
0
390
0
  0
ENDBLK
  5
236
100
AcDbEntity
  8
0
390
0
100
AcDbBlockEnd
  0
BLOCK
  5
239
100
AcDbEntity
  8
0
390
0
100
AcDbBlockBegin
  2
AID678
 70
     0
 10
0.0
 20
0.0
 30
0.0
  3
D_GROUP
  1

  0
MTEXT
  5
23A
100
AcDbEntity
  8
1
390
0
 62
     2
100
AcDbMText
 10
140.39522
 20
163.238417
 30
0.0
 40
6.0
 41
12.490909
 71
     7
 72
     1
  1
26
210
0.0
220
0.0
230
1.0
 73
     1
 44
1.0
  0
LINE
  5
23B
100
AcDbEntity
  8
1
390
0
  6
Continuous
 62
    11
100
AcDbLine
 10
156.872493
 20
162.06569
 30
0.0
 11
130.872493
 21
162.06569
 31
0.0
  0
LINE
  5
23C
100
AcDbEntity
  8
1
390
0
  6
Continuous
 62
    11
100
AcDbLine
 10
156.872493
 20
191.897248
 30
0.0
 11
156.872493
 21
160.26569
 31
0.0
  0
LINE
  5
23D
100
AcDbEntity
  8
1
390
0
  6
Continuous
 62
    11
100
AcDbLine
 10
130.872493
 20
192.147248
 30
0.0
 11
130.872493
 21
160.26569
 31
0.0
  0
POLYLINE
  5
23E
100
AcDbEntity
  8
1
390
0
  6
Continuous
 62
    11
100
AcDb2dPolyline
 66
     1
 10
0.0
 20
0.0
 30
0.0
 40
3.0
 41
3.0
  0
VERTEX
  5
23F
100
AcDbEntity
  8
1
390
0
 62
    11
100
AcDbVertex
100
AcDb2dVertex
 10
152.372493
 20
162.96569
 30
0.0
  0
VERTEX
  5
240
100
AcDbEntity
  8
1
390
0
 62
    11
100
AcDbVertex
100
AcDb2dVertex
 10
156.872493
 20
162.06569
 30
0.0
  0
VERTEX
  5
241
100
AcDbEntity
  8
1
390
0
 62
    11
100
AcDbVertex
100
AcDb2dVertex
 10
152.372493
 20
161.16569
 30
0.0
  0
SEQEND
  5
242
100
AcDbEntity
  8
0
390
0
  0
POLYLINE
  5
243
100
AcDbEntity
  8
1
390
0
  6
Continuous
 62
    11
100
AcDb2dPolyline
 66
     1
 10
0.0
 20
0.0
 30
0.0
 40
3.0
 41
3.0
  0
VERTEX
  5
244
100
AcDbEntity
  8
1
390
0
 62
    11
100
AcDbVertex
100
AcDb2dVertex
 10
135.372493
 20
161.16569
 30
0.0
  0
VERTEX
  5
245
100
AcDbEntity
  8
1
390
0
 62
    11
100
AcDbVertex
100
AcDb2dVertex
 10
130.872493
 20
162.06569
 30
0.0
  0
VERTEX
  5
246
100
AcDbEntity
  8
1
390
0
 62
    11
100
AcDbVertex
100
AcDb2dVertex
 10
135.372493
 20
162.96569
 30
0.0
  0
SEQEND
  5
247
100
AcDbEntity
  8
0
390
0
  0
ENDBLK
  5
248
100
AcDbEntity
  8
0
390
0
100
AcDbBlockEnd
  0
BLOCK
  5
24B
100
AcDbEntity
  8
0
390
0
100
AcDbBlockBegin
  2
AID691
 70
     0
 10
0.0
 20
0.0
 30
0.0
  3
D_GROUP
  1

  0
MTEXT
  5
24C
100
AcDbEntity
  8
1
390
0
 62
     2
100
AcDbMText
 10
183.493322
 20
202.856339
 30
0.0
 40
6.0
 41
9.490909
 71
     7
 72
     1
  1
Φ
210
0.0
220
0.0
230
1.0
 11
0.0
 21
1.0
 31
0.0
 73
     1
 44
1.0
  0
MTEXT
  5
24D
100
AcDbEntity
  8
1
390
0
 62
     2
100
AcDbMText
 10
183.493322
 20
208.801794
 30
0.0
 40
6.0
 41
15.654545
 71
     7
 72
     1
  1
3.4
210
0.0
220
0.0
230
1.0
 11
0.0
 21
1.0
 31
0.0
 73
     1
 44
1.0
  0
LINE
  5
24E
100
AcDbEntity
  8
1
390
0
  6
Continuous
 62
    11
100
AcDbLine
 10
184.666049
 20
185.247248
 30
0.0
 11
184.666049
 21
217.583612
 31
0.0
  0
POLYLINE
  5
24F
100
AcDbEntity
  8
1
390
0
  6
Continuous
 62
    11
100
AcDb2dPolyline
 66
     1
 10
0.0
 20
0.0
 30
0.0
 40
3.0
 41
3.0
  0
VERTEX
  5
250
100
AcDbEntity
  8
1
390
0
 62
    11
100
AcDbVertex
100
AcDb2dVertex
 10
185.566049
 20
189.747248
 30
0.0
  0
VERTEX
  5
251
100
AcDbEntity
  8
1
390
0
 62
    11
100
AcDbVertex
100
AcDb2dVertex
 10
184.666049
 20
194.247248
 30
0.0
  0
VERTEX
  5
252
100
AcDbEntity
  8
1
390
0
 62
    11
100
AcDbVertex
100
AcDb2dVertex
 10
183.766049
 20
189.747248
 30
0.0
  0
SEQEND
  5
253
100
AcDbEntity
  8
0
390
0
  0
POLYLINE
  5
254
100
AcDbEntity
  8
1
390
0
  6
Continuous
 62
    11
100
AcDb2dPolyline
 66
     1
 10
0.0
 20
0.0
 30
0.0
 40
3.0
 41
3.0
  0
VERTEX
  5
255
100
AcDbEntity
  8
1
390
0
 62
    11
100
AcDbVertex
100
AcDb2dVertex
 10
183.766049
 20
202.147248
 30
0.0
  0
VERTEX
  5
256
100
AcDbEntity
  8
1
390
0
 62
    11
100
AcDbVertex
100
AcDb2dVertex
 10
184.666049
 20
197.647248
 30
0.0
  0
VERTEX
  5
257
100
AcDbEntity
  8
1
390
0
 62
    11
100
AcDbVertex
100
AcDb2dVertex
 10
185.566049
 20
202.147248
 30
0.0
  0
SEQEND
  5
258
100
AcDbEntity
  8
0
390
0
  0
ENDBLK
  5
259
100
AcDbEntity
  8
0
390
0
100
AcDbBlockEnd
  0
BLOCK
  5
25C
100
AcDbEntity
  8
0
390
0
100
AcDbBlockBegin
  2
AID702
 70
     0
 10
0.0
 20
0.0
 30
0.0
  3
D_GROUP
  1

  0
MTEXT
  5
25D
100
AcDbEntity
  8
1
390
0
 62
     2
100
AcDbMText
 10
211.352326
 20
163.238417
 30
0.0
 40
6.0
 41
25.963636
 71
     7
 72
     1
  1
1500
210
0.0
220
0.0
230
1.0
 73
     1
 44
1.0
  0
LINE
  5
25E
100
AcDbEntity
  8
1
390
0
  6
Continuous
 62
    11
100
AcDbLine
 10
156.872493
 20
162.06569
 30
0.0
 11
280.286705
 21
162.06569
 31
0.0
  0
LINE
  5
25F
100
AcDbEntity
  8
1
390
0
  6
Continuous
 62
    11
100
AcDbLine
 10
156.872493
 20
191.897248
 30
0.0
 11
156.872493
 21
160.26569
 31
0.0
  0
LINE
  5
260
100
AcDbEntity
  8
1
390
0
  6
Continuous
 62
    11
100
AcDbLine
 10
280.286705
 20
191.347248
 30
0.0
 11
280.286705
 21
160.26569
 31
0.0
  0
POLYLINE
  5
261
100
AcDbEntity
  8
1
390
0
  6
Continuous
 62
    11
100
AcDb2dPolyline
 66
     1
 10
0.0
 20
0.0
 30
0.0
 40
3.0
 41
3.0
  0
VERTEX
  5
262
100
AcDbEntity
  8
1
390
0
 62
    11
100
AcDbVertex
100
AcDb2dVertex
 10
161.372493
 20
161.16569
 30
0.0
  0
VERTEX
  5
263
100
AcDbEntity
  8
1
390
0
 62
    11
100
AcDbVertex
100
AcDb2dVertex
 10
156.872493
 20
162.06569
 30
0.0
  0
VERTEX
  5
264
100
AcDbEntity
  8
1
390
0
 62
    11
100
AcDbVertex
100
AcDb2dVertex
 10
161.372493
 20
162.96569
 30
0.0
  0
SEQEND
  5
265
100
AcDbEntity
  8
0
390
0
  0
POLYLINE
  5
266
100
AcDbEntity
  8
1
390
0
  6
Continuous
 62
    11
100
AcDb2dPolyline
 66
     1
 10
0.0
 20
0.0
 30
0.0
 40
3.0
 41
3.0
  0
VERTEX
  5
267
100
AcDbEntity
  8
1
390
0
 62
    11
100
AcDbVertex
100
AcDb2dVertex
 10
275.786705
 20
162.96569
 30
0.0
  0
VERTEX
  5
268
100
AcDbEntity
  8
1
390
0
 62
    11
100
AcDbVertex
100
AcDb2dVertex
 10
280.286705
 20
162.06569
 30
0.0
  0
VERTEX
  5
269
100
AcDbEntity
  8
1
390
0
 62
    11
100
AcDbVertex
100
AcDb2dVertex
 10
275.786705
 20
161.16569
 30
0.0
  0
SEQEND
  5
26A
100
AcDbEntity
  8
0
390
0
  0
ENDBLK
  5
26B
100
AcDbEntity
  8
0
390
0
100
AcDbBlockEnd
  0
BLOCK
  5
26E
100
AcDbEntity
  8
0
390
0
100
AcDbBlockBegin
  2
AID715
 70
     0
 10
0.0
 20
0.0
 30
0.0
  3
D_GROUP
  1

  0
MTEXT
  5
26F
100
AcDbEntity
  8
1
390
0
 62
     2
100
AcDbMText
 10
269.104886
 20
183.834907
 30
0.0
 40
6.0
 41
11.781818
 71
     7
 72
     1
  1
15
210
0.0
220
0.0
230
1.0
 73
     1
 44
1.0
  0
LINE
  5
270
100
AcDbEntity
  8
1
390
0
  6
Continuous
 62
    11
100
AcDbLine
 10
280.286705
 20
182.66218
 30
0.0
 11
265.286705
 21
182.66218
 31
0.0
  0
LINE
  5
271
100
AcDbEntity
  8
1
390
0
  6
Continuous
 62
    11
100
AcDbLine
 10
280.286705
 20
191.347248
 30
0.0
 11
280.286705
 21
180.86218
 31
0.0
  0
LINE
  5
272
100
AcDbEntity
  8
1
390
0
  6
Continuous
 62
    11
100
AcDbLine
 10
265.286705
 20
189.372314
 30
0.0
 11
265.286705
 21
180.86218
 31
0.0
  0
POLYLINE
  5
273
100
AcDbEntity
  8
1
390
0
  6
Continuous
 62
    11
100
AcDb2dPolyline
 66
     1
 10
0.0
 20
0.0
 30
0.0
 40
3.0
 41
3.0
  0
VERTEX
  5
274
100
AcDbEntity
  8
1
390
0
 62
    11
100
AcDbVertex
100
AcDb2dVertex
 10
275.786705
 20
183.56218
 30
0.0
  0
VERTEX
  5
275
100
AcDbEntity
  8
1
390
0
 62
    11
100
AcDbVertex
100
AcDb2dVertex
 10
280.286705
 20
182.66218
 30
0.0
  0
VERTEX
  5
276
100
AcDbEntity
  8
1
390
0
 62
    11
100
AcDbVertex
100
AcDb2dVertex
 10
275.786705
 20
181.76218
 30
0.0
  0
SEQEND
  5
277
100
AcDbEntity
  8
0
390
0
  0
POLYLINE
  5
278
100
AcDbEntity
  8
1
390
0
  6
Continuous
 62
    11
100
AcDb2dPolyline
 66
     1
 10
0.0
 20
0.0
 30
0.0
 40
3.0
 41
3.0
  0
VERTEX
  5
279
100
AcDbEntity
  8
1
390
0
 62
    11
100
AcDbVertex
100
AcDb2dVertex
 10
269.786705
 20
181.76218
 30
0.0
  0
VERTEX
  5
27A
100
AcDbEntity
  8
1
390
0
 62
    11
100
AcDbVertex
100
AcDb2dVertex
 10
265.286705
 20
182.66218
 30
0.0
  0
VERTEX
  5
27B
100
AcDbEntity
  8
1
390
0
 62
    11
100
AcDbVertex
100
AcDb2dVertex
 10
269.786705
 20
183.56218
 30
0.0
  0
SEQEND
  5
27C
100
AcDbEntity
  8
0
390
0
  0
ENDBLK
  5
27D
100
AcDbEntity
  8
0
390
0
100
AcDbBlockEnd
  0
BLOCK
  5
280
100
AcDbEntity
  8
0
390
0
100
AcDbBlockBegin
  2
AID728
 70
     0
 10
0.0
 20
0.0
 30
0.0
  3
D_GROUP
  1

  0
MTEXT
  5
281
100
AcDbEntity
  8
1
390
0
 62
     2
100
AcDbMText
 10
259.295796
 20
173.794728
 30
0.0
 40
6.0
 41
12.545455
 71
     7
 72
     1
  1
35
210
0.0
220
0.0
230
1.0
 73
     1
 44
1.0
  0
LINE
  5
282
100
AcDbEntity
  8
1
390
0
  6
Continuous
 62
    11
100
AcDbLine
 10
280.286705
 20
172.622001
 30
0.0
 11
245.286705
 21
172.622001
 31
0.0
  0
LINE
  5
283
100
AcDbEntity
  8
1
390
0
  6
Continuous
 62
    11
100
AcDbLine
 10
280.286705
 20
191.347248
 30
0.0
 11
280.286705
 21
170.822001
 31
0.0
  0
LINE
  5
284
100
AcDbEntity
  8
1
390
0
  6
Continuous
 62
    11
100
AcDbLine
 10
245.286705
 20
191.994375
 30
0.0
 11
245.286705
 21
170.822001
 31
0.0
  0
POLYLINE
  5
285
100
AcDbEntity
  8
1
390
0
  6
Continuous
 62
    11
100
AcDb2dPolyline
 66
     1
 10
0.0
 20
0.0
 30
0.0
 40
3.0
 41
3.0
  0
VERTEX
  5
286
100
AcDbEntity
  8
1
390
0
 62
    11
100
AcDbVertex
100
AcDb2dVertex
 10
275.786705
 20
173.522001
 30
0.0
  0
VERTEX
  5
287
100
AcDbEntity
  8
1
390
0
 62
    11
100
AcDbVertex
100
AcDb2dVertex
 10
280.286705
 20
172.622001
 30
0.0
  0
VERTEX
  5
288
100
AcDbEntity
  8
1
390
0
 62
    11
100
AcDbVertex
100
AcDb2dVertex
 10
275.786705
 20
171.722001
 30
0.0
  0
SEQEND
  5
289
100
AcDbEntity
  8
0
390
0
  0
POLYLINE
  5
28A
100
AcDbEntity
  8
1
390
0
  6
Continuous
 62
    11
100
AcDb2dPolyline
 66
     1
 10
0.0
 20
0.0
 30
0.0
 40
3.0
 41
3.0
  0
VERTEX
  5
28B
100
AcDbEntity
  8
1
390
0
 62
    11
100
AcDbVertex
100
AcDb2dVertex
 10
249.786705
 20
171.722001
 30
0.0
  0
VERTEX
  5
28C
100
AcDbEntity
  8
1
390
0
 62
    11
100
AcDbVertex
100
AcDb2dVertex
 10
245.286705
 20
172.622001
 30
0.0
  0
VERTEX
  5
28D
100
AcDbEntity
  8
1
390
0
 62
    11
100
AcDbVertex
100
AcDb2dVertex
 10
249.786705
 20
173.522001
 30
0.0
  0
SEQEND
  5
28E
100
AcDbEntity
  8
0
390
0
  0
ENDBLK
  5
28F
100
AcDbEntity
  8
0
390
0
100
AcDbBlockEnd
  0
BLOCK
  5
294
100
AcDbEntity
  8
0
390
0
100
AcDbBlockBegin
  2
AID745
 70
     0
 10
0.0
 20
0.0
 30
0.0
  3
D_GROUP
  1

  0
MTEXT
  5
295
100
AcDbEntity
  8
1
390
0
 62
     2
100
AcDbMText
 10
146.020598
 20
203.656339
 30
0.0
 40
6.0
 41
9.490909
 71
     7
 72
     1
  1
Φ
210
0.0
220
0.0
230
1.0
 11
0.0
 21
1.0
 31
0.0
 73
     1
 44
1.0
  0
MTEXT
  5
296
100
AcDbEntity
  8
1
390
0
 62
     2
100
AcDbMText
 10
146.020598
 20
209.601794
 30
0.0
 40
6.0
 41
5.563636
 71
     7
 72
     1
  1
5
210
0.0
220
0.0
230
1.0
 11
0.0
 21
1.0
 31
0.0
 73
     1
 44
1.0
  0
MTEXT
  5
297
100
AcDbEntity
  8
1
390
0
 62
     2
100
AcDbMText
 10
147.220598
 20
215.738157
 30
0.0
 40
4.2
 41
14.547273
 71
     7
 72
     1
  1
-0.1
210
0.0
220
0.0
230
1.0
 11
0.0
 21
1.0
 31
0.0
 73
     1
 44
1.0
  0
MTEXT
  5
298
100
AcDbEntity
  8
1
390
0
 62
     2
100
AcDbMText
 10
142.333326
 20
215.738157
 30
0.0
 40
4.2
 41
4.2
 71
     7
 72
     1
  1
 0
210
0.0
220
0.0
230
1.0
 11
0.0
 21
1.0
 31
0.0
 73
     1
 44
1.0
  0
LINE
  5
299
100
AcDbEntity
  8
1
390
0
  6
Continuous
 62
    11
100
AcDbLine
 10
148.382417
 20
184.447248
 30
0.0
 11
148.382417
 21
223.74543
 31
0.0
  0
POLYLINE
  5
29A
100
AcDbEntity
  8
1
390
0
  6
Continuous
 62
    11
100
AcDb2dPolyline
 66
     1
 10
0.0
 20
0.0
 30
0.0
 40
3.0
 41
3.0
  0
VERTEX
  5
29B
100
AcDbEntity
  8
1
390
0
 62
    11
100
AcDbVertex
100
AcDb2dVertex
 10
149.282417
 20
188.947248
 30
0.0
  0
VERTEX
  5
29C
100
AcDbEntity
  8
1
390
0
 62
    11
100
AcDbVertex
100
AcDb2dVertex
 10
148.382417
 20
193.447248
 30
0.0
  0
VERTEX
  5
29D
100
AcDbEntity
  8
1
390
0
 62
    11
100
AcDbVertex
100
AcDb2dVertex
 10
147.482417
 20
188.947248
 30
0.0
  0
SEQEND
  5
29E
100
AcDbEntity
  8
0
390
0
  0
POLYLINE
  5
29F
100
AcDbEntity
  8
1
390
0
  6
Continuous
 62
    11
100
AcDb2dPolyline
 66
     1
 10
0.0
 20
0.0
 30
0.0
 40
3.0
 41
3.0
  0
VERTEX
  5
2A0
100
AcDbEntity
  8
1
390
0
 62
    11
100
AcDbVertex
100
AcDb2dVertex
 10
147.482417
 20
202.947248
 30
0.0
  0
VERTEX
  5
2A1
100
AcDbEntity
  8
1
390
0
 62
    11
100
AcDbVertex
100
AcDb2dVertex
 10
148.382417
 20
198.447248
 30
0.0
  0
VERTEX
  5
2A2
100
AcDbEntity
  8
1
390
0
 62
    11
100
AcDbVertex
100
AcDb2dVertex
 10
149.282417
 20
202.947248
 30
0.0
  0
SEQEND
  5
2A3
100
AcDbEntity
  8
0
390
0
  0
ENDBLK
  5
2A4
100
AcDbEntity
  8
0
390
0
100
AcDbBlockEnd
  0
BLOCK
  5
2A7
100
AcDbEntity
  8
0
390
0
100
AcDbBlockBegin
  2
AID760
 70
     0
 10
0.0
 20
0.0
 30
0.0
  3
D_GROUP
  1

  0
MTEXT
  5
2A8
100
AcDbEntity
  8
1
390
0
 62
     2
100
AcDbMText
 10
291.31434
 20
204.992703
 30
0.0
 40
6.0
 41
12.872727
 71
     7
 72
     1
  1
2-
210
0.0
220
0.0
230
1.0
 11
0.0
 21
1.0
 31
0.0
 73
     1
 44
1.0
  0
MTEXT
  5
2A9
100
AcDbEntity
  8
1
390
0
 62
     2
100
AcDbMText
 10
291.31434
 20
212.983612
 30
0.0
 40
6.0
 41
9.490909
 71
     7
 72
     1
  1
Φ
210
0.0
220
0.0
230
1.0
 11
0.0
 21
1.0
 31
0.0
 73
     1
 44
1.0
  0
MTEXT
  5
2AA
100
AcDbEntity
  8
1
390
0
 62
     2
100
AcDbMText
 10
291.31434
 20
218.929067
 30
0.0
 40
6.0
 41
15.381818
 71
     7
 72
     1
  1
2.2
210
0.0
220
0.0
230
1.0
 11
0.0
 21
1.0
 31
0.0
 73
     1
 44
1.0
  0
MTEXT
  5
2AB
100
AcDbEntity
  8
1
390
0
 62
     2
100
AcDbMText
 10
292.51434
 20
229.974521
 30
0.0
 40
4.2
 41
20.770909
 71
     7
 72
     1
  1
-0.03
210
0.0
220
0.0
230
1.0
 11
0.0
 21
1.0
 31
0.0
 73
     1
 44
1.0
  0
MTEXT
  5
2AC
100
AcDbEntity
  8
1
390
0
 62
     2
100
AcDbMText
 10
287.627067
 20
229.974521
 30
0.0
 40
4.2
 41
4.2
 71
     7
 72
     1
  1
 0
210
0.0
220
0.0
230
1.0
 11
0.0
 21
1.0
 31
0.0
 73
     1
 44
1.0
  0
LINE
  5
2AD
100
AcDbEntity
  8
1
390
0
  6
Continuous
 62
    11
100
AcDbLine
 10
293.695249
 20
241.093612
 30
0.0
 11
293.695249
 21
187.847248
 31
0.0
  0
LINE
  5
2AE
100
AcDbEntity
  8
1
390
0
  6
Continuous
 62
    11
100
AcDbLine
 10
281.786705
 20
199.047248
 30
0.0
 11
295.495249
 21
199.047248
 31
0.0
  0
LINE
  5
2AF
100
AcDbEntity
  8
1
390
0
  6
Continuous
 62
    11
100
AcDbLine
 10
281.786705
 20
196.847248
 30
0.0
 11
295.495249
 21
196.847248
 31
0.0
  0
POLYLINE
  5
2B0
100
AcDbEntity
  8
1
390
0
  6
Continuous
 62
    11
100
AcDb2dPolyline
 66
     1
 10
0.0
 20
0.0
 30
0.0
 40
3.0
 41
3.0
  0
VERTEX
  5
2B1
100
AcDbEntity
  8
1
390
0
 62
    11
100
AcDbVertex
100
AcDb2dVertex
 10
292.795249
 20
203.547248
 30
0.0
  0
VERTEX
  5
2B2
100
AcDbEntity
  8
1
390
0
 62
    11
100
AcDbVertex
100
AcDb2dVertex
 10
293.695249
 20
199.047248
 30
0.0
  0
VERTEX
  5
2B3
100
AcDbEntity
  8
1
390
0
 62
    11
100
AcDbVertex
100
AcDb2dVertex
 10
294.595249
 20
203.547248
 30
0.0
  0
SEQEND
  5
2B4
100
AcDbEntity
  8
0
390
0
  0
POLYLINE
  5
2B5
100
AcDbEntity
  8
1
390
0
  6
Continuous
 62
    11
100
AcDb2dPolyline
 66
     1
 10
0.0
 20
0.0
 30
0.0
 40
3.0
 41
3.0
  0
VERTEX
  5
2B6
100
AcDbEntity
  8
1
390
0
 62
    11
100
AcDbVertex
100
AcDb2dVertex
 10
294.595249
 20
192.347248
 30
0.0
  0
VERTEX
  5
2B7
100
AcDbEntity
  8
1
390
0
 62
    11
100
AcDbVertex
100
AcDb2dVertex
 10
293.695249
 20
196.847248
 30
0.0
  0
VERTEX
  5
2B8
100
AcDbEntity
  8
1
390
0
 62
    11
100
AcDbVertex
100
AcDb2dVertex
 10
292.795249
 20
192.347248
 30
0.0
  0
SEQEND
  5
2B9
100
AcDbEntity
  8
0
390
0
  0
ENDBLK
  5
2BA
100
AcDbEntity
  8
0
390
0
100
AcDbBlockEnd
  0
BLOCK
  5
2BD
100
AcDbEntity
  8
0
390
0
100
AcDbBlockBegin
  2
AID781
 70
     0
 10
0.0
 20
0.0
 30
0.0
  3
D_GROUP
  1

  0
MTEXT
  5
2BE
100
AcDbEntity
  8
1
390
0
 62
     2
100
AcDbMText
 10
65.227715
 20
215.627646
 30
0.0
 40
6.0
 41
5.563636
 71
     7
 72
     1
  1
5
210
0.0
220
0.0
230
1.0
 73
     1
 44
1.0
  0
LINE
  5
2BF
100
AcDbEntity
  8
1
390
0
  6
Continuous
 62
    11
100
AcDbLine
 10
68.964079
 20
214.454919
 30
0.0
 11
45.28226
 21
214.454919
 31
0.0
  0
LINE
  5
2C0
100
AcDbEntity
  8
1
390
0
  6
Continuous
 62
    11
100
AcDbLine
 10
59.28226
 20
202.646228
 30
0.0
 11
59.28226
 21
216.254919
 31
0.0
  0
LINE
  5
2C1
100
AcDbEntity
  8
1
390
0
  6
Continuous
 62
    11
100
AcDbLine
 10
54.28226
 20
202.646228
 30
0.0
 11
54.28226
 21
216.254919
 31
0.0
  0
POLYLINE
  5
2C2
100
AcDbEntity
  8
1
390
0
  6
Continuous
 62
    11
100
AcDb2dPolyline
 66
     1
 10
0.0
 20
0.0
 30
0.0
 40
3.0
 41
3.0
  0
VERTEX
  5
2C3
100
AcDbEntity
  8
1
390
0
 62
    11
100
AcDbVertex
100
AcDb2dVertex
 10
63.78226
 20
215.354919
 30
0.0
  0
VERTEX
  5
2C4
100
AcDbEntity
  8
1
390
0
 62
    11
100
AcDbVertex
100
AcDb2dVertex
 10
59.28226
 20
214.454919
 30
0.0
  0
VERTEX
  5
2C5
100
AcDbEntity
  8
1
390
0
 62
    11
100
AcDbVertex
100
AcDb2dVertex
 10
63.78226
 20
213.554919
 30
0.0
  0
SEQEND
  5
2C6
100
AcDbEntity
  8
0
390
0
  0
POLYLINE
  5
2C7
100
AcDbEntity
  8
1
390
0
  6
Continuous
 62
    11
100
AcDb2dPolyline
 66
     1
 10
0.0
 20
0.0
 30
0.0
 40
3.0
 41
3.0
  0
VERTEX
  5
2C8
100
AcDbEntity
  8
1
390
0
 62
    11
100
AcDbVertex
100
AcDb2dVertex
 10
49.78226
 20
213.554919
 30
0.0
  0
VERTEX
  5
2C9
100
AcDbEntity
  8
1
390
0
 62
    11
100
AcDbVertex
100
AcDb2dVertex
 10
54.28226
 20
214.454919
 30
0.0
  0
VERTEX
  5
2CA
100
AcDbEntity
  8
1
390
0
 62
    11
100
AcDbVertex
100
AcDb2dVertex
 10
49.78226
 20
215.354919
 30
0.0
  0
SEQEND
  5
2CB
100
AcDbEntity
  8
0
390
0
  0
ENDBLK
  5
2CC
100
AcDbEntity
  8
0
390
0
100
AcDbBlockEnd
  0
BLOCK
  5
2CF
100
AcDbEntity
  8
0
390
0
100
AcDbBlockBegin
  2
AID794
 70
     0
 10
0.0
 20
0.0
 30
0.0
  3
D_GROUP
  1

  0
MTEXT
  5
2D0
100
AcDbEntity
  8
1
390
0
 62
     2
100
AcDbMText
 10
39.306526
 20
206.510885
 30
0.0
 40
6.0
 41
12.0
 71
     7
 72
     1
  1
10
210
0.0
220
0.0
230
1.0
 11
0.0
 21
1.0
 31
0.0
 73
     1
 44
1.0
  0
LINE
  5
2D1
100
AcDbEntity
  8
1
390
0
  6
Continuous
 62
    11
100
AcDbLine
 10
40.451981
 20
213.847248
 30
0.0
 11
40.451981
 21
181.947248
 31
0.0
  0
LINE
  5
2D2
100
AcDbEntity
  8
1
390
0
  6
Continuous
 62
    11
100
AcDbLine
 10
52.98226
 20
200.947248
 30
0.0
 11
38.651981
 21
200.947248
 31
0.0
  0
LINE
  5
2D3
100
AcDbEntity
  8
1
390
0
  6
Continuous
 62
    11
100
AcDbLine
 10
52.98226
 20
190.947248
 30
0.0
 11
38.651981
 21
190.947248
 31
0.0
  0
POLYLINE
  5
2D4
100
AcDbEntity
  8
1
390
0
  6
Continuous
 62
    11
100
AcDb2dPolyline
 66
     1
 10
0.0
 20
0.0
 30
0.0
 40
3.0
 41
3.0
  0
VERTEX
  5
2D5
100
AcDbEntity
  8
1
390
0
 62
    11
100
AcDbVertex
100
AcDb2dVertex
 10
39.551981
 20
205.447248
 30
0.0
  0
VERTEX
  5
2D6
100
AcDbEntity
  8
1
390
0
 62
    11
100
AcDbVertex
100
AcDb2dVertex
 10
40.451981
 20
200.947248
 30
0.0
  0
VERTEX
  5
2D7
100
AcDbEntity
  8
1
390
0
 62
    11
100
AcDbVertex
100
AcDb2dVertex
 10
41.351981
 20
205.447248
 30
0.0
  0
SEQEND
  5
2D8
100
AcDbEntity
  8
0
390
0
  0
POLYLINE
  5
2D9
100
AcDbEntity
  8
1
390
0
  6
Continuous
 62
    11
100
AcDb2dPolyline
 66
     1
 10
0.0
 20
0.0
 30
0.0
 40
3.0
 41
3.0
  0
VERTEX
  5
2DA
100
AcDbEntity
  8
1
390
0
 62
    11
100
AcDbVertex
100
AcDb2dVertex
 10
41.351981
 20
186.447248
 30
0.0
  0
VERTEX
  5
2DB
100
AcDbEntity
  8
1
390
0
 62
    11
100
AcDbVertex
100
AcDb2dVertex
 10
40.451981
 20
190.947248
 30
0.0
  0
VERTEX
  5
2DC
100
AcDbEntity
  8
1
390
0
 62
    11
100
AcDbVertex
100
AcDb2dVertex
 10
39.551981
 20
186.447248
 30
0.0
  0
SEQEND
  5
2DD
100
AcDbEntity
  8
0
390
0
  0
ENDBLK
  5
2DE
100
AcDbEntity
  8
0
390
0
100
AcDbBlockEnd
  0
BLOCK
  5
2E1
100
AcDbEntity
  8
0
390
0
100
AcDbBlockBegin
  2
AID807
 70
     0
 10
0.0
 20
0.0
 30
0.0
  3
D_GROUP
  1

  0
MTEXT
  5
2E2
100
AcDbEntity
  8
1
390
0
 62
     2
100
AcDbMText
 10
303.015066
 20
204.001794
 30
0.0
 40
6.0
 41
6.054545
 71
     7
 72
     1
  1
4
210
0.0
220
0.0
230
1.0
 11
0.0
 21
1.0
 31
0.0
 73
     1
 44
1.0
  0
LINE
  5
2E3
100
AcDbEntity
  8
1
390
0
  6
Continuous
 62
    11
100
AcDbLine
 10
304.133248
 20
207.874521
 30
0.0
 11
304.133248
 21
184.947248
 31
0.0
  0
LINE
  5
2E4
100
AcDbEntity
  8
1
390
0
  6
Continuous
 62
    11
100
AcDbLine
 10
282.786705
 20
197.947248
 30
0.0
 11
305.933248
 21
197.947248
 31
0.0
  0
LINE
  5
2E5
100
AcDbEntity
  8
1
390
0
  6
Continuous
 62
    11
100
AcDbLine
 10
282.786705
 20
193.947248
 30
0.0
 11
305.933248
 21
193.947248
 31
0.0
  0
POLYLINE
  5
2E6
100
AcDbEntity
  8
1
390
0
  6
Continuous
 62
    11
100
AcDb2dPolyline
 66
     1
 10
0.0
 20
0.0
 30
0.0
 40
3.0
 41
3.0
  0
VERTEX
  5
2E7
100
AcDbEntity
  8
1
390
0
 62
    11
100
AcDbVertex
100
AcDb2dVertex
 10
303.233248
 20
202.447248
 30
0.0
  0
VERTEX
  5
2E8
100
AcDbEntity
  8
1
390
0
 62
    11
100
AcDbVertex
100
AcDb2dVertex
 10
304.133248
 20
197.947248
 30
0.0
  0
VERTEX
  5
2E9
100
AcDbEntity
  8
1
390
0
 62
    11
100
AcDbVertex
100
AcDb2dVertex
 10
305.033248
 20
202.447248
 30
0.0
  0
SEQEND
  5
2EA
100
AcDbEntity
  8
0
390
0
  0
POLYLINE
  5
2EB
100
AcDbEntity
  8
1
390
0
  6
Continuous
 62
    11
100
AcDb2dPolyline
 66
     1
 10
0.0
 20
0.0
 30
0.0
 40
3.0
 41
3.0
  0
VERTEX
  5
2EC
100
AcDbEntity
  8
1
390
0
 62
    11
100
AcDbVertex
100
AcDb2dVertex
 10
305.033248
 20
189.447248
 30
0.0
  0
VERTEX
  5
2ED
100
AcDbEntity
  8
1
390
0
 62
    11
100
AcDbVertex
100
AcDb2dVertex
 10
304.133248
 20
193.947248
 30
0.0
  0
VERTEX
  5
2EE
100
AcDbEntity
  8
1
390
0
 62
    11
100
AcDbVertex
100
AcDb2dVertex
 10
303.233248
 20
189.447248
 30
0.0
  0
SEQEND
  5
2EF
100
AcDbEntity
  8
0
390
0
  0
ENDBLK
  5
2F0
100
AcDbEntity
  8
0
390
0
100
AcDbBlockEnd
  0
BLOCK
  5
2F3
100
AcDbEntity
  8
0
390
0
100
AcDbBlockBegin
  2
AID820
 70
     0
 10
0.0
 20
0.0
 30
0.0
  3
D_GROUP
  1

  0
MTEXT
  5
2F4
100
AcDbEntity
  8
1
390
0
 62
     7
100
AcDbMText
 10
177.328525
 20
224.076793
 30
0.0
 40
6.0
 41
86.072727
 71
     7
 72
     1
  1
M5XP0.5(細目)
210
0.0
220
0.0
230
1.0
 73
     1
 44
1.0
  0
LINE
  5
2F5
100
AcDbEntity
  8
1
390
0
  6
Continuous
 62
     2
100
AcDbLine
 10
177.819434
 20
222.476793
 30
0.0
 11
220.855798
 21
222.476793
 31
0.0
  0
POLYLINE
  5
2F6
100
AcDbEntity
  8
1
390
0
  6
Continuous
 62
     2
100
AcDb2dPolyline
 66
     1
 10
0.0
 20
0.0
 30
0.0
 40
3.0
 41
3.0
  0
VERTEX
  5
2F7
100
AcDbEntity
  8
1
390
0
 62
     2
100
AcDbVertex
100
AcDb2dVertex
 10
157.986308
 20
201.219767
 30
0.0
  0
VERTEX
  5
2F8
100
AcDbEntity
  8
1
390
0
 62
     2
100
AcDbVertex
100
AcDb2dVertex
 10
153.965968
 20
198.447248
 30
0.0
  0
VERTEX
  5
2F9
100
AcDbEntity
  8
1
390
0
 62
     2
100
AcDbVertex
100
AcDb2dVertex
 10
156.708844
 20
202.487871
 30
0.0
  0
SEQEND
  5
2FA
100
AcDbEntity
  8
0
390
0
  0
LINE
  5
2FB
100
AcDbEntity
  8
1
390
0
  6
Continuous
 62
    11
100
AcDbLine
 10
153.965968
 20
198.447248
 30
0.0
 11
177.819434
 21
222.476793
 31
0.0
  0
ENDBLK
  5
2FC
100
AcDbEntity
  8
0
390
0
100
AcDbBlockEnd
  0
BLOCK
  5
2FF
100
AcDbEntity
  8
0
390
0
100
AcDbBlockBegin
  2
AID829
 70
     0
 10
0.0
 20
0.0
 30
0.0
  3
D_GROUP
  1

  0
MTEXT
  5
300
100
AcDbEntity
  8
1
390
0
 62
     7
100
AcDbMText
 10
369.585862
 20
39.743207
 30
0.0
 40
4.0
 41
43.418182
 71
     7
 72
     1
  1
流速センサ
210
0.0
220
0.0
230
1.0
 73
     1
 44
1.0
  0
ENDBLK
  5
301
100
AcDbEntity
  8
0
390
0
100
AcDbBlockEnd
  0
BLOCK
  5
304
100
AcDbEntity
  8
0
390
0
100
AcDbBlockBegin
  2
AID832
 70
     0
 10
0.0
 20
0.0
 30
0.0
  3
D_GROUP
  1

  0
MTEXT
  5
305
100
AcDbEntity
  8
1
390
0
 62
     7
100
AcDbMText
 10
361.006941
 20
29.19942
 30
0.0
 40
4.0
 41
73.454545
 71
     7
 72
     1
  1
SMF04.0X08.0X026
210
0.0
220
0.0
230
1.0
 73
     1
 44
1.0
  0
ENDBLK
  5
306
100
AcDbEntity
  8
0
390
0
100
AcDbBlockEnd
  0
BLOCK
  5
309
100
AcDbEntity
  8
0
390
0
100
AcDbBlockBegin
  2
AID835
 70
     0
 10
0.0
 20
0.0
 30
0.0
  3
D_GROUP
  1

  0
MTEXT
  5
30A
100
AcDbEntity
  8
1
390
0
 62
     7
100
AcDbMText
 10
323.713474
 20
31.928916
 30
0.0
 40
5.0
 41
14.045455
 71
     7
 72
     1
  1
1：1
210
0.0
220
0.0
230
1.0
 73
     1
 44
1.0
  0
ENDBLK
  5
30B
100
AcDbEntity
  8
0
390
0
100
AcDbBlockEnd
  0
ENDSEC
  0
SECTION
  2
ENTITIES
  0
LINE
  5
28
100
AcDbEntity
  8
256
390
0
  6
Continuous
 62
     8
100
AcDbLine
 10
222.0
 20
34.5
 30
0.0
 11
271.0
 21
34.5
 31
0.0
  0
LINE
  5
29
100
AcDbEntity
  8
256
390
0
  6
Continuous
 62
     8
100
AcDbLine
 10
390.25
 20
277.0
 30
0.0
 11
390.25
 21
287.0
 31
0.0
  0
LINE
  5
2A
100
AcDbEntity
  8
256
390
0
  6
Continuous
 62
     8
100
AcDbLine
 10
229.511017
 20
262.368011
 30
0.0
 11
234.511017
 21
262.368011
 31
0.0
  0
LINE
  5
2B
100
AcDbEntity
  8
256
390
0
  6
Continuous
 62
     8
100
AcDbLine
 10
222.0
 20
38.0
 30
0.0
 11
271.0
 21
38.0
 31
0.0
  0
LINE
  5
2C
100
AcDbEntity
  8
256
390
0
  6
Continuous
 62
     8
100
AcDbLine
 10
237.0
 20
287.0
 30
0.0
 11
237.0
 21
257.0
 31
0.0
  0
LINE
  5
2D
100
AcDbEntity
  8
256
390
0
  6
Continuous
 62
     8
100
AcDbLine
 10
303.8
 20
48.0
 30
0.0
 11
303.8
 21
10.0
 31
0.0
  0
LINE
  5
2E
100
AcDbEntity
  8
256
390
0
  6
Continuous
 62
     8
100
AcDbLine
 10
385.25
 20
277.0
 30
0.0
 11
385.25
 21
287.0
 31
0.0
  0
LINE
  5
2F
100
AcDbEntity
  8
256
390
0
  6
Continuous
 62
     8
100
AcDbLine
 10
287.4
 20
31.0
 30
0.0
 11
287.4
 21
10.0
 31
0.0
  0
LINE
  5
30
100
AcDbEntity
  8
256
390
0
  6
Continuous
 62
     8
100
AcDbLine
 10
253.750031
 20
44.0
 30
0.0
 11
253.750031
 21
10.0
 31
0.0
  0
LINE
  5
31
100
AcDbEntity
  8
256
390
0
  6
Continuous
 62
     8
100
AcDbLine
 10
410.0
 20
10.0
 30
0.0
 11
410.0
 21
287.0
 31
0.0
  0
LINE
  5
32
100
AcDbEntity
  8
256
390
0
  6
Continuous
 62
     8
100
AcDbLine
 10
335.25
 20
15.666667
 30
0.0
 11
335.25
 21
48.0
 31
0.0
  0
LINE
  5
33
100
AcDbEntity
  8
256
390
0
  6
Continuous
 62
     8
100
AcDbLine
 10
410.0
 20
287.0
 30
0.0
 11
10.0
 21
287.0
 31
0.0
  0
LINE
  5
34
100
AcDbEntity
  8
256
390
0
  6
Continuous
 62
     8
100
AcDbLine
 10
362.0
 20
287.0
 30
0.0
 11
362.0
 21
257.0
 31
0.0
  0
LINE
  5
35
100
AcDbEntity
  8
256
390
0
  6
Continuous
 62
     8
100
AcDbLine
 10
410.0
 20
267.0
 30
0.0
 11
227.0
 21
267.0
 31
0.0
  0
LINE
  5
36
100
AcDbEntity
  8
256
390
0
  6
Continuous
 62
     8
100
AcDbLine
 10
410.0
 20
277.0
 30
0.0
 11
227.0
 21
277.0
 31
0.0
  0
LINE
  5
37
100
AcDbEntity
  8
256
390
0
  6
Continuous
 62
     8
100
AcDbLine
 10
271.0
 20
41.0
 30
0.0
 11
335.25
 21
41.0
 31
0.0
  0
LINE
  5
38
100
AcDbEntity
  8
256
390
0
  6
Continuous
 62
     8
100
AcDbLine
 10
222.0
 20
44.0
 30
0.0
 11
271.0
 21
44.0
 31
0.0
  0
LINE
  5
39
100
AcDbEntity
  8
256
390
0
  6
Continuous
 62
     8
100
AcDbLine
 10
232.011017
 20
261.664886
 30
0.0
 11
229.511017
 21
257.368011
 31
0.0
  0
LINE
  5
3A
100
AcDbEntity
  8
256
390
0
  6
Continuous
 62
     8
100
AcDbLine
 10
248.000031
 20
38.0
 30
0.0
 11
222.0
 21
44.0
 31
0.0
  0
LINE
  5
3B
100
AcDbEntity
  8
256
390
0
  6
Continuous
 62
     8
100
AcDbLine
 10
357.0
 20
262.0
 30
0.0
 11
227.0
 21
262.0
 31
0.0
  0
LINE
  5
3C
100
AcDbEntity
  8
256
390
0
  6
Continuous
 62
     8
100
AcDbLine
 10
222.0
 20
31.0
 30
0.0
 11
320.25
 21
31.0
 31
0.0
  0
LINE
  5
3D
100
AcDbEntity
  8
256
390
0
  6
Continuous
 62
     8
100
AcDbLine
 10
234.511017
 20
267.368011
 30
0.0
 11
232.011017
 21
271.664886
 31
0.0
  0
LINE
  5
3E
100
AcDbEntity
  8
256
390
0
  6
Continuous
 62
     8
100
AcDbLine
 10
385.25
 20
282.0
 30
0.0
 11
362.0
 21
282.0
 31
0.0
  0
LINE
  5
3F
100
AcDbEntity
  8
256
390
0
  6
Continuous
 62
     8
100
AcDbLine
 10
10.0
 20
10.0
 30
0.0
 11
410.0
 21
10.0
 31
0.0
  0
LINE
  5
40
100
AcDbEntity
  8
256
390
0
  6
Continuous
 62
     8
100
AcDbLine
 10
222.0
 20
48.0
 30
0.0
 11
410.0
 21
48.0
 31
0.0
  0
LINE
  5
41
100
AcDbEntity
  8
256
390
0
  6
Continuous
 62
     8
100
AcDbLine
 10
227.000031
 20
10.0
 30
0.0
 11
410.0
 21
10.0
 31
0.0
  0
LINE
  5
42
100
AcDbEntity
  8
256
390
0
  6
Continuous
 62
     8
100
AcDbLine
 10
342.0
 20
287.0
 30
0.0
 11
342.0
 21
257.0
 31
0.0
  0
LINE
  5
43
100
AcDbEntity
  8
256
390
0
  6
Continuous
 62
     8
100
AcDbLine
 10
222.0
 20
13.5
 30
0.0
 11
271.000031
 21
13.5
 31
0.0
  0
LINE
  5
44
100
AcDbEntity
  8
256
390
0
  6
Continuous
 62
     8
100
AcDbLine
 10
222.0
 20
20.5
 30
0.0
 11
271.0
 21
20.5
 31
0.0
  0
LINE
  5
45
100
AcDbEntity
  8
256
390
0
  6
Continuous
 62
     8
100
AcDbLine
 10
222.0
 20
27.5
 30
0.0
 11
271.0
 21
27.5
 31
0.0
  0
LINE
  5
46
100
AcDbEntity
  8
256
390
0
  6
Continuous
 62
     8
100
AcDbLine
 10
248.000031
 20
44.0
 30
0.0
 11
248.000031
 21
10.0
 31
0.0
  0
LINE
  5
47
100
AcDbEntity
  8
256
390
0
  6
Continuous
 62
     8
100
AcDbLine
 10
222.0
 20
48.0
 30
0.0
 11
222.0
 21
10.0
 31
0.0
  0
LINE
  5
48
100
AcDbEntity
  8
256
390
0
  6
Continuous
 62
     8
100
AcDbLine
 10
232.011017
 20
276.664886
 30
0.0
 11
229.511017
 21
272.368011
 31
0.0
  0
LINE
  5
49
100
AcDbEntity
  8
256
390
0
  6
Continuous
 62
     8
100
AcDbLine
 10
357.0
 20
282.0
 30
0.0
 11
227.0
 21
282.0
 31
0.0
  0
LINE
  5
4A
100
AcDbEntity
  8
256
390
0
  6
Continuous
 62
     8
100
AcDbLine
 10
229.511017
 20
267.368011
 30
0.0
 11
234.511017
 21
267.368011
 31
0.0
  0
LINE
  5
4B
100
AcDbEntity
  8
256
390
0
  6
Continuous
 62
     8
100
AcDbLine
 10
222.0
 20
24.0
 30
0.0
 11
271.0
 21
24.0
 31
0.0
  0
LINE
  5
4C
100
AcDbEntity
  8
256
390
0
  6
Continuous
 62
     8
100
AcDbLine
 10
232.011017
 20
281.664886
 30
0.0
 11
229.511017
 21
277.368011
 31
0.0
  0
LINE
  5
4D
100
AcDbEntity
  8
256
390
0
  6
Continuous
 62
     8
100
AcDbLine
 10
265.250031
 20
44.0
 30
0.0
 11
265.250031
 21
10.0
 31
0.0
  0
LINE
  5
4E
100
AcDbEntity
  8
256
390
0
  6
Continuous
 62
     8
100
AcDbLine
 10
229.511017
 20
277.368011
 30
0.0
 11
234.511017
 21
277.368011
 31
0.0
  0
LINE
  5
4F
100
AcDbEntity
  8
256
390
0
  6
Continuous
 62
     8
100
AcDbLine
 10
320.25
 20
10.0
 30
0.0
 11
320.25
 21
48.0
 31
0.0
  0
LINE
  5
50
100
AcDbEntity
  8
256
390
0
  6
Continuous
 62
     8
100
AcDbLine
 10
232.011017
 20
271.664886
 30
0.0
 11
229.511017
 21
267.368011
 31
0.0
  0
LINE
  5
51
100
AcDbEntity
  8
256
390
0
  6
Continuous
 62
     8
100
AcDbLine
 10
234.511017
 20
277.368011
 30
0.0
 11
232.011017
 21
281.664886
 31
0.0
  0
LINE
  5
52
100
AcDbEntity
  8
256
390
0
  6
Continuous
 62
     8
100
AcDbLine
 10
222.0
 20
17.0
 30
0.0
 11
271.0
 21
17.0
 31
0.0
  0
LINE
  5
53
100
AcDbEntity
  8
256
390
0
  6
Continuous
 62
     8
100
AcDbLine
 10
271.0
 20
48.0
 30
0.0
 11
271.0
 21
10.0
 31
0.0
  0
LINE
  5
54
100
AcDbEntity
  8
256
390
0
  6
Continuous
 62
     8
100
AcDbLine
 10
357.0
 20
287.0
 30
0.0
 11
357.0
 21
257.0
 31
0.0
  0
LINE
  5
55
100
AcDbEntity
  8
256
390
0
  6
Continuous
 62
     8
100
AcDbLine
 10
335.25
 20
35.0
 30
0.0
 11
410.0
 21
35.0
 31
0.0
  0
LINE
  5
56
100
AcDbEntity
  8
256
390
0
  6
Continuous
 62
     8
100
AcDbLine
 10
227.0
 20
287.0
 30
0.0
 11
227.0
 21
257.0
 31
0.0
  0
LINE
  5
57
100
AcDbEntity
  8
256
390
0
  6
Continuous
 62
     8
100
AcDbLine
 10
327.0
 20
287.0
 30
0.0
 11
327.0
 21
257.0
 31
0.0
  0
LINE
  5
58
100
AcDbEntity
  8
256
390
0
  6
Continuous
 62
     8
100
AcDbLine
 10
229.511017
 20
272.368011
 30
0.0
 11
234.511017
 21
272.368011
 31
0.0
  0
LINE
  5
59
100
AcDbEntity
  8
256
390
0
  6
Continuous
 62
     8
100
AcDbLine
 10
259.500031
 20
44.0
 30
0.0
 11
259.500031
 21
10.0
 31
0.0
  0
LINE
  5
5A
100
AcDbEntity
  8
256
390
0
  6
Continuous
 62
     8
100
AcDbLine
 10
320.25
 20
15.666667
 30
0.0
 11
410.0
 21
15.666667
 31
0.0
  0
LINE
  5
5B
100
AcDbEntity
  8
256
390
0
  6
Continuous
 62
     8
100
AcDbLine
 10
229.511017
 20
257.368011
 30
0.0
 11
234.511017
 21
257.368011
 31
0.0
  0
LINE
  5
5C
100
AcDbEntity
  8
256
390
0
  6
Continuous
 62
     8
100
AcDbLine
 10
232.011017
 20
266.664886
 30
0.0
 11
229.511017
 21
262.368011
 31
0.0
  0
LINE
  5
5D
100
AcDbEntity
  8
256
390
0
  6
Continuous
 62
     8
100
AcDbLine
 10
410.0
 20
257.0
 30
0.0
 11
227.0
 21
257.0
 31
0.0
  0
LINE
  5
5E
100
AcDbEntity
  8
256
390
0
  6
Continuous
 62
     8
100
AcDbLine
 10
234.511017
 20
257.368011
 30
0.0
 11
232.011017
 21
261.664886
 31
0.0
  0
LINE
  5
5F
100
AcDbEntity
  8
256
390
0
  6
Continuous
 62
     8
100
AcDbLine
 10
271.0
 20
26.5
 30
0.0
 11
410.0
 21
26.5
 31
0.0
  0
LINE
  5
60
100
AcDbEntity
  8
256
390
0
  6
Continuous
 62
     8
100
AcDbLine
 10
10.0
 20
10.0
 30
0.0
 11
10.0
 21
287.0
 31
0.0
  0
LINE
  5
61
100
AcDbEntity
  8
256
390
0
  6
Continuous
 62
     8
100
AcDbLine
 10
234.511017
 20
262.368011
 30
0.0
 11
232.011017
 21
266.664886
 31
0.0
  0
LINE
  5
62
100
AcDbEntity
  8
256
390
0
  6
Continuous
 62
     8
100
AcDbLine
 10
350.25
 20
15.666667
 30
0.0
 11
350.25
 21
48.0
 31
0.0
  0
LINE
  5
63
100
AcDbEntity
  8
256
390
0
  6
Continuous
 62
     8
100
AcDbLine
 10
307.164695
 20
32.573373
 30
0.0
 11
314.235801
 21
39.644442
 31
0.0
  0
LINE
  5
64
100
AcDbEntity
  8
256
390
0
  6
Continuous
 62
     8
100
AcDbLine
 10
357.0
 20
272.0
 30
0.0
 11
227.0
 21
272.0
 31
0.0
  0
LINE
  5
65
100
AcDbEntity
  8
256
390
0
  6
Continuous
 62
     8
100
AcDbLine
 10
234.511017
 20
272.368011
 30
0.0
 11
232.011017
 21
276.664886
 31
0.0
  0
MTEXT
  5
66
100
AcDbEntity
  8
256
390
0
 62
     8
100
AcDbMText
 10
262.375031
 20
28.244792
 30
0.0
 40
1.75
 41
4.55
 71
     8
 72
     1
  1
0.5  
210
0.0
220
0.0
230
1.0
 73
     1
 44
1.0
  0
MTEXT
  5
67
100
AcDbEntity
  8
256
390
0
 62
     8
100
AcDbMText
 10
250.875031
 20
21.244792
 30
0.0
 40
1.75
 41
4.55
 71
     8
 72
     1
  1
0.2  
210
0.0
220
0.0
230
1.0
 73
     1
 44
1.0
  0
MTEXT
  5
68
100
AcDbEntity
  8
256
390
0
 62
     8
100
AcDbMText
 10
250.875031
 20
28.244792
 30
0.0
 40
1.75
 41
3.993182
 71
     8
 72
     1
  1
0.1  
210
0.0
220
0.0
230
1.0
 73
     1
 44
1.0
  0
MTEXT
  5
69
100
AcDbEntity
  8
256
390
0
 62
     8
100
AcDbMText
 10
250.875031
 20
17.744792
 30
0.0
 40
1.75
 41
4.55
 71
     8
 72
     1
  1
0.3  
210
0.0
220
0.0
230
1.0
 73
     1
 44
1.0
  0
MTEXT
  5
6A
100
AcDbEntity
  8
256
390
0
 62
     8
100
AcDbMText
 10
287.02719
 20
42.856306
 30
0.0
 40
3.386667
 41
24.56873
 71
     8
 72
     1
  1
材    質  
210
0.0
220
0.0
230
0.9999999999999999
 73
     1
 44
1.0
  0
MTEXT
  5
6B
100
AcDbEntity
  8
256
390
0
 62
     8
100
AcDbMText
 10
256.625031
 20
35.244792
 30
0.0
 40
1.75
 41
3.993182
 71
     8
 72
     1
  1
0.1  
210
0.0
220
0.0
230
1.0
 73
     1
 44
1.0
  0
MTEXT
  5
6C
100
AcDbEntity
  8
256
390
0
 62
     8
100
AcDbMText
 10
268.125015
 20
14.244792
 30
0.0
 40
1.75
 41
1.590909
 71
     8
 72
     1
  1
6  
210
0.0
220
0.0
230
1.0
 73
     1
 44
1.0
  0
MTEXT
  5
6D
100
AcDbEntity
  8
256
390
0
 62
     8
100
AcDbMText
 10
268.125015
 20
21.244792
 30
0.0
 40
1.75
 41
4.486364
 71
     8
 72
     1
  1
2.5  
210
0.0
220
0.0
230
1.0
 73
     1
 44
1.0
  0
MTEXT
  5
6E
100
AcDbEntity
  8
256
390
0
 62
     8
100
AcDbMText
 10
312.52208
 20
42.980576
 30
0.0
 40
3.386667
 41
17.518305
 71
     8
 72
     1
  1
個 数  
210
0.0
220
0.0
230
0.9999999999999999
 73
     1
 44
1.0
  0
MTEXT
  5
6F
100
AcDbEntity
  8
256
390
0
 62
     8
100
AcDbMText
 10
360.130196
 20
257.742347
 30
0.0
 40
2.822222
 41
5.926666
 71
     8
 72
     1
  1
理  
210
0.0
220
0.0
230
1.0
 73
     1
 44
1.0
  0
MTEXT
  5
70
100
AcDbEntity
  8
256
390
0
 62
     8
100
AcDbMText
 10
257.063488
 20
41.133356
 30
0.0
 40
1.7952
 41
7.6704
 71
     8
 72
     1
  1
中級  
210
0.0
220
0.0
230
1.0
 73
     1
 44
1.0
  0
MTEXT
  5
71
100
AcDbEntity
  8
256
390
0
 62
     8
100
AcDbMText
 10
268.763424
 20
39.076539
 30
0.0
 40
2.0
 41
7.581818
 71
     8
 72
     1
  1
v %%p  
210
0.0
220
0.0
230
1.0
 73
     1
 44
1.0
  0
MTEXT
  5
72
100
AcDbEntity
  8
256
390
0
 62
     8
100
AcDbMText
 10
246.361108
 20
10.744792
 30
0.0
 40
1.75
 41
35.111364
 71
     9
 72
     1
  1
2000を超え4000以下  
210
0.0
220
0.0
230
1.0
 73
     1
 44
1.0
  0
MTEXT
  5
73
100
AcDbEntity
  8
256
390
0
 62
     8
100
AcDbMText
 10
315.229673
 20
32.880846
 30
0.0
 40
3.386667
 41
10.375516
 71
     8
 72
     1
  1
1台  
210
0.0
220
0.0
230
0.9999999999999999
 73
     1
 44
1.0
  0
MTEXT
  5
74
100
AcDbEntity
  8
256
390
0
 62
     8
100
AcDbMText
 10
246.383663
 20
21.244792
 30
0.0
 40
1.75
 41
32.056818
 71
     9
 72
     1
  1
 120を超え 400以下  
210
0.0
220
0.0
230
1.0
 73
     1
 44
1.0
  0
MTEXT
  5
75
100
AcDbEntity
  8
256
390
0
 62
     8
100
AcDbMText
 10
388.380196
 20
278.047566
 30
0.0
 40
3.386667
 41
6.958061
 71
     8
 72
     1
  1
取  
210
0.0
220
0.0
230
0.9999999999999999
 73
     1
 44
1.0
  0
MTEXT
  5
76
100
AcDbEntity
  8
256
390
0
 62
     8
100
AcDbMText
 10
388.380196
 20
282.575181
 30
0.0
 40
3.386667
 41
6.68097
 71
     8
 72
     1
  1
面  
210
0.0
220
0.0
230
0.9999999999999999
 73
     1
 44
1.0
  0
MTEXT
  5
77
100
AcDbEntity
  8
256
390
0
 62
     8
100
AcDbMText
 10
230.223858
 20
38.623908
 30
0.0
 40
1.5
 41
24.272727
 71
     8
 72
     1
  1
寸法の区分(mm)  
210
0.0
220
0.0
230
1.0
 73
     1
 44
1.0
  0
MTEXT
  5
78
100
AcDbEntity
  8
256
390
0
 62
     8
100
AcDbMText
 10
343.211504
 20
19.692223
 30
0.0
 40
3.386667
 41
16.902547
 71
     8
 72
     1
  1
図 番  
210
0.0
220
0.0
230
0.9999999999999999
 73
     1
 44
1.0
  0
MTEXT
  5
79
100
AcDbEntity
  8
256
390
0
 62
     8
100
AcDbMText
 10
262.375031
 20
31.744792
 30
0.0
 40
1.75
 41
4.55
 71
     8
 72
     1
  1
0.3  
210
0.0
220
0.0
230
1.0
 73
     1
 44
1.0
  0
MTEXT
  5
7A
100
AcDbEntity
  8
256
390
0
 62
     8
100
AcDbMText
 10
360.130196
 20
268.089407
 30
0.0
 40
3.386667
 41
7.112001
 71
     8
 72
     1
  1
理  
210
0.0
220
0.0
230
0.9999999999999999
 73
     1
 44
1.0
  0
MTEXT
  5
7B
100
AcDbEntity
  8
256
390
0
 62
     8
100
AcDbMText
 10
246.369552
 20
14.244792
 30
0.0
 40
1.75
 41
34.888636
 71
     9
 72
     1
  1
1000を超え2000以下  
210
0.0
220
0.0
230
1.0
 73
     1
 44
1.0
  0
MTEXT
  5
7C
100
AcDbEntity
  8
256
390
0
 62
     8
100
AcDbMText
 10
268.125015
 20
24.744792
 30
0.0
 40
1.75
 41
4.263636
 71
     8
 72
     1
  1
1.5  
210
0.0
220
0.0
230
1.0
 73
     1
 44
1.0
  0
MTEXT
  5
7D
100
AcDbEntity
  8
256
390
0
 62
     8
100
AcDbMText
 10
262.375031
 20
35.244792
 30
0.0
 40
1.75
 41
4.55
 71
     8
 72
     1
  1
0.2  
210
0.0
220
0.0
230
1.0
 73
     1
 44
1.0
  0
MTEXT
  5
7E
100
AcDbEntity
  8
256
390
0
 62
     8
100
AcDbMText
 10
351.983257
 20
283.013492
 30
0.0
 40
3.386667
 41
21.551517
 71
     8
 72
     1
  1
年月日     
210
0.0
220
0.0
230
0.9999999999999999
 73
     1
 44
1.0
  0
MTEXT
  5
7F
100
AcDbEntity
  8
256
390
0
 62
     8
100
AcDbMText
 10
250.875031
 20
31.744792
 30
0.0
 40
1.75
 41
6.586364
 71
     8
 72
     1
  1
0.05  
210
0.0
220
0.0
230
1.0
 73
     1
 44
1.0
  0
MTEXT
  5
80
100
AcDbEntity
  8
256
390
0
 62
     8
100
AcDbMText
 10
250.875031
 20
35.244792
 30
0.0
 40
1.75
 41
6.586364
 71
     8
 72
     1
  1
0.05  
210
0.0
220
0.0
230
1.0
 73
     1
 44
1.0
  0
MTEXT
  5
81
100
AcDbEntity
  8
256
390
0
 62
     8
100
AcDbMText
 10
262.375031
 20
10.744792
 30
0.0
 40
1.75
 41
1.765909
 71
     8
 72
     1
  1
4  
210
0.0
220
0.0
230
1.0
 73
     1
 44
1.0
  0
MTEXT
  5
82
100
AcDbEntity
  8
256
390
0
 62
     8
100
AcDbMText
 10
343.259623
 20
40.051182
 30
0.0
 40
3.386667
 41
17.210426
 71
     8
 72
     1
  1
名 称  
210
0.0
220
0.0
230
0.9999999999999999
 73
     1
 44
1.0
  0
MTEXT
  5
83
100
AcDbEntity
  8
256
390
0
 62
     8
100
AcDbMText
 10
280.042689
 20
27.073014
 30
0.0
 40
3.386667
 41
17.241214
 71
     8
 72
     1
  1
設 計  
210
0.0
220
0.0
230
0.9999999999999999
 73
     1
 44
1.0
  0
MTEXT
  5
84
100
AcDbEntity
  8
256
390
0
 62
     8
100
AcDbMText
 10
268.125015
 20
17.744792
 30
0.0
 40
1.75
 41
1.765909
 71
     8
 72
     1
  1
4  
210
0.0
220
0.0
230
1.0
 73
     1
 44
1.0
  0
MTEXT
  5
85
100
AcDbEntity
  8
256
390
0
 62
     8
100
AcDbMText
 10
256.625031
 20
28.244792
 30
0.0
 40
1.75
 41
4.55
 71
     8
 72
     1
  1
0.2  
210
0.0
220
0.0
230
1.0
 73
     1
 44
1.0
  0
MTEXT
  5
86
100
AcDbEntity
  8
256
390
0
 62
     8
100
AcDbMText
 10
246.368174
 20
17.744792
 30
0.0
 40
1.75
 41
33.138636
 71
     9
 72
     1
  1
 400を超え1000以下  
210
0.0
220
0.0
230
1.0
 73
     1
 44
1.0
  0
MTEXT
  5
87
100
AcDbEntity
  8
256
390
0
 62
     8
100
AcDbMText
 10
250.875031
 20
14.244792
 30
0.0
 40
1.75
 41
4.55
 71
     8
 72
     1
  1
0.5  
210
0.0
220
0.0
230
1.0
 73
     1
 44
1.0
  0
MTEXT
  5
88
100
AcDbEntity
  8
256
390
0
 62
     8
100
AcDbMText
 10
257.26344
 20
39.076539
 30
0.0
 40
2.0
 41
8.563636
 71
     8
 72
     1
  1
m %%p  
210
0.0
220
0.0
230
1.0
 73
     1
 44
1.0
  0
MTEXT
  5
89
100
AcDbEntity
  8
256
390
0
 62
     8
100
AcDbMText
 10
246.444454
 20
35.244792
 30
0.0
 40
1.75
 41
29.543182
 71
     9
 72
     1
  1
 0.5を超え   3以下  
210
0.0
220
0.0
230
1.0
 73
     1
 44
1.0
  0
MTEXT
  5
8A
100
AcDbEntity
  8
256
390
0
 62
     8
100
AcDbMText
 10
246.445896
 20
31.744792
 30
0.0
 40
1.75
 41
26.615909
 71
     9
 72
     1
  1
   3を超え   6以下  
210
0.0
220
0.0
230
1.0
 73
     1
 44
1.0
  0
MTEXT
  5
8B
100
AcDbEntity
  8
256
390
0
 62
     8
100
AcDbMText
 10
343.228244
 20
29.512776
 30
0.0
 40
2.54
 41
22.998545
 71
     8
 72
     1
  1
部品番号  
210
0.0
220
0.0
230
1.0
 73
     1
 44
1.0
  0
MTEXT
  5
8C
100
AcDbEntity
  8
256
390
0
 62
     8
100
AcDbMText
 10
251.19527
 20
41.133356
 30
0.0
 40
1.7952
 41
8.04576
 71
     8
 72
     1
  1
精級  
210
0.0
220
0.0
230
1.0
 73
     1
 44
1.0
  0
MTEXT
  5
8D
100
AcDbEntity
  8
256
390
0
 62
     8
100
AcDbMText
 10
246.399214
 20
24.744792
 30
0.0
 40
1.75
 41
30.243182
 71
     9
 72
     1
  1
  30を超え 120以下  
210
0.0
220
0.0
230
1.0
 73
     1
 44
1.0
  0
MTEXT
  5
8E
100
AcDbEntity
  8
256
390
0
 62
     8
100
AcDbMText
 10
262.375031
 20
24.744792
 30
0.0
 40
1.75
 41
4.565909
 71
     8
 72
     1
  1
0.8  
210
0.0
220
0.0
230
1.0
 73
     1
 44
1.0
  0
MTEXT
  5
8F
100
AcDbEntity
  8
256
390
0
 62
     8
100
AcDbMText
 10
242.4153
 20
40.925781
 30
0.0
 40
1.5
 41
13.636364
 71
     8
 72
     1
  1
公差等級  
210
0.0
220
0.0
230
1.0
 73
     1
 44
1.0
  0
MTEXT
  5
90
100
AcDbEntity
  8
256
390
0
 62
     8
100
AcDbMText
 10
246.430153
 20
28.244792
 30
0.0
 40
1.75
 41
27.395455
 71
     9
 72
     1
  1
   6を超え  30以下  
210
0.0
220
0.0
230
1.0
 73
     1
 44
1.0
  0
MTEXT
  5
91
100
AcDbEntity
  8
256
390
0
 62
     8
100
AcDbMText
 10
285.330511
 20
282.942152
 30
0.0
 40
3.386667
 41
59.482188
 71
     8
 72
     1
  1
訂    正    内    容  
210
0.0
220
0.0
230
0.9999999999999999
 73
     1
 44
1.0
  0
MTEXT
  5
92
100
AcDbEntity
  8
256
390
0
 62
     8
100
AcDbMText
 10
256.625031
 20
24.744792
 30
0.0
 40
1.75
 41
4.55
 71
     8
 72
     1
  1
0.3  
210
0.0
220
0.0
230
1.0
 73
     1
 44
1.0
  0
MTEXT
  5
93
100
AcDbEntity
  8
256
390
0
 62
     8
100
AcDbMText
 10
262.375031
 20
17.744792
 30
0.0
 40
1.75
 41
1.622727
 71
     8
 72
     1
  1
2  
210
0.0
220
0.0
230
1.0
 73
     1
 44
1.0
  0
MTEXT
  5
94
100
AcDbEntity
  8
256
390
0
 62
     8
100
AcDbMText
 10
262.375031
 20
14.244792
 30
0.0
 40
1.75
 41
1.622727
 71
     8
 72
     1
  1
3  
210
0.0
220
0.0
230
1.0
 73
     1
 44
1.0
  0
MTEXT
  5
95
100
AcDbEntity
  8
256
390
0
 62
     8
100
AcDbMText
 10
328.687321
 20
19.668163
 30
0.0
 40
3.386667
 41
22.536729
 71
     8
 72
     1
  1
三角法  
210
0.0
220
0.0
230
0.9999999999999999
 73
     1
 44
1.0
  0
MTEXT
  5
96
100
AcDbEntity
  8
256
390
0
 62
     8
100
AcDbMText
 10
365.92539
 20
11.0735
 30
0.0
 40
3.386667
 41
99.506434
 71
     8
 72
     1
  1
双 葉 電 子 工 業 株 式 会 社  
210
0.0
220
0.0
230
0.9999999999999999
 73
     1
 44
1.0
  0
MTEXT
  5
97
100
AcDbEntity
  8
256
390
0
 62
     8
100
AcDbMText
 10
256.625031
 20
17.744792
 30
0.0
 40
1.75
 41
4.565909
 71
     8
 72
     1
  1
0.8  
210
0.0
220
0.0
230
1.0
 73
     1
 44
1.0
  0
MTEXT
  5
98
100
AcDbEntity
  8
256
390
0
 62
     8
100
AcDbMText
 10
312.769883
 20
27.273035
 30
0.0
 40
3.386667
 41
17.518305
 71
     8
 72
     1
  1
承 認  
210
0.0
220
0.0
230
0.9999999999999999
 73
     1
 44
1.0
  0
MTEXT
  5
99
100
AcDbEntity
  8
256
390
0
 62
     8
100
AcDbMText
 10
268.125015
 20
28.244792
 30
0.0
 40
1.75
 41
0.843182
 71
     8
 72
     1
  1
1  
210
0.0
220
0.0
230
1.0
 73
     1
 44
1.0
  0
MTEXT
  5
9A
100
AcDbEntity
  8
256
390
0
 62
     8
100
AcDbMText
 10
247.07562
 20
45.235875
 30
0.0
 40
1.7
 41
74.846364
 71
     8
 72
     1
  1
削り加工寸法の普通許容差 JIS B 0405-1991  
210
0.0
220
0.0
230
1.0
 73
     1
 44
1.0
  0
MTEXT
  5
9B
100
AcDbEntity
  8
256
390
0
 62
     8
100
AcDbMText
 10
250.875031
 20
24.744792
 30
0.0
 40
1.75
 41
6.586364
 71
     8
 72
     1
  1
0.15  
210
0.0
220
0.0
230
1.0
 73
     1
 44
1.0
  0
MTEXT
  5
9C
100
AcDbEntity
  8
256
390
0
 62
     8
100
AcDbMText
 10
250.875031
 20
9.839584
 30
0.0
 40
2.54
 41
2.632364
 71
     8
 72
     1
  1
-  
210
0.0
220
0.0
230
1.0
 73
     1
 44
1.0
  0
MTEXT
  5
9D
100
AcDbEntity
  8
256
390
0
 62
     8
100
AcDbMText
 10
296.045235
 20
27.214792
 30
0.0
 40
3.386667
 41
17.025699
 71
     8
 72
     1
  1
検 図  
210
0.0
220
0.0
230
0.9999999999999999
 73
     1
 44
1.0
  0
MTEXT
  5
9E
100
AcDbEntity
  8
256
390
0
 62
     8
100
AcDbMText
 10
268.125015
 20
34.339584
 30
0.0
 40
2.54
 41
2.632364
 71
     8
 72
     1
  1
-  
210
0.0
220
0.0
230
1.0
 73
     1
 44
1.0
  0
MTEXT
  5
9F
100
AcDbEntity
  8
256
390
0
 62
     8
100
AcDbMText
 10
256.625031
 20
31.744792
 30
0.0
 40
1.75
 41
3.993182
 71
     8
 72
     1
  1
0.1  
210
0.0
220
0.0
230
1.0
 73
     1
 44
1.0
  0
MTEXT
  5
A0
100
AcDbEntity
  8
256
390
0
 62
     8
100
AcDbMText
 10
263.01344
 20
39.076539
 30
0.0
 40
2.0
 41
7.527273
 71
     8
 72
     1
  1
c %%p  
210
0.0
220
0.0
230
1.0
 73
     1
 44
1.0
  0
MTEXT
  5
A1
100
AcDbEntity
  8
256
390
0
 62
     8
100
AcDbMText
 10
360.130196
 20
278.047566
 30
0.0
 40
3.386667
 41
6.68097
 71
     8
 72
     1
  1
上  
210
0.0
220
0.0
230
0.9999999999999999
 73
     1
 44
1.0
  0
MTEXT
  5
A2
100
AcDbEntity
  8
256
390
0
 62
     8
100
AcDbMText
 10
232.748022
 20
282.92144
 30
0.0
 40
3.386667
 41
14.870547
 71
     8
 72
     1
  1
記号  
210
0.0
220
0.0
230
0.9999999999999999
 73
     1
 44
1.0
  0
MTEXT
  5
A3
100
AcDbEntity
  8
256
390
0
 62
     8
100
AcDbMText
 10
256.625031
 20
21.244792
 30
0.0
 40
1.75
 41
4.55
 71
     8
 72
     1
  1
0.5  
210
0.0
220
0.0
230
1.0
 73
     1
 44
1.0
  0
MTEXT
  5
A4
100
AcDbEntity
  8
256
390
0
 62
     8
100
AcDbMText
 10
256.625031
 20
10.744792
 30
0.0
 40
1.75
 41
1.622727
 71
     8
 72
     1
  1
2  
210
0.0
220
0.0
230
1.0
 73
     1
 44
1.0
  0
MTEXT
  5
A5
100
AcDbEntity
  8
256
390
0
 62
     8
100
AcDbMText
 10
262.375031
 20
21.244792
 30
0.0
 40
1.75
 41
4.263636
 71
     8
 72
     1
  1
1.2  
210
0.0
220
0.0
230
1.0
 73
     1
 44
1.0
  0
MTEXT
  5
A6
100
AcDbEntity
  8
256
390
0
 62
     8
100
AcDbMText
 10
360.130196
 20
282.575181
 30
0.0
 40
3.386667
 41
7.050425
 71
     8
 72
     1
  1
仕  
210
0.0
220
0.0
230
0.9999999999999999
 73
     1
 44
1.0
  0
MTEXT
  5
A7
100
AcDbEntity
  8
256
390
0
 62
     8
100
AcDbMText
 10
268.125015
 20
10.744792
 30
0.0
 40
1.75
 41
1.654545
 71
     8
 72
     1
  1
8  
210
0.0
220
0.0
230
1.0
 73
     1
 44
1.0
  0
MTEXT
  5
A8
100
AcDbEntity
  8
256
390
0
 62
     8
100
AcDbMText
 10
360.130196
 20
260.858133
 30
0.0
 40
2.822222
 41
5.875353
 71
     8
 72
     1
  1
処  
210
0.0
220
0.0
230
1.0
 73
     1
 44
1.0
  0
MTEXT
  5
A9
100
AcDbEntity
  8
256
390
0
 62
     8
100
AcDbMText
 10
336.870941
 20
283.013492
 30
0.0
 40
3.386667
 41
22.81382
 71
     8
 72
     1
  1
担当者     
210
0.0
220
0.0
230
0.9999999999999999
 73
     1
 44
1.0
  0
MTEXT
  5
AA
100
AcDbEntity
  8
256
390
0
 62
     8
100
AcDbMText
 10
251.577735
 20
39.076539
 30
0.0
 40
2.0
 41
6.836364
 71
     8
 72
     1
  1
f %%p  
210
0.0
220
0.0
230
1.0
 73
     1
 44
1.0
  0
MTEXT
  5
AB
100
AcDbEntity
  8
256
390
0
 62
     8
100
AcDbMText
 10
360.130196
 20
263.973919
 30
0.0
 40
2.822222
 41
5.952323
 71
     8
 72
     1
  1
熱  
210
0.0
220
0.0
230
1.0
 73
     1
 44
1.0
  0
MTEXT
  5
AC
100
AcDbEntity
  8
256
390
0
 62
     8
100
AcDbMText
 10
268.125015
 20
31.744792
 30
0.0
 40
1.75
 41
4.55
 71
     8
 72
     1
  1
0.5  
210
0.0
220
0.0
230
1.0
 73
     1
 44
1.0
  0
MTEXT
  5
AD
100
AcDbEntity
  8
256
390
0
 62
     8
100
AcDbMText
 10
328.494219
 20
43.012096
 30
0.0
 40
3.386667
 41
17.30279
 71
     8
 72
     1
  1
尺 度  
210
0.0
220
0.0
230
0.9999999999999999
 73
     1
 44
1.0
  0
MTEXT
  5
AE
100
AcDbEntity
  8
256
390
0
 62
     8
100
AcDbMText
 10
262.660189
 20
41.133356
 30
0.0
 40
1.7952
 41
7.9968
 71
     8
 72
     1
  1
粗級  
210
0.0
220
0.0
230
1.0
 73
     1
 44
1.0
  0
MTEXT
  5
AF
100
AcDbEntity
  8
256
390
0
 62
     8
100
AcDbMText
 10
225.086682
 20
40.357732
 30
0.0
 40
1.5
 41
6.640909
 71
     8
 72
     1
  1
基準  
210
0.0
220
0.0
230
1.0
 73
     1
 44
1.0
  0
MTEXT
  5
B0
100
AcDbEntity
  8
256
390
0
 62
     8
100
AcDbMText
 10
268.384088
 20
41.201556
 30
0.0
 40
1.584
 41
10.8
 71
     8
 72
     1
  1
極粗級  
210
0.0
220
0.0
230
1.0
 73
     1
 44
1.0
  0
MTEXT
  5
B1
100
AcDbEntity
  8
256
390
0
 62
     8
100
AcDbMText
 10
256.625031
 20
14.244792
 30
0.0
 40
1.75
 41
4.263636
 71
     8
 72
     1
  1
1.2  
210
0.0
220
0.0
230
1.0
 73
     1
 44
1.0
  0
MTEXT
  5
B2
100
AcDbEntity
  8
256
390
0
 62
     8
100
AcDbMText
 10
360.130196
 20
272.53334
 30
0.0
 40
3.386667
 41
7.050425
 71
     8
 72
     1
  1
処  
210
0.0
220
0.0
230
0.9999999999999999
 73
     1
 44
1.0
  0
INSERT
  5
B7
100
AcDbEntity
  8
256
390
0
100
AcDbBlockReference
  2
AID278
 10
0.0
 20
0.0
 30
0.0
  0
LINE
  5
B9
100
AcDbEntity
  8
1
390
0
  6
Continuous
 62
     7
100
AcDbLine
 10
138.872493
 20
192.447248
 30
0.0
 11
138.872493
 21
195.947248
 31
0.0
  0
LINE
  5
BA
100
AcDbEntity
  8
1
390
0
  6
Continuous
 62
     7
100
AcDbLine
 10
143.872493
 20
192.447248
 30
0.0
 11
143.872493
 21
195.947248
 31
0.0
  0
LINE
  5
BB
100
AcDbEntity
  8
1
390
0
  6
Continuous
 62
     7
100
AcDbLine
 10
138.872493
 20
195.947248
 30
0.0
 11
138.872493
 21
199.447248
 31
0.0
  0
LINE
  5
BC
100
AcDbEntity
  8
1
390
0
  6
Continuous
 62
     7
100
AcDbLine
 10
143.872493
 20
195.947248
 30
0.0
 11
143.872493
 21
199.447248
 31
0.0
  0
LINE
  5
BD
100
AcDbEntity
  8
1
390
0
  6
Continuous
 62
     7
100
AcDbLine
 10
156.622493
 20
193.447248
 30
0.0
 11
156.622493
 21
198.447248
 31
0.0
  0
LINE
  5
BE
100
AcDbEntity
  8
1
390
0
  6
Continuous
 62
     7
100
AcDbLine
 10
156.872493
 20
198.197248
 30
0.0
 11
156.872493
 21
193.697248
 31
0.0
  0
LINE
  5
BF
100
AcDbEntity
  8
1
390
0
  6
Continuous
 62
     7
100
AcDbLine
 10
130.872493
 20
193.947248
 30
0.0
 11
130.872493
 21
195.947248
 31
0.0
  0
LINE
  5
C0
100
AcDbEntity
  8
1
390
0
  6
Continuous
 62
     7
100
AcDbLine
 10
137.872493
 20
193.947248
 30
0.0
 11
137.872493
 21
195.947248
 31
0.0
  0
LINE
  5
C1
100
AcDbEntity
  8
1
390
0
  6
Continuous
 62
     7
100
AcDbLine
 10
130.872493
 20
195.947248
 30
0.0
 11
130.872493
 21
197.947248
 31
0.0
  0
LINE
  5
C2
100
AcDbEntity
  8
1
390
0
  6
Continuous
 62
     7
100
AcDbLine
 10
137.872493
 20
195.947248
 30
0.0
 11
137.872493
 21
197.947248
 31
0.0
  0
LINE
  5
C3
100
AcDbEntity
  8
1
390
0
  6
Continuous
 62
     7
100
AcDbLine
 10
138.872493
 20
192.447248
 30
0.0
 11
143.872493
 21
192.447248
 31
0.0
  0
LINE
  5
C4
100
AcDbEntity
  8
1
390
0
  6
Continuous
 62
     7
100
AcDbLine
 10
143.872493
 20
199.447248
 30
0.0
 11
138.872493
 21
199.447248
 31
0.0
  0
LINE
  5
C5
100
AcDbEntity
  8
1
390
0
  6
Continuous
 62
     7
100
AcDbLine
 10
143.872493
 20
193.447248
 30
0.0
 11
156.622493
 21
193.447248
 31
0.0
  0
LINE
  5
C6
100
AcDbEntity
  8
1
390
0
  6
Continuous
 62
     7
100
AcDbLine
 10
156.622493
 20
198.447248
 30
0.0
 11
143.872493
 21
198.447248
 31
0.0
  0
LINE
  5
C7
100
AcDbEntity
  8
1
390
0
  6
Continuous
 62
     7
100
AcDbLine
 10
156.622493
 20
193.447248
 30
0.0
 11
156.872493
 21
193.697248
 31
0.0
  0
LINE
  5
C8
100
AcDbEntity
  8
1
390
0
  6
Continuous
 62
     7
100
AcDbLine
 10
156.872493
 20
198.197248
 30
0.0
 11
156.622493
 21
198.447248
 31
0.0
  0
LINE
  5
C9
100
AcDbEntity
  8
1
390
0
  6
Continuous
 62
     7
100
AcDbLine
 10
130.872493
 20
193.947248
 30
0.0
 11
137.872493
 21
193.947248
 31
0.0
  0
LINE
  5
CA
100
AcDbEntity
  8
1
390
0
  6
Continuous
 62
     7
100
AcDbLine
 10
137.872493
 20
197.947248
 30
0.0
 11
130.872493
 21
197.947248
 31
0.0
  0
LINE
  5
CB
100
AcDbEntity
  8
1
390
0
  6
Continuous
 62
     7
100
AcDbLine
 10
137.872493
 20
194.047248
 30
0.0
 11
138.872493
 21
194.047248
 31
0.0
  0
LINE
  5
CC
100
AcDbEntity
  8
1
390
0
  6
Continuous
 62
     7
100
AcDbLine
 10
138.872493
 20
197.847248
 30
0.0
 11
137.872493
 21
197.847248
 31
0.0
  0
LINE
  5
CD
100
AcDbEntity
  8
1
390
0
  6
Continuous
 62
     7
100
AcDbLine
 10
205.839184
 20
197.647248
 30
0.0
 11
156.872493
 21
197.647248
 31
0.0
  0
LINE
  5
CE
100
AcDbEntity
  8
1
390
0
  6
Continuous
 62
     7
100
AcDbLine
 10
156.872493
 20
194.247248
 30
0.0
 11
204.163098
 21
194.247248
 31
0.0
  0
LINE
  5
CF
100
AcDbEntity
  8
1
390
0
  6
Continuous
 62
     7
100
AcDbLine
 10
257.286705
 20
200.947248
 30
0.0
 11
257.856123
 21
200.947248
 31
0.0
  0
ARC
  5
D0
100
AcDbEntity
  8
1
390
0
  6
Continuous
 62
     7
100
AcDbCircle
 10
259.312487
 20
210.564713
 30
0.0
 40
9.727108
210
0.0
220
0.0
230
1.0
100
AcDbArc
 50
261.389169
 51
272.412654
  0
LINE
  5
D1
100
AcDbEntity
  8
1
390
0
  6
Continuous
 62
     7
100
AcDbLine
 10
246.122306
 20
199.086515
 30
0.0
 11
257.286705
 21
200.947248
 31
0.0
  0
LINE
  5
D2
100
AcDbEntity
  8
1
390
0
  6
Continuous
 62
     7
100
AcDbLine
 10
257.856123
 20
200.947248
 30
0.0
 11
265.086705
 21
200.947248
 31
0.0
  0
LINE
  5
D3
100
AcDbEntity
  8
1
390
0
  6
Continuous
 62
     7
100
AcDbLine
 10
265.086705
 20
200.846228
 30
0.0
 11
259.721963
 21
200.846228
 31
0.0
  0
ARC
  5
D4
100
AcDbEntity
  8
1
390
0
  6
Continuous
 62
     7
100
AcDbCircle
 10
259.31636
 20
181.258249
 30
0.0
 40
9.798419
210
0.0
220
0.0
230
1.0
100
AcDbArc
 50
87.627582
 51
98.570595
  0
LINE
  5
D5
100
AcDbEntity
  8
1
390
0
  6
Continuous
 62
     7
100
AcDbLine
 10
259.721963
 20
191.048269
 30
0.0
 11
265.086705
 21
191.048269
 31
0.0
  0
LINE
  5
D6
100
AcDbEntity
  8
1
390
0
  6
Continuous
 62
     7
100
AcDbLine
 10
265.086705
 20
190.947248
 30
0.0
 11
257.856123
 21
190.947248
 31
0.0
  0
LINE
  5
D7
100
AcDbEntity
  8
1
390
0
  6
Continuous
 62
     7
100
AcDbLine
 10
257.856123
 20
190.947248
 30
0.0
 11
257.286705
 21
190.947248
 31
0.0
  0
LINE
  5
D8
100
AcDbEntity
  8
1
390
0
  6
Continuous
 62
     7
100
AcDbLine
 10
257.286705
 20
190.947248
 30
0.0
 11
246.122306
 21
192.807982
 31
0.0
  0
POLYLINE
  5
D9
100
AcDbEntity
  8
1
390
0
  6
Continuous
 62
     7
100
AcDb2dPolyline
 66
     1
 10
0.0
 20
0.0
 30
0.0
 40
3.0
 41
3.0
  0
VERTEX
  5
DA
100
AcDbEntity
  8
1
390
0
 62
     7
100
AcDbVertex
100
AcDb2dVertex
 10
265.086705
 20
191.048269
 30
0.0
  0
VERTEX
  5
DB
100
AcDbEntity
  8
1
390
0
 62
     7
100
AcDbVertex
100
AcDb2dVertex
 10
265.19106
 20
191.066298
 30
0.0
  0
VERTEX
  5
DC
100
AcDbEntity
  8
1
390
0
 62
     7
100
AcDbVertex
100
AcDb2dVertex
 10
265.27319
 20
191.12712
 30
0.0
  0
VERTEX
  5
DD
100
AcDbEntity
  8
1
390
0
 62
     7
100
AcDbVertex
100
AcDb2dVertex
 10
265.286705
 20
191.172314
 30
0.0
  0
SEQEND
  5
DE
100
AcDbEntity
  8
0
390
0
  0
LINE
  5
DF
100
AcDbEntity
  8
1
390
0
  6
Continuous
 62
     7
100
AcDbLine
 10
265.286705
 20
191.172314
 30
0.0
 11
265.286705
 21
191.147248
 31
0.0
  0
POLYLINE
  5
E0
100
AcDbEntity
  8
1
390
0
  6
Continuous
 62
     7
100
AcDb2dPolyline
 66
     1
 10
0.0
 20
0.0
 30
0.0
 40
3.0
 41
3.0
  0
VERTEX
  5
E1
100
AcDbEntity
  8
1
390
0
 62
     7
100
AcDbVertex
100
AcDb2dVertex
 10
265.086705
 20
190.947248
 30
0.0
  0
VERTEX
  5
E2
100
AcDbEntity
  8
1
390
0
 62
     7
100
AcDbVertex
100
AcDb2dVertex
 10
265.096147
 20
190.947476
 30
0.0
  0
VERTEX
  5
E3
100
AcDbEntity
  8
1
390
0
 62
     7
100
AcDbVertex
100
AcDb2dVertex
 10
265.105594
 20
190.948156
 30
0.0
  0
VERTEX
  5
E4
100
AcDbEntity
  8
1
390
0
 62
     7
100
AcDbVertex
100
AcDb2dVertex
 10
265.115013
 20
190.949282
 30
0.0
  0
VERTEX
  5
E5
100
AcDbEntity
  8
1
390
0
 62
     7
100
AcDbVertex
100
AcDb2dVertex
 10
265.124371
 20
190.950847
 30
0.0
  0
VERTEX
  5
E6
100
AcDbEntity
  8
1
390
0
 62
     7
100
AcDbVertex
100
AcDb2dVertex
 10
265.133638
 20
190.952847
 30
0.0
  0
VERTEX
  5
E7
100
AcDbEntity
  8
1
390
0
 62
     7
100
AcDbVertex
100
AcDb2dVertex
 10
265.142778
 20
190.955275
 30
0.0
  0
VERTEX
  5
E8
100
AcDbEntity
  8
1
390
0
 62
     7
100
AcDbVertex
100
AcDb2dVertex
 10
265.151762
 20
190.958125
 30
0.0
  0
VERTEX
  5
E9
100
AcDbEntity
  8
1
390
0
 62
     7
100
AcDbVertex
100
AcDb2dVertex
 10
265.160588
 20
190.9614
 30
0.0
  0
VERTEX
  5
EA
100
AcDbEntity
  8
1
390
0
 62
     7
100
AcDbVertex
100
AcDb2dVertex
 10
265.169266
 20
190.965099
 30
0.0
  0
VERTEX
  5
EB
100
AcDbEntity
  8
1
390
0
 62
     7
100
AcDbVertex
100
AcDb2dVertex
 10
265.177768
 20
190.969203
 30
0.0
  0
VERTEX
  5
EC
100
AcDbEntity
  8
1
390
0
 62
     7
100
AcDbVertex
100
AcDb2dVertex
 10
265.186068
 20
190.973698
 30
0.0
  0
VERTEX
  5
ED
100
AcDbEntity
  8
1
390
0
 62
     7
100
AcDbVertex
100
AcDb2dVertex
 10
265.194137
 20
190.978568
 30
0.0
  0
VERTEX
  5
EE
100
AcDbEntity
  8
1
390
0
 62
     7
100
AcDbVertex
100
AcDb2dVertex
 10
265.201949
 20
190.983795
 30
0.0
  0
VERTEX
  5
EF
100
AcDbEntity
  8
1
390
0
 62
     7
100
AcDbVertex
100
AcDb2dVertex
 10
265.209475
 20
190.989364
 30
0.0
  0
VERTEX
  5
F0
100
AcDbEntity
  8
1
390
0
 62
     7
100
AcDbVertex
100
AcDb2dVertex
 10
265.216789
 20
190.99534
 30
0.0
  0
VERTEX
  5
F1
100
AcDbEntity
  8
1
390
0
 62
     7
100
AcDbVertex
100
AcDb2dVertex
 10
265.223822
 20
191.001667
 30
0.0
  0
VERTEX
  5
F2
100
AcDbEntity
  8
1
390
0
 62
     7
100
AcDbVertex
100
AcDb2dVertex
 10
265.230554
 20
191.008322
 30
0.0
  0
VERTEX
  5
F3
100
AcDbEntity
  8
1
390
0
 62
     7
100
AcDbVertex
100
AcDb2dVertex
 10
265.236963
 20
191.015282
 30
0.0
  0
VERTEX
  5
F4
100
AcDbEntity
  8
1
390
0
 62
     7
100
AcDbVertex
100
AcDb2dVertex
 10
265.243031
 20
191.02252
 30
0.0
  0
VERTEX
  5
F5
100
AcDbEntity
  8
1
390
0
 62
     7
100
AcDbVertex
100
AcDb2dVertex
 10
265.248737
 20
191.030015
 30
0.0
  0
VERTEX
  5
F6
100
AcDbEntity
  8
1
390
0
 62
     7
100
AcDbVertex
100
AcDb2dVertex
 10
265.254062
 20
191.037742
 30
0.0
  0
VERTEX
  5
F7
100
AcDbEntity
  8
1
390
0
 62
     7
100
AcDbVertex
100
AcDb2dVertex
 10
265.259109
 20
191.045883
 30
0.0
  0
VERTEX
  5
F8
100
AcDbEntity
  8
1
390
0
 62
     7
100
AcDbVertex
100
AcDb2dVertex
 10
265.263765
 20
191.054272
 30
0.0
  0
VERTEX
  5
F9
100
AcDbEntity
  8
1
390
0
 62
     7
100
AcDbVertex
100
AcDb2dVertex
 10
265.268019
 20
191.062881
 30
0.0
  0
VERTEX
  5
FA
100
AcDbEntity
  8
1
390
0
 62
     7
100
AcDbVertex
100
AcDb2dVertex
 10
265.271859
 20
191.071679
 30
0.0
  0
VERTEX
  5
FB
100
AcDbEntity
  8
1
390
0
 62
     7
100
AcDbVertex
100
AcDb2dVertex
 10
265.275273
 20
191.080637
 30
0.0
  0
VERTEX
  5
FC
100
AcDbEntity
  8
1
390
0
 62
     7
100
AcDbVertex
100
AcDb2dVertex
 10
265.278249
 20
191.089725
 30
0.0
  0
VERTEX
  5
FD
100
AcDbEntity
  8
1
390
0
 62
     7
100
AcDbVertex
100
AcDb2dVertex
 10
265.280776
 20
191.098915
 30
0.0
  0
VERTEX
  5
FE
100
AcDbEntity
  8
1
390
0
 62
     7
100
AcDbVertex
100
AcDb2dVertex
 10
265.282736
 20
191.107609
 30
0.0
  0
VERTEX
  5
FF
100
AcDbEntity
  8
1
390
0
 62
     7
100
AcDbVertex
100
AcDb2dVertex
 10
265.284307
 20
191.116391
 30
0.0
  0
VERTEX
  5
100
100
AcDbEntity
  8
1
390
0
 62
     7
100
AcDbVertex
100
AcDb2dVertex
 10
265.285486
 20
191.125235
 30
0.0
  0
VERTEX
  5
101
100
AcDbEntity
  8
1
390
0
 62
     7
100
AcDbVertex
100
AcDb2dVertex
 10
265.286272
 20
191.134115
 30
0.0
  0
VERTEX
  5
102
100
AcDbEntity
  8
1
390
0
 62
     7
100
AcDbVertex
100
AcDb2dVertex
 10
265.28666
 20
191.143008
 30
0.0
  0
VERTEX
  5
103
100
AcDbEntity
  8
1
390
0
 62
     7
100
AcDbVertex
100
AcDb2dVertex
 10
265.286705
 20
191.147248
 30
0.0
  0
SEQEND
  5
104
100
AcDbEntity
  8
0
390
0
  0
LINE
  5
105
100
AcDbEntity
  8
1
390
0
  6
Continuous
 62
     7
100
AcDbLine
 10
265.286705
 20
200.747248
 30
0.0
 11
265.286705
 21
200.722183
 31
0.0
  0
POLYLINE
  5
106
100
AcDbEntity
  8
1
390
0
  6
Continuous
 62
     7
100
AcDb2dPolyline
 66
     1
 10
0.0
 20
0.0
 30
0.0
 40
3.0
 41
3.0
  0
VERTEX
  5
107
100
AcDbEntity
  8
1
390
0
 62
     7
100
AcDbVertex
100
AcDb2dVertex
 10
265.286705
 20
200.722183
 30
0.0
  0
VERTEX
  5
108
100
AcDbEntity
  8
1
390
0
 62
     7
100
AcDbVertex
100
AcDb2dVertex
 10
265.22825
 20
200.81014
 30
0.0
  0
VERTEX
  5
109
100
AcDbEntity
  8
1
390
0
 62
     7
100
AcDbVertex
100
AcDb2dVertex
 10
265.129294
 20
200.843409
 30
0.0
  0
VERTEX
  5
10A
100
AcDbEntity
  8
1
390
0
 62
     7
100
AcDbVertex
100
AcDb2dVertex
 10
265.086705
 20
200.846228
 30
0.0
  0
SEQEND
  5
10B
100
AcDbEntity
  8
0
390
0
  0
POLYLINE
  5
10C
100
AcDbEntity
  8
1
390
0
  6
Continuous
 62
     7
100
AcDb2dPolyline
 66
     1
 10
0.0
 20
0.0
 30
0.0
 40
3.0
 41
3.0
  0
VERTEX
  5
10D
100
AcDbEntity
  8
1
390
0
 62
     7
100
AcDbVertex
100
AcDb2dVertex
 10
265.286705
 20
200.747248
 30
0.0
  0
VERTEX
  5
10E
100
AcDbEntity
  8
1
390
0
 62
     7
100
AcDbVertex
100
AcDb2dVertex
 10
265.259109
 20
200.848614
 30
0.0
  0
VERTEX
  5
10F
100
AcDbEntity
  8
1
390
0
 62
     7
100
AcDbVertex
100
AcDb2dVertex
 10
265.186068
 20
200.920798
 30
0.0
  0
VERTEX
  5
110
100
AcDbEntity
  8
1
390
0
 62
     7
100
AcDbVertex
100
AcDb2dVertex
 10
265.086705
 20
200.947248
 30
0.0
  0
SEQEND
  5
111
100
AcDbEntity
  8
0
390
0
  0
LINE
  5
112
100
AcDbEntity
  8
1
390
0
  6
Continuous
 62
     7
100
AcDbLine
 10
265.286705
 20
200.722183
 30
0.0
 11
265.286705
 21
191.172314
 31
0.0
  0
ARC
  5
113
100
AcDbEntity
  8
1
390
0
  6
Continuous
 62
     7
100
AcDbCircle
 10
246.286705
 20
198.100121
 30
0.0
 40
1.0
210
0.0
220
0.0
230
1.0
100
AcDbArc
 50
99.462322
 51
180.0
  0
LINE
  5
114
100
AcDbEntity
  8
1
390
0
  6
Continuous
 62
     7
100
AcDbLine
 10
245.286705
 20
193.794375
 30
0.0
 11
245.286705
 21
198.100121
 31
0.0
  0
ARC
  5
115
100
AcDbEntity
  8
1
390
0
  6
Continuous
 62
     7
100
AcDbCircle
 10
246.286705
 20
193.794375
 30
0.0
 40
1.0
210
0.0
220
0.0
230
1.0
100
AcDbArc
 50
180.0
 51
260.537678
  0
LINE
  5
116
100
AcDbEntity
  8
1
390
0
  6
Continuous
 62
     7
100
AcDbLine
 10
280.286705
 20
194.747248
 30
0.0
 11
280.286705
 21
193.147248
 31
0.0
  0
LINE
  5
117
100
AcDbEntity
  8
1
390
0
  6
Continuous
 62
     7
100
AcDbLine
 10
280.286705
 20
198.747248
 30
0.0
 11
280.286705
 21
197.147248
 31
0.0
  0
LINE
  5
118
100
AcDbEntity
  8
1
390
0
  6
Continuous
 62
     7
100
AcDbLine
 10
245.286705
 20
197.647248
 30
0.0
 11
210.839184
 21
197.647248
 31
0.0
  0
LINE
  5
119
100
AcDbEntity
  8
1
390
0
  6
Continuous
 62
     7
100
AcDbLine
 10
209.163098
 20
194.247248
 30
0.0
 11
245.286705
 21
194.247248
 31
0.0
  0
LINE
  5
11A
100
AcDbEntity
  8
1
390
0
  6
Continuous
 62
     7
100
AcDbLine
 10
279.986705
 20
195.047248
 30
0.0
 11
265.286705
 21
195.047248
 31
0.0
  0
LINE
  5
11B
100
AcDbEntity
  8
1
390
0
  6
Continuous
 62
     7
100
AcDbLine
 10
265.286705
 20
192.847248
 30
0.0
 11
279.986705
 21
192.847248
 31
0.0
  0
ARC
  5
11C
100
AcDbEntity
  8
1
390
0
  6
Continuous
 62
     7
100
AcDbCircle
 10
279.986705
 20
194.747248
 30
0.0
 40
0.3
210
0.0
220
0.0
230
1.0
100
AcDbArc
 50
0.0
 51
90.0
  0
ARC
  5
11D
100
AcDbEntity
  8
1
390
0
  6
Continuous
 62
     7
100
AcDbCircle
 10
279.986705
 20
193.147248
 30
0.0
 40
0.3
210
0.0
220
0.0
230
1.0
100
AcDbArc
 50
270.0
 51
360.0
  0
LINE
  5
11E
100
AcDbEntity
  8
1
390
0
  6
Continuous
 62
     7
100
AcDbLine
 10
279.986705
 20
199.047248
 30
0.0
 11
265.286705
 21
199.047248
 31
0.0
  0
LINE
  5
11F
100
AcDbEntity
  8
1
390
0
  6
Continuous
 62
     7
100
AcDbLine
 10
265.286705
 20
196.847248
 30
0.0
 11
279.986705
 21
196.847248
 31
0.0
  0
ARC
  5
120
100
AcDbEntity
  8
1
390
0
  6
Continuous
 62
     7
100
AcDbCircle
 10
279.986705
 20
198.747248
 30
0.0
 40
0.3
210
0.0
220
0.0
230
1.0
100
AcDbArc
 50
0.0
 51
90.0
  0
ARC
  5
121
100
AcDbEntity
  8
1
390
0
  6
Continuous
 62
     7
100
AcDbCircle
 10
279.986705
 20
197.147248
 30
0.0
 40
0.3
210
0.0
220
0.0
230
1.0
100
AcDbArc
 50
270.0
 51
360.0
  0
LINE
  5
122
100
AcDbEntity
  8
1
390
0
  6
Continuous
 62
    11
100
AcDbLine
 10
203.331931
 20
192.561199
 30
0.0
 11
206.808886
 21
199.614322
 31
0.0
  0
LINE
  5
123
100
AcDbEntity
  8
1
390
0
  6
Continuous
 62
    11
100
AcDbLine
 10
208.331931
 20
192.561199
 30
0.0
 11
211.808886
 21
199.614322
 31
0.0
  0
CIRCLE
  5
124
100
AcDbEntity
  8
1
390
0
  6
Continuous
 62
     7
100
AcDbCircle
 10
56.78226
 20
195.947248
 30
0.0
 40
2.0
210
0.0
220
0.0
230
1.0
  0
CIRCLE
  5
126
100
AcDbEntity
  8
1
390
0
  6
DOT
 62
     9
100
AcDbCircle
 10
56.78226
 20
195.947248
 30
0.0
 40
1.9
210
0.0
220
0.0
230
0.9999999999999999
  0
CIRCLE
  5
127
100
AcDbEntity
  8
1
390
0
  6
Continuous
 62
     7
100
AcDbCircle
 10
56.78226
 20
195.947248
 30
0.0
 40
3.5
210
0.0
220
0.0
230
1.0
  0
CIRCLE
  5
128
100
AcDbEntity
  8
1
390
0
  6
DOT
 62
     9
100
AcDbCircle
 10
56.78226
 20
195.947248
 30
0.0
 40
2.5
210
0.0
220
0.0
230
1.0
  0
CIRCLE
  5
129
100
AcDbEntity
  8
1
390
0
  6
DOT
 62
     9
100
AcDbCircle
 10
56.78226
 20
195.947248
 30
0.0
 40
2.25
210
0.0
220
0.0
230
1.0
  0
CIRCLE
  5
12A
100
AcDbEntity
  8
1
390
0
  6
DOT
 62
     9
100
AcDbCircle
 10
56.78226
 20
195.947248
 30
0.0
 40
1.7
210
0.0
220
0.0
230
0.9999999999999999
  0
LINE
  5
12B
100
AcDbEntity
  8
1
390
0
  6
DOT
 62
     9
100
AcDbLine
 10
59.28226
 20
198.100121
 30
0.0
 11
59.28226
 21
193.794375
 31
0.0
  0
LINE
  5
12C
100
AcDbEntity
  8
1
390
0
  6
Continuous
 62
     7
100
AcDbLine
 10
54.28226
 20
193.301179
 30
0.0
 11
54.28226
 21
193.497759
 31
0.0
  0
LINE
  5
12D
100
AcDbEntity
  8
1
390
0
  6
DOT
 62
     9
100
AcDbLine
 10
54.28226
 20
193.497759
 30
0.0
 11
54.28226
 21
193.794375
 31
0.0
  0
LINE
  5
12E
100
AcDbEntity
  8
1
390
0
  6
DOT
 62
     9
100
AcDbLine
 10
54.28226
 20
193.794375
 30
0.0
 11
54.28226
 21
198.100121
 31
0.0
  0
LINE
  5
12F
100
AcDbEntity
  8
1
390
0
  6
Continuous
 62
     7
100
AcDbLine
 10
59.28226
 20
198.593318
 30
0.0
 11
59.28226
 21
198.396738
 31
0.0
  0
LINE
  5
130
100
AcDbEntity
  8
1
390
0
  6
DOT
 62
     9
100
AcDbLine
 10
59.28226
 20
198.396738
 30
0.0
 11
59.28226
 21
198.100121
 31
0.0
  0
LINE
  5
131
100
AcDbEntity
  8
1
390
0
  6
DOT
 62
     9
100
AcDbLine
 10
59.28226
 20
193.794375
 30
0.0
 11
59.28226
 21
193.497759
 31
0.0
  0
LINE
  5
132
100
AcDbEntity
  8
1
390
0
  6
Continuous
 62
     7
100
AcDbLine
 10
59.28226
 20
193.497759
 30
0.0
 11
59.28226
 21
193.301179
 31
0.0
  0
LINE
  5
133
100
AcDbEntity
  8
1
390
0
  6
DOT
 62
     9
100
AcDbLine
 10
54.28226
 20
198.100121
 30
0.0
 11
54.28226
 21
198.396738
 31
0.0
  0
LINE
  5
134
100
AcDbEntity
  8
1
390
0
  6
Continuous
 62
     7
100
AcDbLine
 10
54.28226
 20
198.396738
 30
0.0
 11
54.28226
 21
198.593318
 31
0.0
  0
POLYLINE
  5
135
100
AcDbEntity
  8
1
390
0
  6
Continuous
 62
     7
100
AcDb2dPolyline
 66
     1
 10
0.0
 20
0.0
 30
0.0
 40
3.0
 41
3.0
  0
VERTEX
  5
136
100
AcDbEntity
  8
1
390
0
 62
     7
100
AcDbVertex
100
AcDb2dVertex
 10
59.28226
 20
191.048269
 30
0.0
  0
VERTEX
  5
137
100
AcDbEntity
  8
1
390
0
 62
     7
100
AcDbVertex
100
AcDb2dVertex
 10
59.169159
 20
190.992179
 30
0.0
  0
VERTEX
  5
138
100
AcDbEntity
  8
1
390
0
 62
     7
100
AcDbVertex
100
AcDb2dVertex
 10
59.073548
 20
190.947248
 30
0.0
  0
SEQEND
  5
139
100
AcDbEntity
  8
0
390
0
  0
LINE
  5
13A
100
AcDbEntity
  8
1
390
0
  6
Continuous
 62
     7
100
AcDbLine
 10
59.073548
 20
190.947248
 30
0.0
 11
58.78226
 21
190.947248
 31
0.0
  0
LINE
  5
13B
100
AcDbEntity
  8
1
390
0
  6
Continuous
 62
     7
100
AcDbLine
 10
59.28226
 20
193.301179
 30
0.0
 11
59.28226
 21
191.048269
 31
0.0
  0
LINE
  5
13C
100
AcDbEntity
  8
1
390
0
  6
Continuous
 62
     7
100
AcDbLine
 10
54.78226
 20
190.947248
 30
0.0
 11
58.78226
 21
190.947248
 31
0.0
  0
LINE
  5
13D
100
AcDbEntity
  8
1
390
0
  6
Continuous
 62
     7
100
AcDbLine
 10
58.78226
 20
200.947248
 30
0.0
 11
59.073548
 21
200.947248
 31
0.0
  0
POLYLINE
  5
13E
100
AcDbEntity
  8
1
390
0
  6
Continuous
 62
     7
100
AcDb2dPolyline
 66
     1
 10
0.0
 20
0.0
 30
0.0
 40
3.0
 41
3.0
  0
VERTEX
  5
13F
100
AcDbEntity
  8
1
390
0
 62
     7
100
AcDbVertex
100
AcDb2dVertex
 10
59.073548
 20
200.947248
 30
0.0
  0
VERTEX
  5
140
100
AcDbEntity
  8
1
390
0
 62
     7
100
AcDbVertex
100
AcDb2dVertex
 10
59.19365
 20
200.890466
 30
0.0
  0
VERTEX
  5
141
100
AcDbEntity
  8
1
390
0
 62
     7
100
AcDbVertex
100
AcDb2dVertex
 10
59.28226
 20
200.846228
 30
0.0
  0
SEQEND
  5
142
100
AcDbEntity
  8
0
390
0
  0
LINE
  5
143
100
AcDbEntity
  8
1
390
0
  6
Continuous
 62
     7
100
AcDbLine
 10
59.28226
 20
200.846228
 30
0.0
 11
59.28226
 21
198.593318
 31
0.0
  0
POLYLINE
  5
144
100
AcDbEntity
  8
1
390
0
  6
Continuous
 62
     7
100
AcDb2dPolyline
 66
     1
 10
0.0
 20
0.0
 30
0.0
 40
3.0
 41
3.0
  0
VERTEX
  5
145
100
AcDbEntity
  8
1
390
0
 62
     7
100
AcDbVertex
100
AcDb2dVertex
 10
54.28226
 20
200.846228
 30
0.0
  0
VERTEX
  5
146
100
AcDbEntity
  8
1
390
0
 62
     7
100
AcDbVertex
100
AcDb2dVertex
 10
54.395362
 20
200.902318
 30
0.0
  0
VERTEX
  5
147
100
AcDbEntity
  8
1
390
0
 62
     7
100
AcDbVertex
100
AcDb2dVertex
 10
54.490973
 20
200.947248
 30
0.0
  0
SEQEND
  5
148
100
AcDbEntity
  8
0
390
0
  0
LINE
  5
149
100
AcDbEntity
  8
1
390
0
  6
Continuous
 62
     7
100
AcDbLine
 10
54.490973
 20
200.947248
 30
0.0
 11
54.78226
 21
200.947248
 31
0.0
  0
LINE
  5
14A
100
AcDbEntity
  8
1
390
0
  6
Continuous
 62
     7
100
AcDbLine
 10
54.28226
 20
198.593318
 30
0.0
 11
54.28226
 21
200.846228
 31
0.0
  0
LINE
  5
14B
100
AcDbEntity
  8
1
390
0
  6
Continuous
 62
     7
100
AcDbLine
 10
54.78226
 20
200.947248
 30
0.0
 11
58.78226
 21
200.947248
 31
0.0
  0
LINE
  5
14C
100
AcDbEntity
  8
1
390
0
  6
Continuous
 62
     7
100
AcDbLine
 10
54.78226
 20
190.947248
 30
0.0
 11
54.490973
 21
190.947248
 31
0.0
  0
POLYLINE
  5
14D
100
AcDbEntity
  8
1
390
0
  6
Continuous
 62
     7
100
AcDb2dPolyline
 66
     1
 10
0.0
 20
0.0
 30
0.0
 40
3.0
 41
3.0
  0
VERTEX
  5
14E
100
AcDbEntity
  8
1
390
0
 62
     7
100
AcDbVertex
100
AcDb2dVertex
 10
54.490973
 20
190.947248
 30
0.0
  0
VERTEX
  5
14F
100
AcDbEntity
  8
1
390
0
 62
     7
100
AcDbVertex
100
AcDb2dVertex
 10
54.37087
 20
191.004031
 30
0.0
  0
VERTEX
  5
150
100
AcDbEntity
  8
1
390
0
 62
     7
100
AcDbVertex
100
AcDb2dVertex
 10
54.28226
 20
191.048269
 30
0.0
  0
SEQEND
  5
151
100
AcDbEntity
  8
0
390
0
  0
LINE
  5
152
100
AcDbEntity
  8
1
390
0
  6
Continuous
 62
     7
100
AcDbLine
 10
54.28226
 20
191.048269
 30
0.0
 11
54.28226
 21
193.301179
 31
0.0
  0
POLYLINE
  5
153
100
AcDbEntity
  8
1
390
0
  6
DOT
 62
     9
100
AcDb2dPolyline
 66
     1
 10
0.0
 20
0.0
 30
0.0
 40
3.0
 41
3.0
  0
VERTEX
  5
154
100
AcDbEntity
  8
1
390
0
 62
     9
100
AcDbVertex
100
AcDb2dVertex
 10
54.490973
 20
190.947248
 30
0.0
  0
VERTEX
  5
155
100
AcDbEntity
  8
1
390
0
 62
     9
100
AcDbVertex
100
AcDb2dVertex
 10
54.51394
 20
191.051972
 30
0.0
  0
VERTEX
  5
156
100
AcDbEntity
  8
1
390
0
 62
     9
100
AcDbVertex
100
AcDb2dVertex
 10
54.53504
 20
191.147248
 30
0.0
  0
SEQEND
  5
157
100
AcDbEntity
  8
0
390
0
  0
POLYLINE
  5
158
100
AcDbEntity
  8
1
390
0
  6
DOT
 62
     9
100
AcDb2dPolyline
 66
     1
 10
0.0
 20
0.0
 30
0.0
 40
3.0
 41
3.0
  0
VERTEX
  5
159
100
AcDbEntity
  8
1
390
0
 62
     9
100
AcDbVertex
100
AcDb2dVertex
 10
54.28226
 20
191.048269
 30
0.0
  0
VERTEX
  5
15A
100
AcDbEntity
  8
1
390
0
 62
     9
100
AcDbVertex
100
AcDb2dVertex
 10
54.372528
 20
191.103862
 30
0.0
  0
VERTEX
  5
15B
100
AcDbEntity
  8
1
390
0
 62
     9
100
AcDbVertex
100
AcDb2dVertex
 10
54.467957
 20
191.163336
 30
0.0
  0
VERTEX
  5
15C
100
AcDbEntity
  8
1
390
0
 62
     9
100
AcDbVertex
100
AcDb2dVertex
 10
54.48226
 20
191.172314
 30
0.0
  0
SEQEND
  5
15D
100
AcDbEntity
  8
0
390
0
  0
POLYLINE
  5
15E
100
AcDbEntity
  8
1
390
0
  6
DOT
 62
     9
100
AcDb2dPolyline
 66
     1
 10
0.0
 20
0.0
 30
0.0
 40
3.0
 41
3.0
  0
VERTEX
  5
15F
100
AcDbEntity
  8
1
390
0
 62
     9
100
AcDbVertex
100
AcDb2dVertex
 10
59.28226
 20
191.048269
 30
0.0
  0
VERTEX
  5
160
100
AcDbEntity
  8
1
390
0
 62
     9
100
AcDbVertex
100
AcDb2dVertex
 10
59.191993
 20
191.103862
 30
0.0
  0
VERTEX
  5
161
100
AcDbEntity
  8
1
390
0
 62
     9
100
AcDbVertex
100
AcDb2dVertex
 10
59.096564
 20
191.163336
 30
0.0
  0
VERTEX
  5
162
100
AcDbEntity
  8
1
390
0
 62
     9
100
AcDbVertex
100
AcDb2dVertex
 10
59.08226
 20
191.172314
 30
0.0
  0
SEQEND
  5
163
100
AcDbEntity
  8
0
390
0
  0
POLYLINE
  5
164
100
AcDbEntity
  8
1
390
0
  6
DOT
 62
     9
100
AcDb2dPolyline
 66
     1
 10
0.0
 20
0.0
 30
0.0
 40
3.0
 41
3.0
  0
VERTEX
  5
165
100
AcDbEntity
  8
1
390
0
 62
     9
100
AcDbVertex
100
AcDb2dVertex
 10
59.073548
 20
190.947248
 30
0.0
  0
VERTEX
  5
166
100
AcDbEntity
  8
1
390
0
 62
     9
100
AcDbVertex
100
AcDb2dVertex
 10
59.050581
 20
191.051972
 30
0.0
  0
VERTEX
  5
167
100
AcDbEntity
  8
1
390
0
 62
     9
100
AcDbVertex
100
AcDb2dVertex
 10
59.029481
 20
191.147248
 30
0.0
  0
SEQEND
  5
168
100
AcDbEntity
  8
0
390
0
  0
POLYLINE
  5
169
100
AcDbEntity
  8
1
390
0
  6
DOT
 62
     9
100
AcDb2dPolyline
 66
     1
 10
0.0
 20
0.0
 30
0.0
 40
3.0
 41
3.0
  0
VERTEX
  5
16A
100
AcDbEntity
  8
1
390
0
 62
     9
100
AcDbVertex
100
AcDb2dVertex
 10
59.08226
 20
200.722183
 30
0.0
  0
VERTEX
  5
16B
100
AcDbEntity
  8
1
390
0
 62
     9
100
AcDbVertex
100
AcDb2dVertex
 10
59.173626
 20
200.779245
 30
0.0
  0
VERTEX
  5
16C
100
AcDbEntity
  8
1
390
0
 62
     9
100
AcDbVertex
100
AcDb2dVertex
 10
59.262543
 20
200.834138
 30
0.0
  0
VERTEX
  5
16D
100
AcDbEntity
  8
1
390
0
 62
     9
100
AcDbVertex
100
AcDb2dVertex
 10
59.28226
 20
200.846228
 30
0.0
  0
SEQEND
  5
16E
100
AcDbEntity
  8
0
390
0
  0
POLYLINE
  5
16F
100
AcDbEntity
  8
1
390
0
  6
DOT
 62
     9
100
AcDb2dPolyline
 66
     1
 10
0.0
 20
0.0
 30
0.0
 40
3.0
 41
3.0
  0
VERTEX
  5
170
100
AcDbEntity
  8
1
390
0
 62
     9
100
AcDbVertex
100
AcDb2dVertex
 10
59.029481
 20
200.747248
 30
0.0
  0
VERTEX
  5
171
100
AcDbEntity
  8
1
390
0
 62
     9
100
AcDbVertex
100
AcDb2dVertex
 10
59.052124
 20
200.84953
 30
0.0
  0
VERTEX
  5
172
100
AcDbEntity
  8
1
390
0
 62
     9
100
AcDbVertex
100
AcDb2dVertex
 10
59.073548
 20
200.947248
 30
0.0
  0
SEQEND
  5
173
100
AcDbEntity
  8
0
390
0
  0
POLYLINE
  5
174
100
AcDbEntity
  8
1
390
0
  6
DOT
 62
     9
100
AcDb2dPolyline
 66
     1
 10
0.0
 20
0.0
 30
0.0
 40
3.0
 41
3.0
  0
VERTEX
  5
175
100
AcDbEntity
  8
1
390
0
 62
     9
100
AcDbVertex
100
AcDb2dVertex
 10
54.48226
 20
200.722183
 30
0.0
  0
VERTEX
  5
176
100
AcDbEntity
  8
1
390
0
 62
     9
100
AcDbVertex
100
AcDb2dVertex
 10
54.390895
 20
200.779245
 30
0.0
  0
VERTEX
  5
177
100
AcDbEntity
  8
1
390
0
 62
     9
100
AcDbVertex
100
AcDb2dVertex
 10
54.301978
 20
200.834138
 30
0.0
  0
VERTEX
  5
178
100
AcDbEntity
  8
1
390
0
 62
     9
100
AcDbVertex
100
AcDb2dVertex
 10
54.28226
 20
200.846228
 30
0.0
  0
SEQEND
  5
179
100
AcDbEntity
  8
0
390
0
  0
POLYLINE
  5
17A
100
AcDbEntity
  8
1
390
0
  6
DOT
 62
     9
100
AcDb2dPolyline
 66
     1
 10
0.0
 20
0.0
 30
0.0
 40
3.0
 41
3.0
  0
VERTEX
  5
17B
100
AcDbEntity
  8
1
390
0
 62
     9
100
AcDbVertex
100
AcDb2dVertex
 10
54.53504
 20
200.747248
 30
0.0
  0
VERTEX
  5
17C
100
AcDbEntity
  8
1
390
0
 62
     9
100
AcDbVertex
100
AcDb2dVertex
 10
54.512397
 20
200.84953
 30
0.0
  0
VERTEX
  5
17D
100
AcDbEntity
  8
1
390
0
 62
     9
100
AcDbVertex
100
AcDb2dVertex
 10
54.490973
 20
200.947248
 30
0.0
  0
SEQEND
  5
17E
100
AcDbEntity
  8
0
390
0
  0
CIRCLE
  5
17F
100
AcDbEntity
  8
1
390
0
  6
DOT
 62
     9
100
AcDbCircle
 10
56.78226
 20
193.947248
 30
0.0
 40
1.1
210
0.0
220
0.0
230
1.0
  0
CIRCLE
  5
180
100
AcDbEntity
  8
1
390
0
  6
DOT
 62
     9
100
AcDbCircle
 10
56.78226
 20
197.947248
 30
0.0
 40
1.1
210
0.0
220
0.0
230
1.0
  0
LINE
  5
181
100
AcDbEntity
  8
1
390
0
  6
Continuous
 62
     7
100
AcDbLine
 10
138.872493
 20
121.273109
 30
0.0
 11
138.872493
 21
128.273109
 31
0.0
  0
LINE
  5
182
100
AcDbEntity
  8
1
390
0
  6
Continuous
 62
     7
100
AcDbLine
 10
143.872493
 20
121.273109
 30
0.0
 11
143.872493
 21
128.273109
 31
0.0
  0
LINE
  5
183
100
AcDbEntity
  8
1
390
0
  6
Continuous
 62
     7
100
AcDbLine
 10
156.872493
 20
127.023109
 30
0.0
 11
156.872493
 21
122.523109
 31
0.0
  0
LINE
  5
184
100
AcDbEntity
  8
1
390
0
  6
Continuous
 62
     7
100
AcDbLine
 10
156.622493
 20
122.273109
 30
0.0
 11
156.622493
 21
127.273109
 31
0.0
  0
LINE
  5
185
100
AcDbEntity
  8
1
390
0
  6
Continuous
 62
     7
100
AcDbLine
 10
130.872493
 20
122.773109
 30
0.0
 11
130.872493
 21
126.773109
 31
0.0
  0
LINE
  5
186
100
AcDbEntity
  8
1
390
0
  6
Continuous
 62
     7
100
AcDbLine
 10
137.872493
 20
122.773109
 30
0.0
 11
137.872493
 21
126.773109
 31
0.0
  0
LINE
  5
187
100
AcDbEntity
  8
1
390
0
  6
Continuous
 62
     7
100
AcDbLine
 10
138.872493
 20
121.273109
 30
0.0
 11
143.872493
 21
121.273109
 31
0.0
  0
LINE
  5
188
100
AcDbEntity
  8
1
390
0
  6
Continuous
 62
     7
100
AcDbLine
 10
143.872493
 20
128.273109
 30
0.0
 11
138.872493
 21
128.273109
 31
0.0
  0
LINE
  5
189
100
AcDbEntity
  8
1
390
0
  6
Continuous
 62
     7
100
AcDbLine
 10
156.622493
 20
122.273109
 30
0.0
 11
156.872493
 21
122.523109
 31
0.0
  0
LINE
  5
18A
100
AcDbEntity
  8
1
390
0
  6
Continuous
 62
     7
100
AcDbLine
 10
156.872493
 20
127.023109
 30
0.0
 11
156.622493
 21
127.273109
 31
0.0
  0
LINE
  5
18B
100
AcDbEntity
  8
1
390
0
  6
Continuous
 62
     7
100
AcDbLine
 10
143.872493
 20
122.273109
 30
0.0
 11
156.622493
 21
122.273109
 31
0.0
  0
LINE
  5
18C
100
AcDbEntity
  8
1
390
0
  6
Continuous
 62
     7
100
AcDbLine
 10
156.622493
 20
127.273109
 30
0.0
 11
143.872493
 21
127.273109
 31
0.0
  0
LINE
  5
18D
100
AcDbEntity
  8
1
390
0
  6
Continuous
 62
     7
100
AcDbLine
 10
130.872493
 20
122.773109
 30
0.0
 11
137.872493
 21
122.773109
 31
0.0
  0
LINE
  5
18E
100
AcDbEntity
  8
1
390
0
  6
Continuous
 62
     7
100
AcDbLine
 10
137.872493
 20
126.773109
 30
0.0
 11
130.872493
 21
126.773109
 31
0.0
  0
LINE
  5
18F
100
AcDbEntity
  8
1
390
0
  6
Continuous
 62
     7
100
AcDbLine
 10
137.872493
 20
122.873109
 30
0.0
 11
138.872493
 21
122.873109
 31
0.0
  0
LINE
  5
190
100
AcDbEntity
  8
1
390
0
  6
Continuous
 62
     7
100
AcDbLine
 10
138.872493
 20
126.673109
 30
0.0
 11
137.872493
 21
126.673109
 31
0.0
  0
LINE
  5
191
100
AcDbEntity
  8
1
390
0
  6
Continuous
 62
     7
100
AcDbLine
 10
206.198346
 20
126.473109
 30
0.0
 11
156.872493
 21
126.473109
 31
0.0
  0
LINE
  5
192
100
AcDbEntity
  8
1
390
0
  6
Continuous
 62
     7
100
AcDbLine
 10
156.872493
 20
123.073109
 30
0.0
 11
203.803936
 21
123.073109
 31
0.0
  0
POLYLINE
  5
193
100
AcDbEntity
  8
1
390
0
  6
Continuous
 62
     7
100
AcDb2dPolyline
 66
     1
 10
0.0
 20
0.0
 30
0.0
 40
3.0
 41
3.0
  0
VERTEX
  5
194
100
AcDbEntity
  8
1
390
0
 62
     7
100
AcDbVertex
100
AcDb2dVertex
 10
257.856123
 20
122.481821
 30
0.0
  0
VERTEX
  5
195
100
AcDbEntity
  8
1
390
0
 62
     7
100
AcDbVertex
100
AcDb2dVertex
 10
257.969066
 20
122.430788
 30
0.0
 42
0.07731
  0
VERTEX
  5
196
100
AcDbEntity
  8
1
390
0
 62
     7
100
AcDbVertex
100
AcDb2dVertex
 10
259.721963
 20
122.273109
 30
0.0
  0
SEQEND
  5
197
100
AcDbEntity
  8
0
390
0
  0
LINE
  5
198
100
AcDbEntity
  8
1
390
0
  6
Continuous
 62
     7
100
AcDbLine
 10
257.856123
 20
122.481821
 30
0.0
 11
265.086705
 21
122.481821
 31
0.0
  0
LINE
  5
199
100
AcDbEntity
  8
1
390
0
  6
Continuous
 62
     7
100
AcDbLine
 10
259.721963
 20
122.273109
 30
0.0
 11
265.086705
 21
122.273109
 31
0.0
  0
ELLIPSE
  5
19A
100
AcDbEntity
  8
1
390
0
  6
Continuous
 62
     7
100
AcDbEllipse
 10
260.328086
 20
122.773109
 30
0.0
 11
3.041381265149079
 21
0.0
 31
0.0
210
0.0
220
0.0
230
1.0
 40
0.164399
 41
3.1415926535897927
 42
3.7634867664105629
  0
LINE
  5
19B
100
AcDbEntity
  8
1
390
0
  6
Continuous
 62
     7
100
AcDbLine
 10
259.721963
 20
122.273109
 30
0.0
 11
246.204505
 21
122.273109
 31
0.0
  0
POLYLINE
  5
19C
100
AcDbEntity
  8
1
390
0
  6
Continuous
 62
     7
100
AcDb2dPolyline
 66
     1
 10
0.0
 20
0.0
 30
0.0
 40
3.0
 41
3.0
  0
VERTEX
  5
19D
100
AcDbEntity
  8
1
390
0
 62
     7
100
AcDbVertex
100
AcDb2dVertex
 10
259.721963
 20
127.273109
 30
0.0
 42
0.061923
  0
VERTEX
  5
19E
100
AcDbEntity
  8
1
390
0
 62
     7
100
AcDbVertex
100
AcDb2dVertex
 10
257.991219
 20
127.122809
 30
0.0
  0
VERTEX
  5
19F
100
AcDbEntity
  8
1
390
0
 62
     7
100
AcDbVertex
100
AcDb2dVertex
 10
257.881479
 20
127.078847
 30
0.0
  0
VERTEX
  5
1A0
100
AcDbEntity
  8
1
390
0
 62
     7
100
AcDbVertex
100
AcDb2dVertex
 10
257.856123
 20
127.064397
 30
0.0
  0
SEQEND
  5
1A1
100
AcDbEntity
  8
0
390
0
  0
ELLIPSE
  5
1A2
100
AcDbEntity
  8
1
390
0
  6
Continuous
 62
     7
100
AcDbEllipse
 10
260.328086
 20
126.773109
 30
0.0
 11
-3.041381265149079
 21
0.0
 31
0.0
210
0.0
220
0.0
230
1.0
 40
0.164399
 41
5.6612911943589035
 42
6.2831853071795827
  0
LINE
  5
1A3
100
AcDbEntity
  8
1
390
0
  6
Continuous
 62
     7
100
AcDbLine
 10
246.204505
 20
127.273109
 30
0.0
 11
259.721963
 21
127.273109
 31
0.0
  0
LINE
  5
1A4
100
AcDbEntity
  8
1
390
0
  6
Continuous
 62
     7
100
AcDbLine
 10
259.721963
 20
127.273109
 30
0.0
 11
265.086705
 21
127.273109
 31
0.0
  0
LINE
  5
1A5
100
AcDbEntity
  8
1
390
0
  6
Continuous
 62
     7
100
AcDbLine
 10
265.086705
 20
127.064397
 30
0.0
 11
257.856123
 21
127.064397
 31
0.0
  0
LINE
  5
1A6
100
AcDbEntity
  8
1
390
0
  6
Continuous
 62
     7
100
AcDbLine
 10
257.286705
 20
122.773109
 30
0.0
 11
257.286705
 21
126.773109
 31
0.0
  0
POLYLINE
  5
1A7
100
AcDbEntity
  8
1
390
0
  6
Continuous
 62
     7
100
AcDb2dPolyline
 66
     1
 10
0.0
 20
0.0
 30
0.0
 40
3.0
 41
3.0
  0
VERTEX
  5
1A8
100
AcDbEntity
  8
1
390
0
 62
     7
100
AcDbVertex
100
AcDb2dVertex
 10
265.086705
 20
127.273109
 30
0.0
  0
VERTEX
  5
1A9
100
AcDbEntity
  8
1
390
0
 62
     7
100
AcDbVertex
100
AcDb2dVertex
 10
265.189776
 20
127.244503
 30
0.0
  0
VERTEX
  5
1AA
100
AcDbEntity
  8
1
390
0
 62
     7
100
AcDbVertex
100
AcDb2dVertex
 10
265.264607
 20
127.164475
 30
0.0
  0
VERTEX
  5
1AB
100
AcDbEntity
  8
1
390
0
 62
     7
100
AcDbVertex
100
AcDb2dVertex
 10
265.286705
 20
127.073109
 30
0.0
  0
SEQEND
  5
1AC
100
AcDbEntity
  8
0
390
0
  0
LINE
  5
1AD
100
AcDbEntity
  8
1
390
0
  6
Continuous
 62
     7
100
AcDbLine
 10
265.286705
 20
127.073109
 30
0.0
 11
265.286705
 21
127.020329
 31
0.0
  0
POLYLINE
  5
1AE
100
AcDbEntity
  8
1
390
0
  6
Continuous
 62
     7
100
AcDb2dPolyline
 66
     1
 10
0.0
 20
0.0
 30
0.0
 40
3.0
 41
3.0
  0
VERTEX
  5
1AF
100
AcDbEntity
  8
1
390
0
 62
     7
100
AcDbVertex
100
AcDb2dVertex
 10
265.086705
 20
127.064397
 30
0.0
  0
VERTEX
  5
1B0
100
AcDbEntity
  8
1
390
0
 62
     7
100
AcDbVertex
100
AcDb2dVertex
 10
265.188814
 20
127.058272
 30
0.0
  0
VERTEX
  5
1B1
100
AcDbEntity
  8
1
390
0
 62
     7
100
AcDbVertex
100
AcDb2dVertex
 10
265.285486
 20
127.025222
 30
0.0
  0
VERTEX
  5
1B2
100
AcDbEntity
  8
1
390
0
 62
     7
100
AcDbVertex
100
AcDb2dVertex
 10
265.286705
 20
127.020329
 30
0.0
  0
SEQEND
  5
1B3
100
AcDbEntity
  8
0
390
0
  0
POLYLINE
  5
1B4
100
AcDbEntity
  8
1
390
0
  6
Continuous
 62
     7
100
AcDb2dPolyline
 66
     1
 10
0.0
 20
0.0
 30
0.0
 40
3.0
 41
3.0
  0
VERTEX
  5
1B5
100
AcDbEntity
  8
1
390
0
 62
     7
100
AcDbVertex
100
AcDb2dVertex
 10
265.086705
 20
122.481821
 30
0.0
  0
VERTEX
  5
1B6
100
AcDbEntity
  8
1
390
0
 62
     7
100
AcDbVertex
100
AcDb2dVertex
 10
265.188814
 20
122.487946
 30
0.0
  0
VERTEX
  5
1B7
100
AcDbEntity
  8
1
390
0
 62
     7
100
AcDbVertex
100
AcDb2dVertex
 10
265.285486
 20
122.520996
 30
0.0
  0
VERTEX
  5
1B8
100
AcDbEntity
  8
1
390
0
 62
     7
100
AcDbVertex
100
AcDb2dVertex
 10
265.286705
 20
122.525888
 30
0.0
  0
SEQEND
  5
1B9
100
AcDbEntity
  8
0
390
0
  0
LINE
  5
1BA
100
AcDbEntity
  8
1
390
0
  6
Continuous
 62
     7
100
AcDbLine
 10
265.286705
 20
122.525888
 30
0.0
 11
265.286705
 21
122.473109
 31
0.0
  0
POLYLINE
  5
1BB
100
AcDbEntity
  8
1
390
0
  6
Continuous
 62
     7
100
AcDb2dPolyline
 66
     1
 10
0.0
 20
0.0
 30
0.0
 40
3.0
 41
3.0
  0
VERTEX
  5
1BC
100
AcDbEntity
  8
1
390
0
 62
     7
100
AcDbVertex
100
AcDb2dVertex
 10
265.086705
 20
122.273109
 30
0.0
  0
VERTEX
  5
1BD
100
AcDbEntity
  8
1
390
0
 62
     7
100
AcDbVertex
100
AcDb2dVertex
 10
265.189776
 20
122.301714
 30
0.0
  0
VERTEX
  5
1BE
100
AcDbEntity
  8
1
390
0
 62
     7
100
AcDbVertex
100
AcDb2dVertex
 10
265.264607
 20
122.381743
 30
0.0
  0
VERTEX
  5
1BF
100
AcDbEntity
  8
1
390
0
 62
     7
100
AcDbVertex
100
AcDb2dVertex
 10
265.286705
 20
122.473109
 30
0.0
  0
SEQEND
  5
1C0
100
AcDbEntity
  8
0
390
0
  0
LINE
  5
1C1
100
AcDbEntity
  8
1
390
0
  6
Continuous
 62
     7
100
AcDbLine
 10
265.286705
 20
127.020329
 30
0.0
 11
265.286705
 21
122.525888
 31
0.0
  0
ARC
  5
1C2
100
AcDbEntity
  8
1
390
0
  6
Continuous
 62
     7
100
AcDbCircle
 10
245.786705
 20
122.773109
 30
0.0
 40
0.5
210
0.0
220
0.0
230
1.0
100
AcDbArc
 50
180.0
 51
270.0
  0
LINE
  5
1C3
100
AcDbEntity
  8
1
390
0
  6
Continuous
 62
     7
100
AcDbLine
 10
246.204505
 20
122.273109
 30
0.0
 11
245.786705
 21
122.273109
 31
0.0
  0
ARC
  5
1C4
100
AcDbEntity
  8
1
390
0
  6
Continuous
 62
     7
100
AcDbCircle
 10
245.786705
 20
126.773109
 30
0.0
 40
0.5
210
0.0
220
0.0
230
1.0
100
AcDbArc
 50
90.0
 51
180.0
  0
LINE
  5
1C5
100
AcDbEntity
  8
1
390
0
  6
Continuous
 62
     7
100
AcDbLine
 10
245.786705
 20
127.273109
 30
0.0
 11
246.204505
 21
127.273109
 31
0.0
  0
LINE
  5
1C6
100
AcDbEntity
  8
1
390
0
  6
Continuous
 62
     7
100
AcDbLine
 10
245.286705
 20
122.773109
 30
0.0
 11
245.286705
 21
126.773109
 31
0.0
  0
LINE
  5
1C7
100
AcDbEntity
  8
1
390
0
  6
Continuous
 62
     7
100
AcDbLine
 10
280.286705
 20
125.573109
 30
0.0
 11
280.286705
 21
123.973109
 31
0.0
  0
ARC
  5
1C8
100
AcDbEntity
  8
1
390
0
  6
Continuous
 62
     7
100
AcDbCircle
 10
279.986705
 20
125.573109
 30
0.0
 40
0.3
210
0.0
220
0.0
230
1.0
100
AcDbArc
 50
0.0
 51
90.0
  0
ARC
  5
1C9
100
AcDbEntity
  8
1
390
0
  6
Continuous
 62
     7
100
AcDbCircle
 10
279.986705
 20
123.973109
 30
0.0
 40
0.3
210
0.0
220
0.0
230
1.0
100
AcDbArc
 50
270.0
 51
360.0
  0
LINE
  5
1CA
100
AcDbEntity
  8
1
390
0
  6
Continuous
 62
     7
100
AcDbLine
 10
279.986705
 20
125.873109
 30
0.0
 11
265.286705
 21
125.873109
 31
0.0
  0
LINE
  5
1CB
100
AcDbEntity
  8
1
390
0
  6
Continuous
 62
     7
100
AcDbLine
 10
265.286705
 20
123.673109
 30
0.0
 11
279.986705
 21
123.673109
 31
0.0
  0
LINE
  5
1CC
100
AcDbEntity
  8
1
390
0
  6
Continuous
 62
     7
100
AcDbLine
 10
245.286705
 20
126.473109
 30
0.0
 11
211.198346
 21
126.473109
 31
0.0
  0
LINE
  5
1CD
100
AcDbEntity
  8
1
390
0
  6
Continuous
 62
     7
100
AcDbLine
 10
208.803936
 20
123.073109
 30
0.0
 11
245.286705
 21
123.073109
 31
0.0
  0
LINE
  5
1CE
100
AcDbEntity
  8
1
390
0
  6
Continuous
 62
    11
100
AcDbLine
 10
203.331931
 20
122.402874
 30
0.0
 11
206.808886
 21
127.340061
 31
0.0
  0
LINE
  5
1CF
100
AcDbEntity
  8
1
390
0
  6
Continuous
 62
    11
100
AcDbLine
 10
208.331931
 20
122.402874
 30
0.0
 11
211.808886
 21
127.340061
 31
0.0
  0
LINE
  5
1D1
100
AcDbEntity
  8
1
390
0
  6
CENTER
 62
     1
100
AcDbLine
 10
281.791912
 20
195.947248
 30
0.0
 11
129.359514
 21
195.947248
 31
0.0
  0
LINE
  5
1D2
100
AcDbEntity
  8
1
390
0
  6
CENTER
 62
     1
100
AcDbLine
 10
281.791912
 20
124.773109
 30
0.0
 11
129.359514
 21
124.773109
 31
0.0
  0
LINE
  5
1D3
100
AcDbEntity
  8
1
390
0
  6
CENTER
 62
     1
100
AcDbLine
 10
52.28226
 20
195.947248
 30
0.0
 11
61.28226
 21
195.947248
 31
0.0
  0
LINE
  5
1D4
100
AcDbEntity
  8
1
390
0
  6
CENTER
 62
     1
100
AcDbLine
 10
56.78226
 20
191.447248
 30
0.0
 11
56.78226
 21
200.447248
 31
0.0
  0
POINT
  5
1D6
100
AcDbEntity
  8
5
390
0
 62
     2
100
AcDbPoint
 10
129.359514
 20
200.651491
 30
0.0
  0
POINT
  5
1D7
100
AcDbEntity
  8
5
390
0
 62
     2
100
AcDbPoint
 10
281.791912
 20
184.294168
 30
0.0
  0
INSERT
  5
1EC
100
AcDbEntity
  8
1
390
0
100
AcDbBlockReference
  2
AID585
 10
0.0
 20
0.0
 30
0.0
  0
INSERT
  5
201
100
AcDbEntity
  8
1
390
0
100
AcDbBlockReference
  2
AID604
 10
0.0
 20
0.0
 30
0.0
  0
LINE
  5
202
100
AcDbEntity
  8
1
390
0
  6
Continuous
 62
     7
100
AcDbLine
 10
151.872493
 20
198.447248
 30
0.0
 11
151.872493
 21
193.447248
 31
0.0
  0
LINE
  5
203
100
AcDbEntity
  8
1
390
0
  6
Continuous
 62
     7
100
AcDbLine
 10
151.872493
 20
127.273109
 30
0.0
 11
151.872493
 21
122.273109
 31
0.0
  0
LINE
  5
204
100
AcDbEntity
  8
1
390
0
  6
Continuous
 62
     9
100
AcDbLine
 10
156.872493
 20
198.197248
 30
0.0
 11
151.872493
 21
198.197248
 31
0.0
  0
LINE
  5
205
100
AcDbEntity
  8
1
390
0
  6
Continuous
 62
     9
100
AcDbLine
 10
151.872493
 20
193.697248
 30
0.0
 11
156.872493
 21
193.697248
 31
0.0
  0
LINE
  5
206
100
AcDbEntity
  8
1
390
0
  6
Continuous
 62
     9
100
AcDbLine
 10
156.872493
 20
127.023109
 30
0.0
 11
151.872493
 21
127.023109
 31
0.0
  0
LINE
  5
207
100
AcDbEntity
  8
1
390
0
  6
Continuous
 62
     9
100
AcDbLine
 10
151.872493
 20
122.523109
 30
0.0
 11
156.872493
 21
122.523109
 31
0.0
  0
INSERT
  5
217
100
AcDbEntity
  8
1
390
0
100
AcDbBlockReference
  2
AID635
 10
0.0
 20
0.0
 30
0.0
  0
INSERT
  5
225
100
AcDbEntity
  8
1
390
0
100
AcDbBlockReference
  2
AID652
 10
0.0
 20
0.0
 30
0.0
  0
INSERT
  5
237
100
AcDbEntity
  8
1
390
0
100
AcDbBlockReference
  2
AID665
 10
0.0
 20
0.0
 30
0.0
  0
INSERT
  5
249
100
AcDbEntity
  8
1
390
0
100
AcDbBlockReference
  2
AID678
 10
0.0
 20
0.0
 30
0.0
  0
INSERT
  5
25A
100
AcDbEntity
  8
1
390
0
100
AcDbBlockReference
  2
AID691
 10
0.0
 20
0.0
 30
0.0
  0
INSERT
  5
26C
100
AcDbEntity
  8
1
390
0
100
AcDbBlockReference
  2
AID702
 10
0.0
 20
0.0
 30
0.0
  0
INSERT
  5
27E
100
AcDbEntity
  8
1
390
0
100
AcDbBlockReference
  2
AID715
 10
0.0
 20
0.0
 30
0.0
  0
INSERT
  5
290
100
AcDbEntity
  8
1
390
0
100
AcDbBlockReference
  2
AID728
 10
0.0
 20
0.0
 30
0.0
  0
LINE
  5
291
100
AcDbEntity
  8
1
390
0
  6
CENTER
 62
     1
100
AcDbLine
 10
264.286705
 20
193.947248
 30
0.0
 11
280.986705
 21
193.947248
 31
0.0
  0
LINE
  5
292
100
AcDbEntity
  8
1
390
0
  6
CENTER
 62
     1
100
AcDbLine
 10
264.286705
 20
197.947248
 30
0.0
 11
280.986705
 21
197.947248
 31
0.0
  0
INSERT
  5
2A5
100
AcDbEntity
  8
1
390
0
100
AcDbBlockReference
  2
AID745
 10
0.0
 20
0.0
 30
0.0
  0
INSERT
  5
2BB
100
AcDbEntity
  8
1
390
0
100
AcDbBlockReference
  2
AID760
 10
0.0
 20
0.0
 30
0.0
  0
INSERT
  5
2CD
100
AcDbEntity
  8
1
390
0
100
AcDbBlockReference
  2
AID781
 10
0.0
 20
0.0
 30
0.0
  0
INSERT
  5
2DF
100
AcDbEntity
  8
1
390
0
100
AcDbBlockReference
  2
AID794
 10
0.0
 20
0.0
 30
0.0
  0
INSERT
  5
2F1
100
AcDbEntity
  8
1
390
0
100
AcDbBlockReference
  2
AID807
 10
0.0
 20
0.0
 30
0.0
  0
INSERT
  5
2FD
100
AcDbEntity
  8
1
390
0
100
AcDbBlockReference
  2
AID820
 10
0.0
 20
0.0
 30
0.0
  0
INSERT
  5
302
100
AcDbEntity
  8
1
390
0
100
AcDbBlockReference
  2
AID829
 10
0.0
 20
0.0
 30
0.0
  0
INSERT
  5
307
100
AcDbEntity
  8
1
390
0
100
AcDbBlockReference
  2
AID832
 10
0.0
 20
0.0
 30
0.0
  0
INSERT
  5
30C
100
AcDbEntity
  8
1
390
0
100
AcDbBlockReference
  2
AID835
 10
0.0
 20
0.0
 30
0.0
  0
ENDSEC
  0
SECTION
  2
OBJECTS
  0
DICTIONARY
  5
19
100
AcDbDictionary
280
     0
281
     1
  3
ACAD_GROUP
350
1A
  3
ACAD_MLINESTYLE
350
1B
  3
ACAD_LAYOUT
350
1E
  3
ACAD_PLOTSETTINGS
350
22
  3
ACAD_PLOTSTYLENAME
350
1F
  3
ACAD_WIPEOUT_VARS
350
23
  0
DICTIONARY
  5
1A
102
{ACAD_REACTORS
330
19
102
}
100
AcDbDictionary
280
     0
281
     1
  0
DICTIONARY
  5
1B
102
{ACAD_REACTORS
330
19
102
}
100
AcDbDictionary
280
     0
281
     1
  3
Standard
350
1C
  0
MLINESTYLE
  5
1C
102
{ACAD_REACTORS
330
1B
102
}
100
AcDbMlineStyle
  2
Standard
 70
     0
  3

 62
     0
 51
90.0
 52
90.0
 71
     2
 49
0.5
 62
   256
  6
ByLayer
 49
-0.5
 62
   256
  6
ByLayer
  0
ACDBDICTIONARYWDFLT
  5
1F
102
{ACAD_REACTORS
330
19
102
}
100
AcDbDictionary
281
     1
  3
Normal
350
1D
100
AcDbDictionaryWithDefault
340
1D
  0
ACDBPLACEHOLDER
  5
1D
102
{ACAD_REACTORS
330
1F
102
}
  0
LAYOUT
  5
20
102
{ACAD_REACTORS
330
1E
102
}
100
AcDbPlotSettings
  1

  2

  4

  6

 40
0.0
 41
0.0
 42
0.0
 43
0.0
 44
0.0
 45
0.0
 46
0.0
 47
0.0
 48
0.0
 49
0.0
140
0.0
141
0.0
142
1.0
143
1.0
 70
  1024
 72
     0
 73
     0
 74
     0
  7

 75
     0
147
1.0
148
0.0
149
0.0
100
AcDbLayout
  1
Model
 70
     0
 71
     0
 10
0.0
 20
0.0
 11
0.0
 21
0.0
 12
0.0
 22
0.0
 32
0.0
 14
0.0
 24
0.0
 34
0.0
 15
0.0
 25
0.0
 35
0.0
146
0.0
 13
0.0
 23
0.0
 33
0.0
 16
0.0
 26
0.0
 36
0.0
 17
0.0
 27
0.0
 37
0.0
 76
     0
330
A
331
0
345
0
346
0
  0
LAYOUT
  5
21
102
{ACAD_REACTORS
330
1E
102
}
100
AcDbPlotSettings
  1

  2

  4

  6

 40
0.0
 41
0.0
 42
0.0
 43
0.0
 44
0.0
 45
0.0
 46
0.0
 47
0.0
 48
0.0
 49
0.0
140
0.0
141
0.0
142
1.0
143
1.0
 70
     0
 72
     0
 73
     0
 74
     0
  7

 75
     0
147
1.0
148
0.0
149
0.0
100
AcDbLayout
  1
Layout1
 70
     0
 71
     0
 10
0.0
 20
0.0
 11
0.0
 21
0.0
 12
0.0
 22
0.0
 32
0.0
 14
0.0
 24
0.0
 34
0.0
 15
0.0
 25
0.0
 35
0.0
146
0.0
 13
0.0
 23
0.0
 33
0.0
 16
0.0
 26
0.0
 36
0.0
 17
0.0
 27
0.0
 37
0.0
 76
     0
330
B
331
0
345
0
346
0
  0
DICTIONARY
  5
1E
102
{ACAD_REACTORS
330
19
102
}
100
AcDbDictionary
280
     0
281
     1
  3
Layout1
350
21
  3
Model
350
20
  0
DICTIONARY
  5
22
102
{ACAD_REACTORS
330
19
102
}
100
AcDbDictionary
280
     0
281
     1
  0
WIPEOUTVARIABLES
  5
23
100
AcDbWipeoutVariables
 70
     1
  0
ENDSEC
  0
EOF
