  0
SECTION
  2
HEADER
  9
$ACADVER
  1
AC1015
  9
$ACADMAINTVER
 70
     6
  9
$DWGCODEPAGE
  3
DOS932
  9
$INSBASE
 10
0.0
 20
0.0
 30
0.0
  9
$EXTMIN
 10
0.0
 20
0.0
 30
0.0
  9
$EXTMAX
 10
410.0
 20
287.0
 30
10.0
  9
$LIMMIN
 10
0.0
 20
0.0
  9
$LIMMAX
 10
410.0
 20
287.0
  9
$ORTHOMODE
 70
     0
  9
$REGENMODE
 70
     1
  9
$FILLMODE
 70
     1
  9
$QTEXTMODE
 70
     0
  9
$MIRRTEXT
 70
     1
  9
$LTSCALE
 40
10.0
  9
$ATTMODE
 70
     1
  9
$TEXTSIZE
 40
0.2
  9
$TRACEWID
 40
0.05
  9
$TEXTSTYLE
  7
Standard
  9
$CLAYER
  8
0
  9
$CELTYPE
  6
Continuous
  9
$CECOLOR
 62
   256
  9
$CELTSCALE
 40
1.0
  9
$DISPSILH
 70
     0
  9
$DIMSCALE
 40
1.0
  9
$DIMASZ
 40
3.2
  9
$DIMEXO
 40
3.2
  9
$DIMDLI
 40
0.38
  9
$DIMRND
 40
0.0
  9
$DIMDLE
 40
0.0
  9
$DIMEXE
 40
2.4
  9
$DIMTP
 40
0.0
  9
$DIMTM
 40
0.0
  9
$DIMTXT
 40
8.0
  9
$DIMCEN
 40
0.09
  9
$DIMTSZ
 40
0.0
  9
$DIMTOL
 70
     0
  9
$DIMLIM
 70
     0
  9
$DIMTIH
 70
     0
  9
$DIMTOH
 70
     0
  9
$DIMSE1
 70
     0
  9
$DIMSE2
 70
     0
  9
$DIMTAD
 70
     1
  9
$DIMZIN
 70
     0
  9
$DIMBLK
  1

  9
$DIMASO
 70
     1
  9
$DIMSHO
 70
     1
  9
$DIMPOST
  1

  9
$DIMAPOST
  1

  9
$DIMALT
 70
     0
  9
$DIMALTD
 70
     2
  9
$DIMALTF
 40
25.4
  9
$DIMLFAC
 40
1.0
  9
$DIMTOFL
 70
     0
  9
$DIMTVP
 40
0.0
  9
$DIMTIX
 70
     0
  9
$DIMSOXD
 70
     0
  9
$DIMSAH
 70
     0
  9
$DIMBLK1
  1

  9
$DIMBLK2
  1

  9
$DIMSTYLE
  2
Standard
  9
$DIMCLRD
 70
     7
  9
$DIMCLRE
 70
     7
  9
$DIMCLRT
 70
     7
  9
$DIMTFAC
 40
0.6
  9
$DIMGAP
 40
4.0
  9
$DIMJUST
 70
     0
  9
$DIMSD1
 70
     0
  9
$DIMSD2
 70
     0
  9
$DIMTOLJ
 70
     1
  9
$DIMTZIN
 70
     0
  9
$DIMALTZ
 70
     0
  9
$DIMALTTZ
 70
     0
  9
$DIMUPT
 70
     0
  9
$DIMDEC
 70
     6
  9
$DIMTDEC
 70
     4
  9
$DIMALTU
 70
     2
  9
$DIMALTTD
 70
     2
  9
$DIMTXSTY
  7
Standard
  9
$DIMAUNIT
 70
     0
  9
$DIMADEC
 70
     0
  9
$DIMALTRND
 40
0.0
  9
$DIMAZIN
 70
     0
  9
$DIMDSEP
 70
     0
  9
$DIMATFIT
 70
     3
  9
$DIMFRAC
 70
     0
  9
$DIMLDRBLK
  1

  9
$DIMLUNIT
 70
     2
  9
$DIMLWD
 70
     0
  9
$DIMLWE
 70
     0
  9
$DIMTMOVE
 70
     0
  9
$LUNITS
 70
     2
  9
$LUPREC
 70
     4
  9
$SKETCHINC
 40
0.1
  9
$FILLETRAD
 40
0.0
  9
$AUNITS
 70
     0
  9
$AUPREC
 70
     0
  9
$MENU
  1
acad
  9
$ELEVATION
 40
0.0
  9
$PELEVATION
 40
0.0
  9
$THICKNESS
 40
0.0
  9
$LIMCHECK
 70
     0
  9
$CHAMFERA
 40
0.0
  9
$CHAMFERB
 40
0.0
  9
$CHAMFERC
 40
0.0
  9
$CHAMFERD
 40
0.0
  9
$SKPOLY
 70
     0
  9
$TDCREATE
 40
2458421.485185185
  9
$TDUCREATE
 40
0.000000000
  9
$TDUPDATE
 40
2458421.110104166
  9
$TDUUPDATE
 40
0.000000000
  9
$TDINDWG
 40
0.0000000000
  9
$TDUSRTIMER
 40
0.0000000000
  9
$USRTIMER
 70
     1
  9
$ANGBASE
 50
0.0
  9
$ANGDIR
 70
     0
  9
$PDMODE
 70
     0
  9
$PDSIZE
 40
0.0
  9
$PLINEWID
 40
0.0
  9
$SPLFRAME
 70
     0
  9
$SPLINETYPE
 70
     6
  9
$SPLINESEGS
 70
     8
  9
$HANDSEED
  5
601
  9
$SURFTAB1
 70
     6
  9
$SURFTAB2
 70
     6
  9
$SURFTYPE
 70
     6
  9
$SURFU
 70
     6
  9
$SURFV
 70
     6
  9
$UCSBASE
  2

  9
$UCSNAME
  2

  9
$UCSORG
 10
0.0
 20
0.0
 30
0.0
  9
$UCSXDIR
 10
1.0
 20
0.0
 30
0.0
  9
$UCSYDIR
 10
0.0
 20
1.0
 30
0.0
  9
$UCSORTHOREF
  2

  9
$UCSORTHOVIEW
 70
     0
  9
$UCSORGTOP
 10
0.0
 20
0.0
 30
0.0
  9
$UCSORGBOTTOM
 10
0.0
 20
0.0
 30
0.0
  9
$UCSORGLEFT
 10
0.0
 20
0.0
 30
0.0
  9
$UCSORGRIGHT
 10
0.0
 20
0.0
 30
0.0
  9
$UCSORGFRONT
 10
0.0
 20
0.0
 30
0.0
  9
$UCSORGBACK
 10
0.0
 20
0.0
 30
0.0
  9
$PUCSBASE
  2

  9
$PUCSNAME
  2

  9
$PUCSORG
 10
0.0
 20
0.0
 30
0.0
  9
$PUCSXDIR
 10
1.0
 20
0.0
 30
0.0
  9
$PUCSYDIR
 10
0.0
 20
1.0
 30
0.0
  9
$PUCSORTHOREF
  2

  9
$PUCSORTHOVIEW
 70
     0
  9
$PUCSORGTOP
 10
0.0
 20
0.0
 30
0.0
  9
$PUCSORGBOTTOM
 10
0.0
 20
0.0
 30
0.0
  9
$PUCSORGLEFT
 10
0.0
 20
0.0
 30
0.0
  9
$PUCSORGRIGHT
 10
0.0
 20
0.0
 30
0.0
  9
$PUCSORGFRONT
 10
0.0
 20
0.0
 30
0.0
  9
$PUCSORGBACK
 10
0.0
 20
0.0
 30
0.0
  9
$USERI1
 70
     0
  9
$USERI2
 70
     0
  9
$USERI3
 70
     0
  9
$USERI4
 70
     0
  9
$USERI5
 70
     0
  9
$USERR1
 40
0.0
  9
$USERR2
 40
0.0
  9
$USERR3
 40
0.0
  9
$USERR4
 40
0.0
  9
$USERR5
 40
0.0
  9
$WORLDVIEW
 70
     1
  9
$SHADEDGE
 70
     3
  9
$SHADEDIF
 70
    70
  9
$TILEMODE
 70
     1
  9
$MAXACTVP
 70
    16
  9
$PINSBASE
 10
0.0
 20
0.0
 30
0.0
  9
$PLIMCHECK
 70
     0
  9
$PEXTMIN
 10
1.000000E+20
 20
1.000000E+20
 30
1.000000E+20
  9
$PEXTMAX
 10
-1.000000E+20
 20
-1.000000E+20
 30
-1.000000E+20
  9
$PLIMMIN
 10
0.0
 20
0.0
  9
$PLIMMAX
 10
12.0
 20
9.0
  9
$UNITMODE
 70
     0
  9
$VISRETAIN
 70
     0
  9
$PLINEGEN
 70
     1
  9
$PSLTSCALE
 70
     0
  9
$TREEDEPTH
 70
  3020
  9
$CMLSTYLE
  2
Standard
  9
$CMLJUST
 70
     0
  9
$CMLSCALE
 40
1.0
  9
$PROXYGRAPHICS
 70
     0
  9
$MEASUREMENT
 70
     0
  9
$CELWEIGHT
370
     0
  9
$ENDCAPS
280
     0
  9
$JOINSTYLE
280
     0
  9
$LWDISPLAY
290
     0
  9
$INSUNITS
 70
     0
  9
$HYPERLINKBASE
  1

  9
$STYLESHEET
  1

  9
$XEDIT
290
     1
  9
$CEPSNTYPE
380
     0
  9
$PSTYLEMODE
290
     1
  9
$FINGERPRINTGUID
  2

  9
$VERSIONGUID
  2

  9
$EXTNAMES
290
     1
  9
$PSVPSCALE
 40
0.0
  0
ENDSEC
  0
SECTION
  2
CLASSES
  0
CLASS
  1
LWPOLYLINE
  2
AcDbPolyline
  3
AutoCAD 2000
 90
        0
280
     0
281
     1
  0
CLASS
  1
IMAGE
  2
AcDbRasterImage
  3
ISM
 90
      127
280
     0
281
     1
  0
CLASS
  1
OLE2FRAME
  2
AcDbOle2Frame
  3
AutoCAD 2000
 90
        0
280
     0
281
     1
  0
CLASS
  1
HATCH
  2
AcDbHatch
  3
AutoCAD 2000
 90
        0
280
     0
281
     1
  0
CLASS
  1
DICTIONARYVAR
  2
AcDbDictionaryVar
  3
AutoCAD 2000
 90
        0
280
     0
281
     0
  0
CLASS
  1
RASTERVARIABLES
  2
AcDbRasterVariables
  3
ISM
 90
        0
280
     0
281
     0
  0
CLASS
  1
IMAGEDEF
  2
AcDbRasterImageDef
  3
ISM
 90
        0
280
     0
281
     0
  0
CLASS
  1
IMAGEDEF_REACTOR
  2
AcDbRasterImageDefReactor
  3
ISM
 90
        1
280
     0
281
     0
  0
CLASS
  1
IDBUFFER
  2
AcDbIdBuffer
  3
AutoCAD 2000
 90
        0
280
     0
281
     0
  0
CLASS
  1
SPATIAL_FILTER
  2
AcDbSpatialFilter
  3
AutoCAD 2000
 90
        0
280
     0
281
     0
  0
CLASS
  1
XRECORD
  2
AcDbXrecord
  3
AutoCAD 2000
 90
        0
280
     0
281
     0
  0
CLASS
  1
SORTENTSTABLE
  2
AcDbSortentsTable
  3
AutoCAD 2000
 90
        0
280
     0
281
     0
  0
CLASS
  1
LAYER_INDEX
  2
AcDbLayerIndex
  3
AutoCAD 2000
 90
        0
280
     0
281
     0
  0
CLASS
  1
SPATIAL_INDEX
  2
AcDbSpatialIndex
  3
AutoCAD 2000
 90
        0
280
     0
281
     0
  0
CLASS
  1
OBJECT_PTR
  2
CAseDLPNTableRecord
  3
"ASE-LPNTableRecord"
 90
        1
280
     0
281
     0
  0
CLASS
  1
LAYOUT
  2
AcDbLayout
  3
AutoCAD 2000
 90
        0
280
     0
281
     0
  0
CLASS
  1
PLOTSETTINGS
  2
AcDbPlotSettings
  3
AutoCAD 2000
 90
        0
280
     0
281
     0
  0
CLASS
  1
ACDBDICTIONARYWDFLT
  2
AcDbDictionaryWithDefault
  3
AutoCAD 2000
 90
        0
280
     0
281
     0
  0
CLASS
  1
ACDBPLACEHOLDER
  2
AcDbPlaceHolder
  3
AutoCAD 2000
 90
        0
280
     0
281
     0
  0
CLASS
  1
VBA_PROJECT
  2
AcDbVbaProject
  3
acadvba
 90
        0
280
     0
281
     0
  0
CLASS
  1
WIPEOUT
  2
AcDbWipeout
  3
WipeOut|AutoCAD Express Tool|expresstools@autodesk.com
 90
      127
280
     0
281
     1
  0
CLASS
  1
WIPEOUTVARIABLES
  2
AcDbWipeoutVariables
  3
WipeOut|AutoCAD Express Tool|expresstools@autodesk.com
 90
        0
280
     0
281
     0
  0
CLASS
  1
RTEXT
  2
RText
  3
RText|AutoCAD Express Tool|expresstools@autodesk.com
 90
        0
280
     0
281
     1
  0
CLASS
  1
ARCALIGNEDTEXT
  2
AcDbArcAlignedText
  3
ATEXT|AutoCAD Express Tool|expresstools@autodesk.com
 90
        0
280
     0
281
     1
  0
ENDSEC
  0
SECTION
  2
TABLES
  0
TABLE
  2
VPORT
  5
7
100
AcDbSymbolTable
 70
     1
  0
VPORT
  5
15
100
AcDbSymbolTableRecord
100
AcDbViewportTableRecord
  2
*ACTIVE
 70
     0
 10
0.0
 20
0.0
 11
1.0
 21
1.0
 12
6.591288
 22
4.579184
 13
0.0
 23
0.0
 14
1.0
 24
1.0
 15
0.0
 25
0.0
 16
0.0
 26
0.0
 36
1.0
 17
0.0
 27
0.0
 37
0.0
 40
9.158369
 41
0.688564
 42
50.0
 43
0.0
 44
0.0
 50
0.0
 51
0.0
 71
     0
 72
   100
 73
     1
 74
     1
 75
     0
 76
     0
 77
     0
 78
     0
281
     0
 65
     0
110
0.0
120
0.0
130
0.0
111
1.0
121
0.0
131
0.0
112
0.0
122
1.0
132
0.0
345
0
346
0
 79
     0
146
0.0
  0
ENDTAB
  0
TABLE
  2
LTYPE
  5
4
100
AcDbSymbolTable
 70
     5
  0
LTYPE
  5
11
100
AcDbSymbolTableRecord
100
AcDbLinetypeTableRecord
  2
ByBlock
 70
    64
  3

 72
    65
 73
     0
 40
0.0
  0
LTYPE
  5
12
100
AcDbSymbolTableRecord
100
AcDbLinetypeTableRecord
  2
ByLayer
 70
    64
  3

 72
    65
 73
     0
 40
0.0
  0
LTYPE
  5
13
100
AcDbSymbolTableRecord
100
AcDbLinetypeTableRecord
  2
Continuous
 70
    64
  3
Solid line
 72
    65
 73
     0
 40
0.0
  0
LTYPE
  5
CA
100
AcDbSymbolTableRecord
100
AcDbLinetypeTableRecord
  2
DOT
 70
    64
  3
..............................................
 72
    65
 73
     2
 40
0.5
 49
0.25
 74
     0
 49
-0.25
 74
     0
  0
LTYPE
  5
53E
100
AcDbSymbolTableRecord
100
AcDbLinetypeTableRecord
  2
CENTER
 70
    64
  3
____ _ ____ _ ____ _ ____ _ ____ _ ____ _ ____
 72
    65
 73
     4
 40
2.0
 49
1.25
 74
     0
 49
-0.25
 74
     0
 49
0.25
 74
     0
 49
-0.25
 74
     0
  0
ENDTAB
  0
TABLE
  2
LAYER
  5
2
100
AcDbSymbolTable
 70
     3
  0
LAYER
  5
14
100
AcDbSymbolTableRecord
100
AcDbLayerTableRecord
  2
0
 70
     0
 62
     7
  6
Continuous
290
     1
370
    -3
390
1D
  0
LAYER
  5
27
100
AcDbSymbolTableRecord
100
AcDbLayerTableRecord
  2
256
 70
     0
 62
     7
  6
Continuous
290
     1
370
    -3
390
1D
  0
LAYER
  5
B8
100
AcDbSymbolTableRecord
100
AcDbLayerTableRecord
  2
1
 70
     0
 62
     7
  6
Continuous
290
     1
370
    -3
390
1D
  0
ENDTAB
  0
TABLE
  2
STYLE
  5
3
100
AcDbSymbolTable
 70
     1
  0
STYLE
  5
17
100
AcDbSymbolTableRecord
100
AcDbTextStyleTableRecord
  2
Standard
 70
     0
 40
0.0
 41
1.0
 50
0.0
 71
     0
 42
0.0
  3
ＭＳ Ｐゴシック
  4

1001
ACAD
1000
ＭＳ Ｐゴシック
1071
        0
  0
ENDTAB
  0
TABLE
  2
VIEW
  5
5
100
AcDbSymbolTable
 70
     0
  0
ENDTAB
  0
TABLE
  2
UCS
  5
6
100
AcDbSymbolTable
 70
     0
  0
ENDTAB
  0
TABLE
  2
APPID
  5
8
100
AcDbSymbolTable
 70
     2
  0
APPID
  5
16
100
AcDbSymbolTableRecord
100
AcDbRegAppTableRecord
  2
ACAD
 70
     0
  0
APPID
  5
26
100
AcDbSymbolTableRecord
100
AcDbRegAppTableRecord
  2
TOPsolid_Design
 70
     0
  0
ENDTAB
  0
TABLE
  2
DIMSTYLE
  5
9
100
AcDbSymbolTable
 70
     1
100
AcDbDimStyleTable
 71
     0
  0
DIMSTYLE
105
18
100
AcDbSymbolTableRecord
100
AcDbDimStyleTableRecord
  2
Standard
 70
     0
  3

  4

 40
1.0
 41
3.2
 42
3.2
 43
0.38
 44
2.4
 45
0.0
 46
0.0
 47
0.0
 48
0.0
 71
     0
 72
     0
 73
     0
 74
     0
 75
     0
 76
     0
 77
     1
 78
     0
 79
     0
140
8.0
141
0.09
142
0.0
143
25.4
144
1.0
145
0.0
146
0.6
147
4.0
148
0.0
170
     0
171
     2
172
     0
173
     0
174
     0
175
     0
176
     7
177
     7
178
     7
179
     0
271
     6
272
     4
273
     2
274
     2
275
     0
276
     0
277
     2
278
    46
279
     0
280
     0
281
     0
282
     0
283
     1
284
     0
285
     0
286
     0
288
     0
289
     3
340
17
341
0
342
0
343
0
344
0
371
    -2
372
    -2
  0
ENDTAB
  0
TABLE
  2
BLOCK_RECORD
  5
1
100
AcDbSymbolTable
 70
    13
  0
BLOCK_RECORD
  5
A
100
AcDbSymbolTableRecord
100
AcDbBlockTableRecord
  2
*MODEL_SPACE
340
20
  0
BLOCK_RECORD
  5
B
100
AcDbSymbolTableRecord
100
AcDbBlockTableRecord
  2
*PAPER_SPACE
340
21
  0
BLOCK_RECORD
  5
B3
100
AcDbSymbolTableRecord
100
AcDbBlockTableRecord
  2
AID278
340
0
102
{BLKREFS
331
B7
102
}
  0
BLOCK_RECORD
  5
554
100
AcDbSymbolTableRecord
100
AcDbBlockTableRecord
  2
AID2089
340
0
102
{BLKREFS
331
565
102
}
  0
BLOCK_RECORD
  5
566
100
AcDbSymbolTableRecord
100
AcDbBlockTableRecord
  2
AID2102
340
0
102
{BLKREFS
331
577
102
}
  0
BLOCK_RECORD
  5
578
100
AcDbSymbolTableRecord
100
AcDbBlockTableRecord
  2
AID2115
340
0
102
{BLKREFS
331
589
102
}
  0
BLOCK_RECORD
  5
58A
100
AcDbSymbolTableRecord
100
AcDbBlockTableRecord
  2
AID2128
340
0
102
{BLKREFS
331
59B
102
}
  0
BLOCK_RECORD
  5
59C
100
AcDbSymbolTableRecord
100
AcDbBlockTableRecord
  2
AID2141
340
0
102
{BLKREFS
331
5AD
102
}
  0
BLOCK_RECORD
  5
5AE
100
AcDbSymbolTableRecord
100
AcDbBlockTableRecord
  2
AID2154
340
0
102
{BLKREFS
331
5BF
102
}
  0
BLOCK_RECORD
  5
5C0
100
AcDbSymbolTableRecord
100
AcDbBlockTableRecord
  2
AID2167
340
0
102
{BLKREFS
331
5CD
102
}
  0
BLOCK_RECORD
  5
5CE
100
AcDbSymbolTableRecord
100
AcDbBlockTableRecord
  2
AID2180
340
0
102
{BLKREFS
331
5DF
102
}
  0
BLOCK_RECORD
  5
5E0
100
AcDbSymbolTableRecord
100
AcDbBlockTableRecord
  2
AID2193
340
0
102
{BLKREFS
331
5F1
102
}
  0
BLOCK_RECORD
  5
5F2
100
AcDbSymbolTableRecord
100
AcDbBlockTableRecord
  2
AID2206
340
0
102
{BLKREFS
331
5F6
102
}
  0
BLOCK_RECORD
  5
5F7
100
AcDbSymbolTableRecord
100
AcDbBlockTableRecord
  2
AID2209
340
0
102
{BLKREFS
331
5FB
102
}
  0
BLOCK_RECORD
  5
5FC
100
AcDbSymbolTableRecord
100
AcDbBlockTableRecord
  2
AID2212
340
0
102
{BLKREFS
331
600
102
}
  0
ENDTAB
  0
ENDSEC
  0
SECTION
  2
BLOCKS
  0
BLOCK
  5
D
100
AcDbEntity
  8
0
390
0
100
AcDbBlockBegin
  2
*MODEL_SPACE
 70
     0
 10
0.0
 20
0.0
 30
0.0
  3
*MODEL_SPACE
  1

  0
ENDBLK
  5
E
100
AcDbEntity
  8
0
390
0
100
AcDbBlockEnd
  0
BLOCK
  5
F
100
AcDbEntity
 67
     1
  8
0
390
0
100
AcDbBlockBegin
  2
*PAPER_SPACE
 70
     0
 10
0.0
 20
0.0
 30
0.0
  3
*PAPER_SPACE
  1

  0
ENDBLK
  5
10
100
AcDbEntity
 67
     1
  8
0
390
0
100
AcDbBlockEnd
  0
BLOCK
  5
B4
100
AcDbEntity
  8
0
390
0
100
AcDbBlockBegin
  2
AID278
 70
     0
 10
0.0
 20
0.0
 30
0.0
  3
D_GROUP
  1

  0
MTEXT
  5
B5
100
AcDbEntity
  8
256
390
0
 62
     7
100
AcDbMText
 10
406.171318
 20
6.951938
 30
0.0
 40
3.0
 41
7.472727
 71
     7
 72
     1
  1
A3
210
0.0
220
0.0
230
1.0
 73
     1
 44
1.0
  0
ENDBLK
  5
B6
100
AcDbEntity
  8
0
390
0
100
AcDbBlockEnd
  0
BLOCK
  5
555
100
AcDbEntity
  8
0
390
0
100
AcDbBlockBegin
  2
AID2089
 70
     0
 10
0.0
 20
0.0
 30
0.0
  3
D_GROUP
  1

  0
MTEXT
  5
556
100
AcDbEntity
  8
1
390
0
 62
     2
100
AcDbMText
 10
136.789115
 20
229.239909
 30
0.0
 40
6.0
 41
12.490909
 71
     7
 72
     1
  1
95
210
0.0
220
0.0
230
1.0
 73
     1
 44
1.0
  0
LINE
  5
557
100
AcDbEntity
  8
1
390
0
  6
Continuous
 62
    11
100
AcDbLine
 10
187.79366
 20
228.067181
 30
0.0
 11
92.79366
 21
228.067181
 31
0.0
  0
LINE
  5
558
100
AcDbEntity
  8
1
390
0
  6
Continuous
 62
    11
100
AcDbLine
 10
187.79366
 20
215.027001
 30
0.0
 11
187.79366
 21
229.867181
 31
0.0
  0
LINE
  5
559
100
AcDbEntity
  8
1
390
0
  6
Continuous
 62
    11
100
AcDbLine
 10
92.79366
 20
215.027001
 30
0.0
 11
92.79366
 21
229.867181
 31
0.0
  0
POLYLINE
  5
55A
100
AcDbEntity
  8
1
390
0
  6
Continuous
 62
    11
100
AcDb2dPolyline
 66
     1
 10
0.0
 20
0.0
 30
0.0
 40
3.0
 41
3.0
  0
VERTEX
  5
55B
100
AcDbEntity
  8
1
390
0
 62
    11
100
AcDbVertex
100
AcDb2dVertex
 10
183.29366
 20
228.967181
 30
0.0
  0
VERTEX
  5
55C
100
AcDbEntity
  8
1
390
0
 62
    11
100
AcDbVertex
100
AcDb2dVertex
 10
187.79366
 20
228.067181
 30
0.0
  0
VERTEX
  5
55D
100
AcDbEntity
  8
1
390
0
 62
    11
100
AcDbVertex
100
AcDb2dVertex
 10
183.29366
 20
227.167181
 30
0.0
  0
SEQEND
  5
55E
100
AcDbEntity
  8
0
390
0
  0
POLYLINE
  5
55F
100
AcDbEntity
  8
1
390
0
  6
Continuous
 62
    11
100
AcDb2dPolyline
 66
     1
 10
0.0
 20
0.0
 30
0.0
 40
3.0
 41
3.0
  0
VERTEX
  5
560
100
AcDbEntity
  8
1
390
0
 62
    11
100
AcDbVertex
100
AcDb2dVertex
 10
97.29366
 20
227.167181
 30
0.0
  0
VERTEX
  5
561
100
AcDbEntity
  8
1
390
0
 62
    11
100
AcDbVertex
100
AcDb2dVertex
 10
92.79366
 20
228.067181
 30
0.0
  0
VERTEX
  5
562
100
AcDbEntity
  8
1
390
0
 62
    11
100
AcDbVertex
100
AcDb2dVertex
 10
97.29366
 20
228.967181
 30
0.0
  0
SEQEND
  5
563
100
AcDbEntity
  8
0
390
0
  0
ENDBLK
  5
564
100
AcDbEntity
  8
0
390
0
100
AcDbBlockEnd
  0
BLOCK
  5
567
100
AcDbEntity
  8
0
390
0
100
AcDbBlockBegin
  2
AID2102
 70
     0
 10
0.0
 20
0.0
 30
0.0
  3
D_GROUP
  1

  0
MTEXT
  5
568
100
AcDbEntity
  8
1
390
0
 62
     2
100
AcDbMText
 10
134.811842
 20
239.317428
 30
0.0
 40
6.0
 41
18.981818
 71
     7
 72
     1
  1
110
210
0.0
220
0.0
230
1.0
 73
     1
 44
1.0
  0
LINE
  5
569
100
AcDbEntity
  8
1
390
0
  6
Continuous
 62
    11
100
AcDbLine
 10
195.29366
 20
238.171973
 30
0.0
 11
85.29366
 21
238.171973
 31
0.0
  0
LINE
  5
56A
100
AcDbEntity
  8
1
390
0
  6
Continuous
 62
    11
100
AcDbLine
 10
195.29366
 20
185.127001
 30
0.0
 11
195.29366
 21
239.971973
 31
0.0
  0
LINE
  5
56B
100
AcDbEntity
  8
1
390
0
  6
Continuous
 62
    11
100
AcDbLine
 10
85.29366
 20
211.127001
 30
0.0
 11
85.29366
 21
239.971973
 31
0.0
  0
POLYLINE
  5
56C
100
AcDbEntity
  8
1
390
0
  6
Continuous
 62
    11
100
AcDb2dPolyline
 66
     1
 10
0.0
 20
0.0
 30
0.0
 40
3.0
 41
3.0
  0
VERTEX
  5
56D
100
AcDbEntity
  8
1
390
0
 62
    11
100
AcDbVertex
100
AcDb2dVertex
 10
190.79366
 20
239.071973
 30
0.0
  0
VERTEX
  5
56E
100
AcDbEntity
  8
1
390
0
 62
    11
100
AcDbVertex
100
AcDb2dVertex
 10
195.29366
 20
238.171973
 30
0.0
  0
VERTEX
  5
56F
100
AcDbEntity
  8
1
390
0
 62
    11
100
AcDbVertex
100
AcDb2dVertex
 10
190.79366
 20
237.271973
 30
0.0
  0
SEQEND
  5
570
100
AcDbEntity
  8
0
390
0
  0
POLYLINE
  5
571
100
AcDbEntity
  8
1
390
0
  6
Continuous
 62
    11
100
AcDb2dPolyline
 66
     1
 10
0.0
 20
0.0
 30
0.0
 40
3.0
 41
3.0
  0
VERTEX
  5
572
100
AcDbEntity
  8
1
390
0
 62
    11
100
AcDbVertex
100
AcDb2dVertex
 10
89.79366
 20
237.271973
 30
0.0
  0
VERTEX
  5
573
100
AcDbEntity
  8
1
390
0
 62
    11
100
AcDbVertex
100
AcDb2dVertex
 10
85.29366
 20
238.171973
 30
0.0
  0
VERTEX
  5
574
100
AcDbEntity
  8
1
390
0
 62
    11
100
AcDbVertex
100
AcDb2dVertex
 10
89.79366
 20
239.071973
 30
0.0
  0
SEQEND
  5
575
100
AcDbEntity
  8
0
390
0
  0
ENDBLK
  5
576
100
AcDbEntity
  8
0
390
0
100
AcDbBlockEnd
  0
BLOCK
  5
579
100
AcDbEntity
  8
0
390
0
100
AcDbBlockBegin
  2
AID2115
 70
     0
 10
0.0
 20
0.0
 30
0.0
  3
D_GROUP
  1

  0
MTEXT
  5
57A
100
AcDbEntity
  8
1
390
0
 62
     2
100
AcDbMText
 10
134.866388
 20
249.842782
 30
0.0
 40
6.0
 41
18.763636
 71
     7
 72
     1
  1
122
210
0.0
220
0.0
230
1.0
 73
     1
 44
1.0
  0
LINE
  5
57B
100
AcDbEntity
  8
1
390
0
  6
Continuous
 62
    11
100
AcDbLine
 10
201.29366
 20
248.7246
 30
0.0
 11
79.29366
 21
248.7246
 31
0.0
  0
LINE
  5
57C
100
AcDbEntity
  8
1
390
0
  6
Continuous
 62
    11
100
AcDbLine
 10
201.29366
 20
211.827001
 30
0.0
 11
201.29366
 21
250.5246
 31
0.0
  0
LINE
  5
57D
100
AcDbEntity
  8
1
390
0
  6
Continuous
 62
    11
100
AcDbLine
 10
79.29366
 20
211.827001
 30
0.0
 11
79.29366
 21
250.5246
 31
0.0
  0
POLYLINE
  5
57E
100
AcDbEntity
  8
1
390
0
  6
Continuous
 62
    11
100
AcDb2dPolyline
 66
     1
 10
0.0
 20
0.0
 30
0.0
 40
3.0
 41
3.0
  0
VERTEX
  5
57F
100
AcDbEntity
  8
1
390
0
 62
    11
100
AcDbVertex
100
AcDb2dVertex
 10
196.79366
 20
249.6246
 30
0.0
  0
VERTEX
  5
580
100
AcDbEntity
  8
1
390
0
 62
    11
100
AcDbVertex
100
AcDb2dVertex
 10
201.29366
 20
248.7246
 30
0.0
  0
VERTEX
  5
581
100
AcDbEntity
  8
1
390
0
 62
    11
100
AcDbVertex
100
AcDb2dVertex
 10
196.79366
 20
247.8246
 30
0.0
  0
SEQEND
  5
582
100
AcDbEntity
  8
0
390
0
  0
POLYLINE
  5
583
100
AcDbEntity
  8
1
390
0
  6
Continuous
 62
    11
100
AcDb2dPolyline
 66
     1
 10
0.0
 20
0.0
 30
0.0
 40
3.0
 41
3.0
  0
VERTEX
  5
584
100
AcDbEntity
  8
1
390
0
 62
    11
100
AcDbVertex
100
AcDb2dVertex
 10
83.79366
 20
247.8246
 30
0.0
  0
VERTEX
  5
585
100
AcDbEntity
  8
1
390
0
 62
    11
100
AcDbVertex
100
AcDb2dVertex
 10
79.29366
 20
248.7246
 30
0.0
  0
VERTEX
  5
586
100
AcDbEntity
  8
1
390
0
 62
    11
100
AcDbVertex
100
AcDb2dVertex
 10
83.79366
 20
249.6246
 30
0.0
  0
SEQEND
  5
587
100
AcDbEntity
  8
0
390
0
  0
ENDBLK
  5
588
100
AcDbEntity
  8
0
390
0
100
AcDbBlockEnd
  0
BLOCK
  5
58B
100
AcDbEntity
  8
0
390
0
100
AcDbBlockBegin
  2
AID2128
 70
     0
 10
0.0
 20
0.0
 30
0.0
  3
D_GROUP
  1

  0
MTEXT
  5
58C
100
AcDbEntity
  8
1
390
0
 62
     2
100
AcDbMText
 10
212.269797
 20
189.749728
 30
0.0
 40
6.0
 41
12.490909
 71
     7
 72
     1
  1
26
210
0.0
220
0.0
230
1.0
 11
0.0
 21
1.0
 31
0.0
 73
     1
 44
1.0
  0
LINE
  5
58D
100
AcDbEntity
  8
1
390
0
  6
Continuous
 62
    11
100
AcDbLine
 10
213.442524
 20
206.227001
 30
0.0
 11
213.442524
 21
180.227001
 31
0.0
  0
LINE
  5
58E
100
AcDbEntity
  8
1
390
0
  6
Continuous
 62
    11
100
AcDbLine
 10
90.19366
 20
206.227001
 30
0.0
 11
215.242524
 21
206.227001
 31
0.0
  0
LINE
  5
58F
100
AcDbEntity
  8
1
390
0
  6
Continuous
 62
    11
100
AcDbLine
 10
200.19366
 20
180.227001
 30
0.0
 11
215.242524
 21
180.227001
 31
0.0
  0
POLYLINE
  5
590
100
AcDbEntity
  8
1
390
0
  6
Continuous
 62
    11
100
AcDb2dPolyline
 66
     1
 10
0.0
 20
0.0
 30
0.0
 40
3.0
 41
3.0
  0
VERTEX
  5
591
100
AcDbEntity
  8
1
390
0
 62
    11
100
AcDbVertex
100
AcDb2dVertex
 10
212.542524
 20
201.727001
 30
0.0
  0
VERTEX
  5
592
100
AcDbEntity
  8
1
390
0
 62
    11
100
AcDbVertex
100
AcDb2dVertex
 10
213.442524
 20
206.227001
 30
0.0
  0
VERTEX
  5
593
100
AcDbEntity
  8
1
390
0
 62
    11
100
AcDbVertex
100
AcDb2dVertex
 10
214.342524
 20
201.727001
 30
0.0
  0
SEQEND
  5
594
100
AcDbEntity
  8
0
390
0
  0
POLYLINE
  5
595
100
AcDbEntity
  8
1
390
0
  6
Continuous
 62
    11
100
AcDb2dPolyline
 66
     1
 10
0.0
 20
0.0
 30
0.0
 40
3.0
 41
3.0
  0
VERTEX
  5
596
100
AcDbEntity
  8
1
390
0
 62
    11
100
AcDbVertex
100
AcDb2dVertex
 10
214.342524
 20
184.727001
 30
0.0
  0
VERTEX
  5
597
100
AcDbEntity
  8
1
390
0
 62
    11
100
AcDbVertex
100
AcDb2dVertex
 10
213.442524
 20
180.227001
 30
0.0
  0
VERTEX
  5
598
100
AcDbEntity
  8
1
390
0
 62
    11
100
AcDbVertex
100
AcDb2dVertex
 10
212.542524
 20
184.727001
 30
0.0
  0
SEQEND
  5
599
100
AcDbEntity
  8
0
390
0
  0
ENDBLK
  5
59A
100
AcDbEntity
  8
0
390
0
100
AcDbBlockEnd
  0
BLOCK
  5
59D
100
AcDbEntity
  8
0
390
0
100
AcDbBlockBegin
  2
AID2141
 70
     0
 10
0.0
 20
0.0
 30
0.0
  3
D_GROUP
  1

  0
MTEXT
  5
59E
100
AcDbEntity
  8
1
390
0
 62
     2
100
AcDbMText
 10
222.595136
 20
187.295183
 30
0.0
 40
6.0
 41
22.309091
 71
     7
 72
     1
  1
39.6
210
0.0
220
0.0
230
1.0
 11
0.0
 21
1.0
 31
0.0
 73
     1
 44
1.0
  0
LINE
  5
59F
100
AcDbEntity
  8
1
390
0
  6
Continuous
 62
    11
100
AcDbLine
 10
223.767864
 20
213.027001
 30
0.0
 11
223.767864
 21
173.427001
 31
0.0
  0
LINE
  5
5A0
100
AcDbEntity
  8
1
390
0
  6
Continuous
 62
    11
100
AcDbLine
 10
200.09366
 20
213.027001
 30
0.0
 11
225.567864
 21
213.027001
 31
0.0
  0
LINE
  5
5A1
100
AcDbEntity
  8
1
390
0
  6
Continuous
 62
    11
100
AcDbLine
 10
200.09366
 20
173.427001
 30
0.0
 11
225.567864
 21
173.427001
 31
0.0
  0
POLYLINE
  5
5A2
100
AcDbEntity
  8
1
390
0
  6
Continuous
 62
    11
100
AcDb2dPolyline
 66
     1
 10
0.0
 20
0.0
 30
0.0
 40
3.0
 41
3.0
  0
VERTEX
  5
5A3
100
AcDbEntity
  8
1
390
0
 62
    11
100
AcDbVertex
100
AcDb2dVertex
 10
222.867864
 20
208.527001
 30
0.0
  0
VERTEX
  5
5A4
100
AcDbEntity
  8
1
390
0
 62
    11
100
AcDbVertex
100
AcDb2dVertex
 10
223.767864
 20
213.027001
 30
0.0
  0
VERTEX
  5
5A5
100
AcDbEntity
  8
1
390
0
 62
    11
100
AcDbVertex
100
AcDb2dVertex
 10
224.667864
 20
208.527001
 30
0.0
  0
SEQEND
  5
5A6
100
AcDbEntity
  8
0
390
0
  0
POLYLINE
  5
5A7
100
AcDbEntity
  8
1
390
0
  6
Continuous
 62
    11
100
AcDb2dPolyline
 66
     1
 10
0.0
 20
0.0
 30
0.0
 40
3.0
 41
3.0
  0
VERTEX
  5
5A8
100
AcDbEntity
  8
1
390
0
 62
    11
100
AcDbVertex
100
AcDb2dVertex
 10
224.667864
 20
177.927001
 30
0.0
  0
VERTEX
  5
5A9
100
AcDbEntity
  8
1
390
0
 62
    11
100
AcDbVertex
100
AcDb2dVertex
 10
223.767864
 20
173.427001
 30
0.0
  0
VERTEX
  5
5AA
100
AcDbEntity
  8
1
390
0
 62
    11
100
AcDbVertex
100
AcDb2dVertex
 10
222.867864
 20
177.927001
 30
0.0
  0
SEQEND
  5
5AB
100
AcDbEntity
  8
0
390
0
  0
ENDBLK
  5
5AC
100
AcDbEntity
  8
0
390
0
100
AcDbBlockEnd
  0
BLOCK
  5
5AF
100
AcDbEntity
  8
0
390
0
100
AcDbBlockBegin
  2
AID2154
 70
     0
 10
0.0
 20
0.0
 30
0.0
  3
D_GROUP
  1

  0
MTEXT
  5
5B0
100
AcDbEntity
  8
1
390
0
 62
     2
100
AcDbMText
 10
233.169839
 20
189.790637
 30
0.0
 40
6.0
 41
12.763636
 71
     7
 72
     1
  1
42
210
0.0
220
0.0
230
1.0
 11
0.0
 21
1.0
 31
0.0
 73
     1
 44
1.0
  0
LINE
  5
5B1
100
AcDbEntity
  8
1
390
0
  6
Continuous
 62
    11
100
AcDbLine
 10
234.288021
 20
214.227001
 30
0.0
 11
234.288021
 21
172.227001
 31
0.0
  0
LINE
  5
5B2
100
AcDbEntity
  8
1
390
0
  6
Continuous
 62
    11
100
AcDbLine
 10
188.59366
 20
214.227001
 30
0.0
 11
236.088021
 21
214.227001
 31
0.0
  0
LINE
  5
5B3
100
AcDbEntity
  8
1
390
0
  6
Continuous
 62
    11
100
AcDbLine
 10
188.59366
 20
172.227001
 30
0.0
 11
236.088021
 21
172.227001
 31
0.0
  0
POLYLINE
  5
5B4
100
AcDbEntity
  8
1
390
0
  6
Continuous
 62
    11
100
AcDb2dPolyline
 66
     1
 10
0.0
 20
0.0
 30
0.0
 40
3.0
 41
3.0
  0
VERTEX
  5
5B5
100
AcDbEntity
  8
1
390
0
 62
    11
100
AcDbVertex
100
AcDb2dVertex
 10
233.388021
 20
209.727001
 30
0.0
  0
VERTEX
  5
5B6
100
AcDbEntity
  8
1
390
0
 62
    11
100
AcDbVertex
100
AcDb2dVertex
 10
234.288021
 20
214.227001
 30
0.0
  0
VERTEX
  5
5B7
100
AcDbEntity
  8
1
390
0
 62
    11
100
AcDbVertex
100
AcDb2dVertex
 10
235.188021
 20
209.727001
 30
0.0
  0
SEQEND
  5
5B8
100
AcDbEntity
  8
0
390
0
  0
POLYLINE
  5
5B9
100
AcDbEntity
  8
1
390
0
  6
Continuous
 62
    11
100
AcDb2dPolyline
 66
     1
 10
0.0
 20
0.0
 30
0.0
 40
3.0
 41
3.0
  0
VERTEX
  5
5BA
100
AcDbEntity
  8
1
390
0
 62
    11
100
AcDbVertex
100
AcDb2dVertex
 10
235.188021
 20
176.727001
 30
0.0
  0
VERTEX
  5
5BB
100
AcDbEntity
  8
1
390
0
 62
    11
100
AcDbVertex
100
AcDb2dVertex
 10
234.288021
 20
172.227001
 30
0.0
  0
VERTEX
  5
5BC
100
AcDbEntity
  8
1
390
0
 62
    11
100
AcDbVertex
100
AcDb2dVertex
 10
233.388021
 20
176.727001
 30
0.0
  0
SEQEND
  5
5BD
100
AcDbEntity
  8
0
390
0
  0
ENDBLK
  5
5BE
100
AcDbEntity
  8
0
390
0
100
AcDbBlockEnd
  0
BLOCK
  5
5C1
100
AcDbEntity
  8
0
390
0
100
AcDbBlockBegin
  2
AID2167
 70
     0
 10
0.0
 20
0.0
 30
0.0
  3
D_GROUP
  1

  0
MTEXT
  5
5C2
100
AcDbEntity
  8
1
390
0
 62
     2
100
AcDbMText
 10
47.443761
 20
223.596118
 30
0.0
 40
6.0
 41
12.872727
 71
     7
 72
     1
  1
2-
210
0.0
220
0.0
230
1.0
 73
     1
 44
1.0
  0
MTEXT
  5
5C3
100
AcDbEntity
  8
1
390
0
 62
     2
100
AcDbMText
 10
55.434671
 20
223.596118
 30
0.0
 40
6.0
 41
9.490909
 71
     7
 72
     1
  1
Φ
210
0.0
220
0.0
230
1.0
 73
     1
 44
1.0
  0
MTEXT
  5
5C4
100
AcDbEntity
  8
1
390
0
 62
     2
100
AcDbMText
 10
61.380125
 20
223.596118
 30
0.0
 40
6.0
 41
15.6
 71
     7
 72
     1
  1
4.2
210
0.0
220
0.0
230
1.0
 73
     1
 44
1.0
  0
POLYLINE
  5
5C5
100
AcDbEntity
  8
1
390
0
  6
Continuous
 62
    11
100
AcDb2dPolyline
 66
     1
 10
0.0
 20
0.0
 30
0.0
 40
3.0
 41
3.0
  0
VERTEX
  5
5C6
100
AcDbEntity
  8
1
390
0
 62
    11
100
AcDbVertex
100
AcDb2dVertex
 10
80.289827
 20
210.623778
 30
0.0
  0
VERTEX
  5
5C7
100
AcDbEntity
  8
1
390
0
 62
    11
100
AcDbVertex
100
AcDb2dVertex
 10
83.917883
 20
207.813581
 30
0.0
  0
VERTEX
  5
5C8
100
AcDbEntity
  8
1
390
0
 62
    11
100
AcDbVertex
100
AcDb2dVertex
 10
81.649753
 20
211.803015
 30
0.0
  0
SEQEND
  5
5C9
100
AcDbEntity
  8
0
390
0
  0
LINE
  5
5CA
100
AcDbEntity
  8
1
390
0
  6
Continuous
 62
    11
100
AcDbLine
 10
83.917883
 20
207.813581
 30
0.0
 11
71.22558
 21
222.450663
 31
0.0
  0
LINE
  5
5CB
100
AcDbEntity
  8
1
390
0
  6
Continuous
 62
    11
100
AcDbLine
 10
47.198307
 20
222.450663
 30
0.0
 11
71.22558
 21
222.450663
 31
0.0
  0
ENDBLK
  5
5CC
100
AcDbEntity
  8
0
390
0
100
AcDbBlockEnd
  0
BLOCK
  5
5CF
100
AcDbEntity
  8
0
390
0
100
AcDbBlockBegin
  2
AID2180
 70
     0
 10
0.0
 20
0.0
 30
0.0
  3
D_GROUP
  1

  0
MTEXT
  5
5D0
100
AcDbEntity
  8
1
390
0
 62
     2
100
AcDbMText
 10
299.619044
 20
225.143304
 30
0.0
 40
6.0
 41
12.818182
 71
     7
 72
     1
  1
24
210
0.0
220
0.0
230
1.0
 73
     1
 44
1.0
  0
LINE
  5
5D1
100
AcDbEntity
  8
1
390
0
  6
Continuous
 62
    11
100
AcDbLine
 10
315.178135
 20
224.025122
 30
0.0
 11
291.178135
 21
224.025122
 31
0.0
  0
LINE
  5
5D2
100
AcDbEntity
  8
1
390
0
  6
Continuous
 62
    11
100
AcDbLine
 10
315.178135
 20
214.827001
 30
0.0
 11
315.178135
 21
225.825122
 31
0.0
  0
LINE
  5
5D3
100
AcDbEntity
  8
1
390
0
  6
Continuous
 62
    11
100
AcDbLine
 10
291.178135
 20
215.027001
 30
0.0
 11
291.178135
 21
225.825122
 31
0.0
  0
POLYLINE
  5
5D4
100
AcDbEntity
  8
1
390
0
  6
Continuous
 62
    11
100
AcDb2dPolyline
 66
     1
 10
0.0
 20
0.0
 30
0.0
 40
3.0
 41
3.0
  0
VERTEX
  5
5D5
100
AcDbEntity
  8
1
390
0
 62
    11
100
AcDbVertex
100
AcDb2dVertex
 10
310.678135
 20
224.925122
 30
0.0
  0
VERTEX
  5
5D6
100
AcDbEntity
  8
1
390
0
 62
    11
100
AcDbVertex
100
AcDb2dVertex
 10
315.178135
 20
224.025122
 30
0.0
  0
VERTEX
  5
5D7
100
AcDbEntity
  8
1
390
0
 62
    11
100
AcDbVertex
100
AcDb2dVertex
 10
310.678135
 20
223.125122
 30
0.0
  0
SEQEND
  5
5D8
100
AcDbEntity
  8
0
390
0
  0
POLYLINE
  5
5D9
100
AcDbEntity
  8
1
390
0
  6
Continuous
 62
    11
100
AcDb2dPolyline
 66
     1
 10
0.0
 20
0.0
 30
0.0
 40
3.0
 41
3.0
  0
VERTEX
  5
5DA
100
AcDbEntity
  8
1
390
0
 62
    11
100
AcDbVertex
100
AcDb2dVertex
 10
295.678135
 20
223.125122
 30
0.0
  0
VERTEX
  5
5DB
100
AcDbEntity
  8
1
390
0
 62
    11
100
AcDbVertex
100
AcDb2dVertex
 10
291.178135
 20
224.025122
 30
0.0
  0
VERTEX
  5
5DC
100
AcDbEntity
  8
1
390
0
 62
    11
100
AcDbVertex
100
AcDb2dVertex
 10
295.678135
 20
224.925122
 30
0.0
  0
SEQEND
  5
5DD
100
AcDbEntity
  8
0
390
0
  0
ENDBLK
  5
5DE
100
AcDbEntity
  8
0
390
0
100
AcDbBlockEnd
  0
BLOCK
  5
5E1
100
AcDbEntity
  8
0
390
0
100
AcDbBlockBegin
  2
AID2193
 70
     0
 10
0.0
 20
0.0
 30
0.0
  3
D_GROUP
  1

  0
MTEXT
  5
5E2
100
AcDbEntity
  8
1
390
0
 62
     2
100
AcDbMText
 10
293.482681
 20
234.978845
 30
0.0
 40
6.0
 41
22.363636
 71
     7
 72
     1
  1
31.5
210
0.0
220
0.0
230
1.0
 73
     1
 44
1.0
  0
LINE
  5
5E3
100
AcDbEntity
  8
1
390
0
  6
Continuous
 62
    11
100
AcDbLine
 10
315.178135
 20
233.806118
 30
0.0
 11
283.678135
 21
233.806118
 31
0.0
  0
LINE
  5
5E4
100
AcDbEntity
  8
1
390
0
  6
Continuous
 62
    11
100
AcDbLine
 10
315.178135
 20
214.827001
 30
0.0
 11
315.178135
 21
235.606118
 31
0.0
  0
LINE
  5
5E5
100
AcDbEntity
  8
1
390
0
  6
Continuous
 62
    11
100
AcDbLine
 10
283.678135
 20
198.589304
 30
0.0
 11
283.678135
 21
235.606118
 31
0.0
  0
POLYLINE
  5
5E6
100
AcDbEntity
  8
1
390
0
  6
Continuous
 62
    11
100
AcDb2dPolyline
 66
     1
 10
0.0
 20
0.0
 30
0.0
 40
3.0
 41
3.0
  0
VERTEX
  5
5E7
100
AcDbEntity
  8
1
390
0
 62
    11
100
AcDbVertex
100
AcDb2dVertex
 10
310.678135
 20
234.706118
 30
0.0
  0
VERTEX
  5
5E8
100
AcDbEntity
  8
1
390
0
 62
    11
100
AcDbVertex
100
AcDb2dVertex
 10
315.178135
 20
233.806118
 30
0.0
  0
VERTEX
  5
5E9
100
AcDbEntity
  8
1
390
0
 62
    11
100
AcDbVertex
100
AcDb2dVertex
 10
310.678135
 20
232.906118
 30
0.0
  0
SEQEND
  5
5EA
100
AcDbEntity
  8
0
390
0
  0
POLYLINE
  5
5EB
100
AcDbEntity
  8
1
390
0
  6
Continuous
 62
    11
100
AcDb2dPolyline
 66
     1
 10
0.0
 20
0.0
 30
0.0
 40
3.0
 41
3.0
  0
VERTEX
  5
5EC
100
AcDbEntity
  8
1
390
0
 62
    11
100
AcDbVertex
100
AcDb2dVertex
 10
288.178135
 20
232.906118
 30
0.0
  0
VERTEX
  5
5ED
100
AcDbEntity
  8
1
390
0
 62
    11
100
AcDbVertex
100
AcDb2dVertex
 10
283.678135
 20
233.806118
 30
0.0
  0
VERTEX
  5
5EE
100
AcDbEntity
  8
1
390
0
 62
    11
100
AcDbVertex
100
AcDb2dVertex
 10
288.178135
 20
234.706118
 30
0.0
  0
SEQEND
  5
5EF
100
AcDbEntity
  8
0
390
0
  0
ENDBLK
  5
5F0
100
AcDbEntity
  8
0
390
0
100
AcDbBlockEnd
  0
BLOCK
  5
5F3
100
AcDbEntity
  8
0
390
0
100
AcDbBlockBegin
  2
AID2206
 70
     0
 10
0.0
 20
0.0
 30
0.0
  3
D_GROUP
  1

  0
MTEXT
  5
5F4
100
AcDbEntity
  8
1
390
0
 62
     7
100
AcDbMText
 10
355.604559
 20
39.94035
 30
0.0
 40
4.0
 41
96.618182
 71
     7
 72
     1
  1
フローフロント検出アンプ
210
0.0
220
0.0
230
1.0
 73
     1
 44
1.0
  0
ENDBLK
  5
5F5
100
AcDbEntity
  8
0
390
0
100
AcDbBlockEnd
  0
BLOCK
  5
5F8
100
AcDbEntity
  8
0
390
0
100
AcDbBlockBegin
  2
AID2209
 70
     0
 10
0.0
 20
0.0
 30
0.0
  3
D_GROUP
  1

  0
MTEXT
  5
5F9
100
AcDbEntity
  8
1
390
0
 62
     7
100
AcDbMText
 10
373.034622
 20
29.190514
 30
0.0
 40
4.0
 41
20.872727
 71
     7
 72
     1
  1
DIS01
210
0.0
220
0.0
230
1.0
 73
     1
 44
1.0
  0
ENDBLK
  5
5FA
100
AcDbEntity
  8
0
390
0
100
AcDbBlockEnd
  0
BLOCK
  5
5FD
100
AcDbEntity
  8
0
390
0
100
AcDbBlockBegin
  2
AID2212
 70
     0
 10
0.0
 20
0.0
 30
0.0
  3
D_GROUP
  1

  0
MTEXT
  5
5FE
100
AcDbEntity
  8
1
390
0
 62
     7
100
AcDbMText
 10
323.134892
 20
31.360811
 30
0.0
 40
5.0
 41
14.045455
 71
     7
 72
     1
  1
1：1
210
0.0
220
0.0
230
1.0
 73
     1
 44
1.0
  0
ENDBLK
  5
5FF
100
AcDbEntity
  8
0
390
0
100
AcDbBlockEnd
  0
ENDSEC
  0
SECTION
  2
ENTITIES
  0
LINE
  5
28
100
AcDbEntity
  8
256
390
0
  6
Continuous
 62
     8
100
AcDbLine
 10
222.0
 20
34.5
 30
0.0
 11
271.0
 21
34.5
 31
0.0
  0
LINE
  5
29
100
AcDbEntity
  8
256
390
0
  6
Continuous
 62
     8
100
AcDbLine
 10
390.25
 20
277.0
 30
0.0
 11
390.25
 21
287.0
 31
0.0
  0
LINE
  5
2A
100
AcDbEntity
  8
256
390
0
  6
Continuous
 62
     8
100
AcDbLine
 10
229.511017
 20
262.368011
 30
0.0
 11
234.511017
 21
262.368011
 31
0.0
  0
LINE
  5
2B
100
AcDbEntity
  8
256
390
0
  6
Continuous
 62
     8
100
AcDbLine
 10
222.0
 20
38.0
 30
0.0
 11
271.0
 21
38.0
 31
0.0
  0
LINE
  5
2C
100
AcDbEntity
  8
256
390
0
  6
Continuous
 62
     8
100
AcDbLine
 10
237.0
 20
287.0
 30
0.0
 11
237.0
 21
257.0
 31
0.0
  0
LINE
  5
2D
100
AcDbEntity
  8
256
390
0
  6
Continuous
 62
     8
100
AcDbLine
 10
303.8
 20
48.0
 30
0.0
 11
303.8
 21
10.0
 31
0.0
  0
LINE
  5
2E
100
AcDbEntity
  8
256
390
0
  6
Continuous
 62
     8
100
AcDbLine
 10
385.25
 20
277.0
 30
0.0
 11
385.25
 21
287.0
 31
0.0
  0
LINE
  5
2F
100
AcDbEntity
  8
256
390
0
  6
Continuous
 62
     8
100
AcDbLine
 10
287.4
 20
31.0
 30
0.0
 11
287.4
 21
10.0
 31
0.0
  0
LINE
  5
30
100
AcDbEntity
  8
256
390
0
  6
Continuous
 62
     8
100
AcDbLine
 10
253.750031
 20
44.0
 30
0.0
 11
253.750031
 21
10.0
 31
0.0
  0
LINE
  5
31
100
AcDbEntity
  8
256
390
0
  6
Continuous
 62
     8
100
AcDbLine
 10
410.0
 20
10.0
 30
0.0
 11
410.0
 21
287.0
 31
0.0
  0
LINE
  5
32
100
AcDbEntity
  8
256
390
0
  6
Continuous
 62
     8
100
AcDbLine
 10
335.25
 20
15.666667
 30
0.0
 11
335.25
 21
48.0
 31
0.0
  0
LINE
  5
33
100
AcDbEntity
  8
256
390
0
  6
Continuous
 62
     8
100
AcDbLine
 10
410.0
 20
287.0
 30
0.0
 11
10.0
 21
287.0
 31
0.0
  0
LINE
  5
34
100
AcDbEntity
  8
256
390
0
  6
Continuous
 62
     8
100
AcDbLine
 10
362.0
 20
287.0
 30
0.0
 11
362.0
 21
257.0
 31
0.0
  0
LINE
  5
35
100
AcDbEntity
  8
256
390
0
  6
Continuous
 62
     8
100
AcDbLine
 10
410.0
 20
267.0
 30
0.0
 11
227.0
 21
267.0
 31
0.0
  0
LINE
  5
36
100
AcDbEntity
  8
256
390
0
  6
Continuous
 62
     8
100
AcDbLine
 10
410.0
 20
277.0
 30
0.0
 11
227.0
 21
277.0
 31
0.0
  0
LINE
  5
37
100
AcDbEntity
  8
256
390
0
  6
Continuous
 62
     8
100
AcDbLine
 10
271.0
 20
41.0
 30
0.0
 11
335.25
 21
41.0
 31
0.0
  0
LINE
  5
38
100
AcDbEntity
  8
256
390
0
  6
Continuous
 62
     8
100
AcDbLine
 10
222.0
 20
44.0
 30
0.0
 11
271.0
 21
44.0
 31
0.0
  0
LINE
  5
39
100
AcDbEntity
  8
256
390
0
  6
Continuous
 62
     8
100
AcDbLine
 10
232.011017
 20
261.664886
 30
0.0
 11
229.511017
 21
257.368011
 31
0.0
  0
LINE
  5
3A
100
AcDbEntity
  8
256
390
0
  6
Continuous
 62
     8
100
AcDbLine
 10
248.000031
 20
38.0
 30
0.0
 11
222.0
 21
44.0
 31
0.0
  0
LINE
  5
3B
100
AcDbEntity
  8
256
390
0
  6
Continuous
 62
     8
100
AcDbLine
 10
357.0
 20
262.0
 30
0.0
 11
227.0
 21
262.0
 31
0.0
  0
LINE
  5
3C
100
AcDbEntity
  8
256
390
0
  6
Continuous
 62
     8
100
AcDbLine
 10
222.0
 20
31.0
 30
0.0
 11
320.25
 21
31.0
 31
0.0
  0
LINE
  5
3D
100
AcDbEntity
  8
256
390
0
  6
Continuous
 62
     8
100
AcDbLine
 10
234.511017
 20
267.368011
 30
0.0
 11
232.011017
 21
271.664886
 31
0.0
  0
LINE
  5
3E
100
AcDbEntity
  8
256
390
0
  6
Continuous
 62
     8
100
AcDbLine
 10
385.25
 20
282.0
 30
0.0
 11
362.0
 21
282.0
 31
0.0
  0
LINE
  5
3F
100
AcDbEntity
  8
256
390
0
  6
Continuous
 62
     8
100
AcDbLine
 10
10.0
 20
10.0
 30
0.0
 11
410.0
 21
10.0
 31
0.0
  0
LINE
  5
40
100
AcDbEntity
  8
256
390
0
  6
Continuous
 62
     8
100
AcDbLine
 10
222.0
 20
48.0
 30
0.0
 11
410.0
 21
48.0
 31
0.0
  0
LINE
  5
41
100
AcDbEntity
  8
256
390
0
  6
Continuous
 62
     8
100
AcDbLine
 10
227.000031
 20
10.0
 30
0.0
 11
410.0
 21
10.0
 31
0.0
  0
LINE
  5
42
100
AcDbEntity
  8
256
390
0
  6
Continuous
 62
     8
100
AcDbLine
 10
342.0
 20
287.0
 30
0.0
 11
342.0
 21
257.0
 31
0.0
  0
LINE
  5
43
100
AcDbEntity
  8
256
390
0
  6
Continuous
 62
     8
100
AcDbLine
 10
222.0
 20
13.5
 30
0.0
 11
271.000031
 21
13.5
 31
0.0
  0
LINE
  5
44
100
AcDbEntity
  8
256
390
0
  6
Continuous
 62
     8
100
AcDbLine
 10
222.0
 20
20.5
 30
0.0
 11
271.0
 21
20.5
 31
0.0
  0
LINE
  5
45
100
AcDbEntity
  8
256
390
0
  6
Continuous
 62
     8
100
AcDbLine
 10
222.0
 20
27.5
 30
0.0
 11
271.0
 21
27.5
 31
0.0
  0
LINE
  5
46
100
AcDbEntity
  8
256
390
0
  6
Continuous
 62
     8
100
AcDbLine
 10
248.000031
 20
44.0
 30
0.0
 11
248.000031
 21
10.0
 31
0.0
  0
LINE
  5
47
100
AcDbEntity
  8
256
390
0
  6
Continuous
 62
     8
100
AcDbLine
 10
222.0
 20
48.0
 30
0.0
 11
222.0
 21
10.0
 31
0.0
  0
LINE
  5
48
100
AcDbEntity
  8
256
390
0
  6
Continuous
 62
     8
100
AcDbLine
 10
232.011017
 20
276.664886
 30
0.0
 11
229.511017
 21
272.368011
 31
0.0
  0
LINE
  5
49
100
AcDbEntity
  8
256
390
0
  6
Continuous
 62
     8
100
AcDbLine
 10
357.0
 20
282.0
 30
0.0
 11
227.0
 21
282.0
 31
0.0
  0
LINE
  5
4A
100
AcDbEntity
  8
256
390
0
  6
Continuous
 62
     8
100
AcDbLine
 10
229.511017
 20
267.368011
 30
0.0
 11
234.511017
 21
267.368011
 31
0.0
  0
LINE
  5
4B
100
AcDbEntity
  8
256
390
0
  6
Continuous
 62
     8
100
AcDbLine
 10
222.0
 20
24.0
 30
0.0
 11
271.0
 21
24.0
 31
0.0
  0
LINE
  5
4C
100
AcDbEntity
  8
256
390
0
  6
Continuous
 62
     8
100
AcDbLine
 10
232.011017
 20
281.664886
 30
0.0
 11
229.511017
 21
277.368011
 31
0.0
  0
LINE
  5
4D
100
AcDbEntity
  8
256
390
0
  6
Continuous
 62
     8
100
AcDbLine
 10
265.250031
 20
44.0
 30
0.0
 11
265.250031
 21
10.0
 31
0.0
  0
LINE
  5
4E
100
AcDbEntity
  8
256
390
0
  6
Continuous
 62
     8
100
AcDbLine
 10
229.511017
 20
277.368011
 30
0.0
 11
234.511017
 21
277.368011
 31
0.0
  0
LINE
  5
4F
100
AcDbEntity
  8
256
390
0
  6
Continuous
 62
     8
100
AcDbLine
 10
320.25
 20
10.0
 30
0.0
 11
320.25
 21
48.0
 31
0.0
  0
LINE
  5
50
100
AcDbEntity
  8
256
390
0
  6
Continuous
 62
     8
100
AcDbLine
 10
232.011017
 20
271.664886
 30
0.0
 11
229.511017
 21
267.368011
 31
0.0
  0
LINE
  5
51
100
AcDbEntity
  8
256
390
0
  6
Continuous
 62
     8
100
AcDbLine
 10
234.511017
 20
277.368011
 30
0.0
 11
232.011017
 21
281.664886
 31
0.0
  0
LINE
  5
52
100
AcDbEntity
  8
256
390
0
  6
Continuous
 62
     8
100
AcDbLine
 10
222.0
 20
17.0
 30
0.0
 11
271.0
 21
17.0
 31
0.0
  0
LINE
  5
53
100
AcDbEntity
  8
256
390
0
  6
Continuous
 62
     8
100
AcDbLine
 10
271.0
 20
48.0
 30
0.0
 11
271.0
 21
10.0
 31
0.0
  0
LINE
  5
54
100
AcDbEntity
  8
256
390
0
  6
Continuous
 62
     8
100
AcDbLine
 10
357.0
 20
287.0
 30
0.0
 11
357.0
 21
257.0
 31
0.0
  0
LINE
  5
55
100
AcDbEntity
  8
256
390
0
  6
Continuous
 62
     8
100
AcDbLine
 10
335.25
 20
35.0
 30
0.0
 11
410.0
 21
35.0
 31
0.0
  0
LINE
  5
56
100
AcDbEntity
  8
256
390
0
  6
Continuous
 62
     8
100
AcDbLine
 10
227.0
 20
287.0
 30
0.0
 11
227.0
 21
257.0
 31
0.0
  0
LINE
  5
57
100
AcDbEntity
  8
256
390
0
  6
Continuous
 62
     8
100
AcDbLine
 10
327.0
 20
287.0
 30
0.0
 11
327.0
 21
257.0
 31
0.0
  0
LINE
  5
58
100
AcDbEntity
  8
256
390
0
  6
Continuous
 62
     8
100
AcDbLine
 10
229.511017
 20
272.368011
 30
0.0
 11
234.511017
 21
272.368011
 31
0.0
  0
LINE
  5
59
100
AcDbEntity
  8
256
390
0
  6
Continuous
 62
     8
100
AcDbLine
 10
259.500031
 20
44.0
 30
0.0
 11
259.500031
 21
10.0
 31
0.0
  0
LINE
  5
5A
100
AcDbEntity
  8
256
390
0
  6
Continuous
 62
     8
100
AcDbLine
 10
320.25
 20
15.666667
 30
0.0
 11
410.0
 21
15.666667
 31
0.0
  0
LINE
  5
5B
100
AcDbEntity
  8
256
390
0
  6
Continuous
 62
     8
100
AcDbLine
 10
229.511017
 20
257.368011
 30
0.0
 11
234.511017
 21
257.368011
 31
0.0
  0
LINE
  5
5C
100
AcDbEntity
  8
256
390
0
  6
Continuous
 62
     8
100
AcDbLine
 10
232.011017
 20
266.664886
 30
0.0
 11
229.511017
 21
262.368011
 31
0.0
  0
LINE
  5
5D
100
AcDbEntity
  8
256
390
0
  6
Continuous
 62
     8
100
AcDbLine
 10
410.0
 20
257.0
 30
0.0
 11
227.0
 21
257.0
 31
0.0
  0
LINE
  5
5E
100
AcDbEntity
  8
256
390
0
  6
Continuous
 62
     8
100
AcDbLine
 10
234.511017
 20
257.368011
 30
0.0
 11
232.011017
 21
261.664886
 31
0.0
  0
LINE
  5
5F
100
AcDbEntity
  8
256
390
0
  6
Continuous
 62
     8
100
AcDbLine
 10
271.0
 20
26.5
 30
0.0
 11
410.0
 21
26.5
 31
0.0
  0
LINE
  5
60
100
AcDbEntity
  8
256
390
0
  6
Continuous
 62
     8
100
AcDbLine
 10
10.0
 20
10.0
 30
0.0
 11
10.0
 21
287.0
 31
0.0
  0
LINE
  5
61
100
AcDbEntity
  8
256
390
0
  6
Continuous
 62
     8
100
AcDbLine
 10
234.511017
 20
262.368011
 30
0.0
 11
232.011017
 21
266.664886
 31
0.0
  0
LINE
  5
62
100
AcDbEntity
  8
256
390
0
  6
Continuous
 62
     8
100
AcDbLine
 10
350.25
 20
15.666667
 30
0.0
 11
350.25
 21
48.0
 31
0.0
  0
LINE
  5
63
100
AcDbEntity
  8
256
390
0
  6
Continuous
 62
     8
100
AcDbLine
 10
307.164695
 20
32.573373
 30
0.0
 11
314.235801
 21
39.644442
 31
0.0
  0
LINE
  5
64
100
AcDbEntity
  8
256
390
0
  6
Continuous
 62
     8
100
AcDbLine
 10
357.0
 20
272.0
 30
0.0
 11
227.0
 21
272.0
 31
0.0
  0
LINE
  5
65
100
AcDbEntity
  8
256
390
0
  6
Continuous
 62
     8
100
AcDbLine
 10
234.511017
 20
272.368011
 30
0.0
 11
232.011017
 21
276.664886
 31
0.0
  0
MTEXT
  5
66
100
AcDbEntity
  8
256
390
0
 62
     8
100
AcDbMText
 10
262.375031
 20
28.244792
 30
0.0
 40
1.75
 41
4.55
 71
     8
 72
     1
  1
0.5  
210
0.0
220
0.0
230
1.0
 73
     1
 44
1.0
  0
MTEXT
  5
67
100
AcDbEntity
  8
256
390
0
 62
     8
100
AcDbMText
 10
250.875031
 20
21.244792
 30
0.0
 40
1.75
 41
4.55
 71
     8
 72
     1
  1
0.2  
210
0.0
220
0.0
230
1.0
 73
     1
 44
1.0
  0
MTEXT
  5
68
100
AcDbEntity
  8
256
390
0
 62
     8
100
AcDbMText
 10
250.875031
 20
28.244792
 30
0.0
 40
1.75
 41
3.993182
 71
     8
 72
     1
  1
0.1  
210
0.0
220
0.0
230
1.0
 73
     1
 44
1.0
  0
MTEXT
  5
69
100
AcDbEntity
  8
256
390
0
 62
     8
100
AcDbMText
 10
250.875031
 20
17.744792
 30
0.0
 40
1.75
 41
4.55
 71
     8
 72
     1
  1
0.3  
210
0.0
220
0.0
230
1.0
 73
     1
 44
1.0
  0
MTEXT
  5
6A
100
AcDbEntity
  8
256
390
0
 62
     8
100
AcDbMText
 10
287.02719
 20
42.856306
 30
0.0
 40
3.386667
 41
24.56873
 71
     8
 72
     1
  1
材    質  
210
0.0
220
0.0
230
0.9999999999999999
 73
     1
 44
1.0
  0
MTEXT
  5
6B
100
AcDbEntity
  8
256
390
0
 62
     8
100
AcDbMText
 10
256.625031
 20
35.244792
 30
0.0
 40
1.75
 41
3.993182
 71
     8
 72
     1
  1
0.1  
210
0.0
220
0.0
230
1.0
 73
     1
 44
1.0
  0
MTEXT
  5
6C
100
AcDbEntity
  8
256
390
0
 62
     8
100
AcDbMText
 10
268.125015
 20
14.244792
 30
0.0
 40
1.75
 41
1.590909
 71
     8
 72
     1
  1
6  
210
0.0
220
0.0
230
1.0
 73
     1
 44
1.0
  0
MTEXT
  5
6D
100
AcDbEntity
  8
256
390
0
 62
     8
100
AcDbMText
 10
268.125015
 20
21.244792
 30
0.0
 40
1.75
 41
4.486364
 71
     8
 72
     1
  1
2.5  
210
0.0
220
0.0
230
1.0
 73
     1
 44
1.0
  0
MTEXT
  5
6E
100
AcDbEntity
  8
256
390
0
 62
     8
100
AcDbMText
 10
312.52208
 20
42.980576
 30
0.0
 40
3.386667
 41
17.518305
 71
     8
 72
     1
  1
個 数  
210
0.0
220
0.0
230
0.9999999999999999
 73
     1
 44
1.0
  0
MTEXT
  5
6F
100
AcDbEntity
  8
256
390
0
 62
     8
100
AcDbMText
 10
360.130196
 20
257.742347
 30
0.0
 40
2.822222
 41
5.926666
 71
     8
 72
     1
  1
理  
210
0.0
220
0.0
230
1.0
 73
     1
 44
1.0
  0
MTEXT
  5
70
100
AcDbEntity
  8
256
390
0
 62
     8
100
AcDbMText
 10
257.063488
 20
41.133356
 30
0.0
 40
1.7952
 41
7.6704
 71
     8
 72
     1
  1
中級  
210
0.0
220
0.0
230
1.0
 73
     1
 44
1.0
  0
MTEXT
  5
71
100
AcDbEntity
  8
256
390
0
 62
     8
100
AcDbMText
 10
268.763424
 20
39.076539
 30
0.0
 40
2.0
 41
7.581818
 71
     8
 72
     1
  1
v %%p  
210
0.0
220
0.0
230
1.0
 73
     1
 44
1.0
  0
MTEXT
  5
72
100
AcDbEntity
  8
256
390
0
 62
     8
100
AcDbMText
 10
246.361108
 20
10.744792
 30
0.0
 40
1.75
 41
35.111364
 71
     9
 72
     1
  1
2000を超え4000以下  
210
0.0
220
0.0
230
1.0
 73
     1
 44
1.0
  0
MTEXT
  5
73
100
AcDbEntity
  8
256
390
0
 62
     8
100
AcDbMText
 10
315.229673
 20
32.880846
 30
0.0
 40
3.386667
 41
10.375516
 71
     8
 72
     1
  1
1台  
210
0.0
220
0.0
230
0.9999999999999999
 73
     1
 44
1.0
  0
MTEXT
  5
74
100
AcDbEntity
  8
256
390
0
 62
     8
100
AcDbMText
 10
246.383663
 20
21.244792
 30
0.0
 40
1.75
 41
32.056818
 71
     9
 72
     1
  1
 120を超え 400以下  
210
0.0
220
0.0
230
1.0
 73
     1
 44
1.0
  0
MTEXT
  5
75
100
AcDbEntity
  8
256
390
0
 62
     8
100
AcDbMText
 10
388.380196
 20
278.047566
 30
0.0
 40
3.386667
 41
6.958061
 71
     8
 72
     1
  1
取  
210
0.0
220
0.0
230
0.9999999999999999
 73
     1
 44
1.0
  0
MTEXT
  5
76
100
AcDbEntity
  8
256
390
0
 62
     8
100
AcDbMText
 10
388.380196
 20
282.575181
 30
0.0
 40
3.386667
 41
6.68097
 71
     8
 72
     1
  1
面  
210
0.0
220
0.0
230
0.9999999999999999
 73
     1
 44
1.0
  0
MTEXT
  5
77
100
AcDbEntity
  8
256
390
0
 62
     8
100
AcDbMText
 10
230.223858
 20
38.623908
 30
0.0
 40
1.5
 41
24.272727
 71
     8
 72
     1
  1
寸法の区分(mm)  
210
0.0
220
0.0
230
1.0
 73
     1
 44
1.0
  0
MTEXT
  5
78
100
AcDbEntity
  8
256
390
0
 62
     8
100
AcDbMText
 10
343.211504
 20
19.692223
 30
0.0
 40
3.386667
 41
16.902547
 71
     8
 72
     1
  1
図 番  
210
0.0
220
0.0
230
0.9999999999999999
 73
     1
 44
1.0
  0
MTEXT
  5
79
100
AcDbEntity
  8
256
390
0
 62
     8
100
AcDbMText
 10
262.375031
 20
31.744792
 30
0.0
 40
1.75
 41
4.55
 71
     8
 72
     1
  1
0.3  
210
0.0
220
0.0
230
1.0
 73
     1
 44
1.0
  0
MTEXT
  5
7A
100
AcDbEntity
  8
256
390
0
 62
     8
100
AcDbMText
 10
360.130196
 20
268.089407
 30
0.0
 40
3.386667
 41
7.112001
 71
     8
 72
     1
  1
理  
210
0.0
220
0.0
230
0.9999999999999999
 73
     1
 44
1.0
  0
MTEXT
  5
7B
100
AcDbEntity
  8
256
390
0
 62
     8
100
AcDbMText
 10
246.369552
 20
14.244792
 30
0.0
 40
1.75
 41
34.888636
 71
     9
 72
     1
  1
1000を超え2000以下  
210
0.0
220
0.0
230
1.0
 73
     1
 44
1.0
  0
MTEXT
  5
7C
100
AcDbEntity
  8
256
390
0
 62
     8
100
AcDbMText
 10
268.125015
 20
24.744792
 30
0.0
 40
1.75
 41
4.263636
 71
     8
 72
     1
  1
1.5  
210
0.0
220
0.0
230
1.0
 73
     1
 44
1.0
  0
MTEXT
  5
7D
100
AcDbEntity
  8
256
390
0
 62
     8
100
AcDbMText
 10
262.375031
 20
35.244792
 30
0.0
 40
1.75
 41
4.55
 71
     8
 72
     1
  1
0.2  
210
0.0
220
0.0
230
1.0
 73
     1
 44
1.0
  0
MTEXT
  5
7E
100
AcDbEntity
  8
256
390
0
 62
     8
100
AcDbMText
 10
351.983257
 20
283.013492
 30
0.0
 40
3.386667
 41
21.551517
 71
     8
 72
     1
  1
年月日     
210
0.0
220
0.0
230
0.9999999999999999
 73
     1
 44
1.0
  0
MTEXT
  5
7F
100
AcDbEntity
  8
256
390
0
 62
     8
100
AcDbMText
 10
250.875031
 20
31.744792
 30
0.0
 40
1.75
 41
6.586364
 71
     8
 72
     1
  1
0.05  
210
0.0
220
0.0
230
1.0
 73
     1
 44
1.0
  0
MTEXT
  5
80
100
AcDbEntity
  8
256
390
0
 62
     8
100
AcDbMText
 10
250.875031
 20
35.244792
 30
0.0
 40
1.75
 41
6.586364
 71
     8
 72
     1
  1
0.05  
210
0.0
220
0.0
230
1.0
 73
     1
 44
1.0
  0
MTEXT
  5
81
100
AcDbEntity
  8
256
390
0
 62
     8
100
AcDbMText
 10
262.375031
 20
10.744792
 30
0.0
 40
1.75
 41
1.765909
 71
     8
 72
     1
  1
4  
210
0.0
220
0.0
230
1.0
 73
     1
 44
1.0
  0
MTEXT
  5
82
100
AcDbEntity
  8
256
390
0
 62
     8
100
AcDbMText
 10
343.259623
 20
40.051182
 30
0.0
 40
3.386667
 41
17.210426
 71
     8
 72
     1
  1
名 称  
210
0.0
220
0.0
230
0.9999999999999999
 73
     1
 44
1.0
  0
MTEXT
  5
83
100
AcDbEntity
  8
256
390
0
 62
     8
100
AcDbMText
 10
280.042689
 20
27.073014
 30
0.0
 40
3.386667
 41
17.241214
 71
     8
 72
     1
  1
設 計  
210
0.0
220
0.0
230
0.9999999999999999
 73
     1
 44
1.0
  0
MTEXT
  5
84
100
AcDbEntity
  8
256
390
0
 62
     8
100
AcDbMText
 10
268.125015
 20
17.744792
 30
0.0
 40
1.75
 41
1.765909
 71
     8
 72
     1
  1
4  
210
0.0
220
0.0
230
1.0
 73
     1
 44
1.0
  0
MTEXT
  5
85
100
AcDbEntity
  8
256
390
0
 62
     8
100
AcDbMText
 10
256.625031
 20
28.244792
 30
0.0
 40
1.75
 41
4.55
 71
     8
 72
     1
  1
0.2  
210
0.0
220
0.0
230
1.0
 73
     1
 44
1.0
  0
MTEXT
  5
86
100
AcDbEntity
  8
256
390
0
 62
     8
100
AcDbMText
 10
246.368174
 20
17.744792
 30
0.0
 40
1.75
 41
33.138636
 71
     9
 72
     1
  1
 400を超え1000以下  
210
0.0
220
0.0
230
1.0
 73
     1
 44
1.0
  0
MTEXT
  5
87
100
AcDbEntity
  8
256
390
0
 62
     8
100
AcDbMText
 10
250.875031
 20
14.244792
 30
0.0
 40
1.75
 41
4.55
 71
     8
 72
     1
  1
0.5  
210
0.0
220
0.0
230
1.0
 73
     1
 44
1.0
  0
MTEXT
  5
88
100
AcDbEntity
  8
256
390
0
 62
     8
100
AcDbMText
 10
257.26344
 20
39.076539
 30
0.0
 40
2.0
 41
8.563636
 71
     8
 72
     1
  1
m %%p  
210
0.0
220
0.0
230
1.0
 73
     1
 44
1.0
  0
MTEXT
  5
89
100
AcDbEntity
  8
256
390
0
 62
     8
100
AcDbMText
 10
246.444454
 20
35.244792
 30
0.0
 40
1.75
 41
29.543182
 71
     9
 72
     1
  1
 0.5を超え   3以下  
210
0.0
220
0.0
230
1.0
 73
     1
 44
1.0
  0
MTEXT
  5
8A
100
AcDbEntity
  8
256
390
0
 62
     8
100
AcDbMText
 10
246.445896
 20
31.744792
 30
0.0
 40
1.75
 41
26.615909
 71
     9
 72
     1
  1
   3を超え   6以下  
210
0.0
220
0.0
230
1.0
 73
     1
 44
1.0
  0
MTEXT
  5
8B
100
AcDbEntity
  8
256
390
0
 62
     8
100
AcDbMText
 10
343.228244
 20
29.512776
 30
0.0
 40
2.54
 41
22.998545
 71
     8
 72
     1
  1
部品番号  
210
0.0
220
0.0
230
1.0
 73
     1
 44
1.0
  0
MTEXT
  5
8C
100
AcDbEntity
  8
256
390
0
 62
     8
100
AcDbMText
 10
251.19527
 20
41.133356
 30
0.0
 40
1.7952
 41
8.04576
 71
     8
 72
     1
  1
精級  
210
0.0
220
0.0
230
1.0
 73
     1
 44
1.0
  0
MTEXT
  5
8D
100
AcDbEntity
  8
256
390
0
 62
     8
100
AcDbMText
 10
246.399214
 20
24.744792
 30
0.0
 40
1.75
 41
30.243182
 71
     9
 72
     1
  1
  30を超え 120以下  
210
0.0
220
0.0
230
1.0
 73
     1
 44
1.0
  0
MTEXT
  5
8E
100
AcDbEntity
  8
256
390
0
 62
     8
100
AcDbMText
 10
262.375031
 20
24.744792
 30
0.0
 40
1.75
 41
4.565909
 71
     8
 72
     1
  1
0.8  
210
0.0
220
0.0
230
1.0
 73
     1
 44
1.0
  0
MTEXT
  5
8F
100
AcDbEntity
  8
256
390
0
 62
     8
100
AcDbMText
 10
242.4153
 20
40.925781
 30
0.0
 40
1.5
 41
13.636364
 71
     8
 72
     1
  1
公差等級  
210
0.0
220
0.0
230
1.0
 73
     1
 44
1.0
  0
MTEXT
  5
90
100
AcDbEntity
  8
256
390
0
 62
     8
100
AcDbMText
 10
246.430153
 20
28.244792
 30
0.0
 40
1.75
 41
27.395455
 71
     9
 72
     1
  1
   6を超え  30以下  
210
0.0
220
0.0
230
1.0
 73
     1
 44
1.0
  0
MTEXT
  5
91
100
AcDbEntity
  8
256
390
0
 62
     8
100
AcDbMText
 10
285.330511
 20
282.942152
 30
0.0
 40
3.386667
 41
59.482188
 71
     8
 72
     1
  1
訂    正    内    容  
210
0.0
220
0.0
230
0.9999999999999999
 73
     1
 44
1.0
  0
MTEXT
  5
92
100
AcDbEntity
  8
256
390
0
 62
     8
100
AcDbMText
 10
256.625031
 20
24.744792
 30
0.0
 40
1.75
 41
4.55
 71
     8
 72
     1
  1
0.3  
210
0.0
220
0.0
230
1.0
 73
     1
 44
1.0
  0
MTEXT
  5
93
100
AcDbEntity
  8
256
390
0
 62
     8
100
AcDbMText
 10
262.375031
 20
17.744792
 30
0.0
 40
1.75
 41
1.622727
 71
     8
 72
     1
  1
2  
210
0.0
220
0.0
230
1.0
 73
     1
 44
1.0
  0
MTEXT
  5
94
100
AcDbEntity
  8
256
390
0
 62
     8
100
AcDbMText
 10
262.375031
 20
14.244792
 30
0.0
 40
1.75
 41
1.622727
 71
     8
 72
     1
  1
3  
210
0.0
220
0.0
230
1.0
 73
     1
 44
1.0
  0
MTEXT
  5
95
100
AcDbEntity
  8
256
390
0
 62
     8
100
AcDbMText
 10
328.687321
 20
19.668163
 30
0.0
 40
3.386667
 41
22.536729
 71
     8
 72
     1
  1
三角法  
210
0.0
220
0.0
230
0.9999999999999999
 73
     1
 44
1.0
  0
MTEXT
  5
96
100
AcDbEntity
  8
256
390
0
 62
     8
100
AcDbMText
 10
365.92539
 20
11.0735
 30
0.0
 40
3.386667
 41
99.506434
 71
     8
 72
     1
  1
双 葉 電 子 工 業 株 式 会 社  
210
0.0
220
0.0
230
0.9999999999999999
 73
     1
 44
1.0
  0
MTEXT
  5
97
100
AcDbEntity
  8
256
390
0
 62
     8
100
AcDbMText
 10
256.625031
 20
17.744792
 30
0.0
 40
1.75
 41
4.565909
 71
     8
 72
     1
  1
0.8  
210
0.0
220
0.0
230
1.0
 73
     1
 44
1.0
  0
MTEXT
  5
98
100
AcDbEntity
  8
256
390
0
 62
     8
100
AcDbMText
 10
312.769883
 20
27.273035
 30
0.0
 40
3.386667
 41
17.518305
 71
     8
 72
     1
  1
承 認  
210
0.0
220
0.0
230
0.9999999999999999
 73
     1
 44
1.0
  0
MTEXT
  5
99
100
AcDbEntity
  8
256
390
0
 62
     8
100
AcDbMText
 10
268.125015
 20
28.244792
 30
0.0
 40
1.75
 41
0.843182
 71
     8
 72
     1
  1
1  
210
0.0
220
0.0
230
1.0
 73
     1
 44
1.0
  0
MTEXT
  5
9A
100
AcDbEntity
  8
256
390
0
 62
     8
100
AcDbMText
 10
247.07562
 20
45.235875
 30
0.0
 40
1.7
 41
74.846364
 71
     8
 72
     1
  1
削り加工寸法の普通許容差 JIS B 0405-1991  
210
0.0
220
0.0
230
1.0
 73
     1
 44
1.0
  0
MTEXT
  5
9B
100
AcDbEntity
  8
256
390
0
 62
     8
100
AcDbMText
 10
250.875031
 20
24.744792
 30
0.0
 40
1.75
 41
6.586364
 71
     8
 72
     1
  1
0.15  
210
0.0
220
0.0
230
1.0
 73
     1
 44
1.0
  0
MTEXT
  5
9C
100
AcDbEntity
  8
256
390
0
 62
     8
100
AcDbMText
 10
250.875031
 20
9.839584
 30
0.0
 40
2.54
 41
2.632364
 71
     8
 72
     1
  1
-  
210
0.0
220
0.0
230
1.0
 73
     1
 44
1.0
  0
MTEXT
  5
9D
100
AcDbEntity
  8
256
390
0
 62
     8
100
AcDbMText
 10
296.045235
 20
27.214792
 30
0.0
 40
3.386667
 41
17.025699
 71
     8
 72
     1
  1
検 図  
210
0.0
220
0.0
230
0.9999999999999999
 73
     1
 44
1.0
  0
MTEXT
  5
9E
100
AcDbEntity
  8
256
390
0
 62
     8
100
AcDbMText
 10
268.125015
 20
34.339584
 30
0.0
 40
2.54
 41
2.632364
 71
     8
 72
     1
  1
-  
210
0.0
220
0.0
230
1.0
 73
     1
 44
1.0
  0
MTEXT
  5
9F
100
AcDbEntity
  8
256
390
0
 62
     8
100
AcDbMText
 10
256.625031
 20
31.744792
 30
0.0
 40
1.75
 41
3.993182
 71
     8
 72
     1
  1
0.1  
210
0.0
220
0.0
230
1.0
 73
     1
 44
1.0
  0
MTEXT
  5
A0
100
AcDbEntity
  8
256
390
0
 62
     8
100
AcDbMText
 10
263.01344
 20
39.076539
 30
0.0
 40
2.0
 41
7.527273
 71
     8
 72
     1
  1
c %%p  
210
0.0
220
0.0
230
1.0
 73
     1
 44
1.0
  0
MTEXT
  5
A1
100
AcDbEntity
  8
256
390
0
 62
     8
100
AcDbMText
 10
360.130196
 20
278.047566
 30
0.0
 40
3.386667
 41
6.68097
 71
     8
 72
     1
  1
上  
210
0.0
220
0.0
230
0.9999999999999999
 73
     1
 44
1.0
  0
MTEXT
  5
A2
100
AcDbEntity
  8
256
390
0
 62
     8
100
AcDbMText
 10
232.748022
 20
282.92144
 30
0.0
 40
3.386667
 41
14.870547
 71
     8
 72
     1
  1
記号  
210
0.0
220
0.0
230
0.9999999999999999
 73
     1
 44
1.0
  0
MTEXT
  5
A3
100
AcDbEntity
  8
256
390
0
 62
     8
100
AcDbMText
 10
256.625031
 20
21.244792
 30
0.0
 40
1.75
 41
4.55
 71
     8
 72
     1
  1
0.5  
210
0.0
220
0.0
230
1.0
 73
     1
 44
1.0
  0
MTEXT
  5
A4
100
AcDbEntity
  8
256
390
0
 62
     8
100
AcDbMText
 10
256.625031
 20
10.744792
 30
0.0
 40
1.75
 41
1.622727
 71
     8
 72
     1
  1
2  
210
0.0
220
0.0
230
1.0
 73
     1
 44
1.0
  0
MTEXT
  5
A5
100
AcDbEntity
  8
256
390
0
 62
     8
100
AcDbMText
 10
262.375031
 20
21.244792
 30
0.0
 40
1.75
 41
4.263636
 71
     8
 72
     1
  1
1.2  
210
0.0
220
0.0
230
1.0
 73
     1
 44
1.0
  0
MTEXT
  5
A6
100
AcDbEntity
  8
256
390
0
 62
     8
100
AcDbMText
 10
360.130196
 20
282.575181
 30
0.0
 40
3.386667
 41
7.050425
 71
     8
 72
     1
  1
仕  
210
0.0
220
0.0
230
0.9999999999999999
 73
     1
 44
1.0
  0
MTEXT
  5
A7
100
AcDbEntity
  8
256
390
0
 62
     8
100
AcDbMText
 10
268.125015
 20
10.744792
 30
0.0
 40
1.75
 41
1.654545
 71
     8
 72
     1
  1
8  
210
0.0
220
0.0
230
1.0
 73
     1
 44
1.0
  0
MTEXT
  5
A8
100
AcDbEntity
  8
256
390
0
 62
     8
100
AcDbMText
 10
360.130196
 20
260.858133
 30
0.0
 40
2.822222
 41
5.875353
 71
     8
 72
     1
  1
処  
210
0.0
220
0.0
230
1.0
 73
     1
 44
1.0
  0
MTEXT
  5
A9
100
AcDbEntity
  8
256
390
0
 62
     8
100
AcDbMText
 10
336.870941
 20
283.013492
 30
0.0
 40
3.386667
 41
22.81382
 71
     8
 72
     1
  1
担当者     
210
0.0
220
0.0
230
0.9999999999999999
 73
     1
 44
1.0
  0
MTEXT
  5
AA
100
AcDbEntity
  8
256
390
0
 62
     8
100
AcDbMText
 10
251.577735
 20
39.076539
 30
0.0
 40
2.0
 41
6.836364
 71
     8
 72
     1
  1
f %%p  
210
0.0
220
0.0
230
1.0
 73
     1
 44
1.0
  0
MTEXT
  5
AB
100
AcDbEntity
  8
256
390
0
 62
     8
100
AcDbMText
 10
360.130196
 20
263.973919
 30
0.0
 40
2.822222
 41
5.952323
 71
     8
 72
     1
  1
熱  
210
0.0
220
0.0
230
1.0
 73
     1
 44
1.0
  0
MTEXT
  5
AC
100
AcDbEntity
  8
256
390
0
 62
     8
100
AcDbMText
 10
268.125015
 20
31.744792
 30
0.0
 40
1.75
 41
4.55
 71
     8
 72
     1
  1
0.5  
210
0.0
220
0.0
230
1.0
 73
     1
 44
1.0
  0
MTEXT
  5
AD
100
AcDbEntity
  8
256
390
0
 62
     8
100
AcDbMText
 10
328.494219
 20
43.012096
 30
0.0
 40
3.386667
 41
17.30279
 71
     8
 72
     1
  1
尺 度  
210
0.0
220
0.0
230
0.9999999999999999
 73
     1
 44
1.0
  0
MTEXT
  5
AE
100
AcDbEntity
  8
256
390
0
 62
     8
100
AcDbMText
 10
262.660189
 20
41.133356
 30
0.0
 40
1.7952
 41
7.9968
 71
     8
 72
     1
  1
粗級  
210
0.0
220
0.0
230
1.0
 73
     1
 44
1.0
  0
MTEXT
  5
AF
100
AcDbEntity
  8
256
390
0
 62
     8
100
AcDbMText
 10
225.086682
 20
40.357732
 30
0.0
 40
1.5
 41
6.640909
 71
     8
 72
     1
  1
基準  
210
0.0
220
0.0
230
1.0
 73
     1
 44
1.0
  0
MTEXT
  5
B0
100
AcDbEntity
  8
256
390
0
 62
     8
100
AcDbMText
 10
268.384088
 20
41.201556
 30
0.0
 40
1.584
 41
10.8
 71
     8
 72
     1
  1
極粗級  
210
0.0
220
0.0
230
1.0
 73
     1
 44
1.0
  0
MTEXT
  5
B1
100
AcDbEntity
  8
256
390
0
 62
     8
100
AcDbMText
 10
256.625031
 20
14.244792
 30
0.0
 40
1.75
 41
4.263636
 71
     8
 72
     1
  1
1.2  
210
0.0
220
0.0
230
1.0
 73
     1
 44
1.0
  0
MTEXT
  5
B2
100
AcDbEntity
  8
256
390
0
 62
     8
100
AcDbMText
 10
360.130196
 20
272.53334
 30
0.0
 40
3.386667
 41
7.050425
 71
     8
 72
     1
  1
処  
210
0.0
220
0.0
230
0.9999999999999999
 73
     1
 44
1.0
  0
INSERT
  5
B7
100
AcDbEntity
  8
256
390
0
100
AcDbBlockReference
  2
AID278
 10
0.0
 20
0.0
 30
0.0
  0
ARC
  5
B9
100
AcDbEntity
  8
1
390
0
  6
Continuous
 62
     7
100
AcDbCircle
 10
102.79366
 20
193.227001
 30
0.0
 40
3.7
210
0.0
220
0.0
230
1.0
100
AcDbArc
 50
105.68035
 51
74.31965
  0
ARC
  5
BA
100
AcDbEntity
  8
1
390
0
  6
Continuous
 62
     7
100
AcDbCircle
 10
102.79366
 20
193.227001
 30
0.0
 40
3.0
210
0.0
220
0.0
230
0.9999999999999999
100
AcDbArc
 50
109.471221
 51
70.528779
  0
LINE
  5
BB
100
AcDbEntity
  8
1
390
0
  6
Continuous
 62
     7
100
AcDbLine
 10
101.79366
 20
196.789304
 30
0.0
 11
101.79366
 21
196.055428
 31
0.0
  0
LINE
  5
BC
100
AcDbEntity
  8
1
390
0
  6
Continuous
 62
     7
100
AcDbLine
 10
103.79366
 20
196.055428
 30
0.0
 11
103.79366
 21
196.789304
 31
0.0
  0
ARC
  5
BD
100
AcDbEntity
  8
1
390
0
  6
Continuous
 62
     7
100
AcDbCircle
 10
102.79366
 20
193.227001
 30
0.0
 40
4.0
210
0.0
220
0.0
230
1.0
100
AcDbArc
 50
104.477512
 51
75.522488
  0
LINE
  5
BE
100
AcDbEntity
  8
1
390
0
  6
Continuous
 62
     7
100
AcDbLine
 10
101.79366
 20
197.099984
 30
0.0
 11
101.79366
 21
196.789304
 31
0.0
  0
LINE
  5
BF
100
AcDbEntity
  8
1
390
0
  6
Continuous
 62
     7
100
AcDbLine
 10
103.79366
 20
196.789304
 30
0.0
 11
103.79366
 21
197.099984
 31
0.0
  0
CIRCLE
  5
C0
100
AcDbEntity
  8
1
390
0
  6
Continuous
 62
     7
100
AcDbCircle
 10
102.79366
 20
193.227001
 30
0.0
 40
2.0
210
0.0
220
0.0
230
1.0
  0
CIRCLE
  5
C1
100
AcDbEntity
  8
1
390
0
  6
Continuous
 62
     7
100
AcDbCircle
 10
102.79366
 20
193.227001
 30
0.0
 40
1.8
210
0.0
220
0.0
230
1.0
  0
CIRCLE
  5
C2
100
AcDbEntity
  8
1
390
0
  6
Continuous
 62
     7
100
AcDbCircle
 10
102.79366
 20
193.227001
 30
0.0
 40
1.45
210
0.0
220
0.0
230
1.0
  0
CIRCLE
  5
C3
100
AcDbEntity
  8
1
390
0
  6
Continuous
 62
     7
100
AcDbCircle
 10
102.79366
 20
193.227001
 30
0.0
 40
1.25
210
0.0
220
0.0
230
1.0
  0
ARC
  5
C4
100
AcDbEntity
  8
1
390
0
  6
Continuous
 62
     7
100
AcDbCircle
 10
102.793579
 20
193.226468
 30
0.0
 40
4.000537
210
0.0
220
0.0
230
1.0
100
AcDbArc
 50
75.523269
 51
87.133235
  0
ARC
  5
C5
100
AcDbEntity
  8
1
390
0
  6
Continuous
 62
     7
100
AcDbCircle
 10
102.79366
 20
193.227001
 30
0.0
 40
3.0
210
0.0
220
0.0
230
0.9999999999999999
100
AcDbArc
 50
70.528779
 51
86.177446
  0
ARC
  5
C6
100
AcDbEntity
  8
1
390
0
  6
Continuous
 62
     7
100
AcDbCircle
 10
102.794119
 20
193.223991
 30
0.0
 40
4.003029
210
0.0
220
0.0
230
1.0
100
AcDbArc
 50
92.870392
 51
104.473104
  0
ARC
  5
C7
100
AcDbEntity
  8
1
390
0
  6
Continuous
 62
     7
100
AcDbCircle
 10
102.794041
 20
193.225156
 30
0.0
 40
3.001866
210
0.0
220
0.0
230
1.0
100
AcDbArc
 50
93.827447
 51
109.466327
  0
ARC
  5
C8
100
AcDbEntity
  8
1
390
0
  6
Continuous
 62
     7
100
AcDbCircle
 10
102.79366
 20
193.227001
 30
0.0
 40
4.0
210
0.0
220
0.0
230
1.0
100
AcDbArc
 50
87.134016
 51
92.865984
  0
ARC
  5
C9
100
AcDbEntity
  8
1
390
0
  6
Continuous
 62
     7
100
AcDbCircle
 10
102.79366
 20
193.227001
 30
0.0
 40
3.0
210
0.0
220
0.0
230
0.9999999999999999
100
AcDbArc
 50
86.177446
 51
93.822554
  0
CIRCLE
  5
CB
100
AcDbEntity
  8
1
390
0
  6
DOT
 62
     9
100
AcDbCircle
 10
102.79366
 20
193.227001
 30
0.0
 40
3.5
210
0.0
220
0.0
230
1.0
  0
CIRCLE
  5
CC
100
AcDbEntity
  8
1
390
0
  6
Continuous
 62
     7
100
AcDbCircle
 10
102.79366
 20
193.227001
 30
0.0
 40
4.5
210
0.0
220
0.0
230
1.0
  0
LINE
  5
CD
100
AcDbEntity
  8
1
390
0
  6
Continuous
 62
     7
100
AcDbLine
 10
96.79366
 20
200.727001
 30
0.0
 11
108.79366
 21
200.727001
 31
0.0
  0
LINE
  5
CE
100
AcDbEntity
  8
1
390
0
  6
Continuous
 62
     7
100
AcDbLine
 10
108.79366
 20
200.727001
 30
0.0
 11
110.29366
 21
199.227001
 31
0.0
  0
LINE
  5
CF
100
AcDbEntity
  8
1
390
0
  6
Continuous
 62
     7
100
AcDbLine
 10
110.29366
 20
199.227001
 30
0.0
 11
110.29366
 21
187.227001
 31
0.0
  0
LINE
  5
D0
100
AcDbEntity
  8
1
390
0
  6
Continuous
 62
     7
100
AcDbLine
 10
110.29366
 20
187.227001
 30
0.0
 11
108.79366
 21
185.727001
 31
0.0
  0
LINE
  5
D1
100
AcDbEntity
  8
1
390
0
  6
Continuous
 62
     7
100
AcDbLine
 10
95.29366
 20
187.227001
 30
0.0
 11
95.29366
 21
199.227001
 31
0.0
  0
LINE
  5
D2
100
AcDbEntity
  8
1
390
0
  6
Continuous
 62
     7
100
AcDbLine
 10
95.29366
 20
199.227001
 30
0.0
 11
96.79366
 21
200.727001
 31
0.0
  0
CIRCLE
  5
D3
100
AcDbEntity
  8
1
390
0
  6
Continuous
 62
     7
100
AcDbCircle
 10
98.04366
 20
197.977001
 30
0.0
 40
2.0
210
0.0
220
0.0
230
1.0
  0
CIRCLE
  5
D4
100
AcDbEntity
  8
1
390
0
  6
Continuous
 62
     7
100
AcDbCircle
 10
107.54366
 20
197.977001
 30
0.0
 40
2.0
210
0.0
220
0.0
230
1.0
  0
CIRCLE
  5
D5
100
AcDbEntity
  8
1
390
0
  6
Continuous
 62
     7
100
AcDbCircle
 10
98.04366
 20
188.477001
 30
0.0
 40
2.0
210
0.0
220
0.0
230
1.0
  0
CIRCLE
  5
D6
100
AcDbEntity
  8
1
390
0
  6
Continuous
 62
     7
100
AcDbCircle
 10
107.54366
 20
188.477001
 30
0.0
 40
2.0
210
0.0
220
0.0
230
1.0
  0
LINE
  5
D7
100
AcDbEntity
  8
1
390
0
  6
Continuous
 62
     7
100
AcDbLine
 10
96.79366
 20
185.727001
 30
0.0
 11
95.29366
 21
187.227001
 31
0.0
  0
LINE
  5
D8
100
AcDbEntity
  8
1
390
0
  6
Continuous
 62
     7
100
AcDbLine
 10
108.79366
 20
185.727001
 30
0.0
 11
96.79366
 21
185.727001
 31
0.0
  0
ARC
  5
D9
100
AcDbEntity
  8
1
390
0
  6
Continuous
 62
     7
100
AcDbCircle
 10
98.04366
 20
187.65023
 30
0.0
 40
0.2
210
0.0
220
0.0
230
1.0
100
AcDbArc
 50
45.0
 51
135.0
  0
LINE
  5
DA
100
AcDbEntity
  8
1
390
0
  6
Continuous
 62
     7
100
AcDbLine
 10
98.587589
 20
187.389144
 30
0.0
 11
98.185082
 21
187.791651
 31
0.0
  0
LINE
  5
DB
100
AcDbEntity
  8
1
390
0
  6
Continuous
 62
     7
100
AcDbLine
 10
99.131517
 20
187.933073
 30
0.0
 11
98.587589
 21
187.389144
 31
0.0
  0
LINE
  5
DC
100
AcDbEntity
  8
1
390
0
  6
Continuous
 62
     7
100
AcDbLine
 10
98.72901
 20
188.335579
 30
0.0
 11
99.131517
 21
187.933073
 31
0.0
  0
ARC
  5
DD
100
AcDbEntity
  8
1
390
0
  6
Continuous
 62
     7
100
AcDbCircle
 10
98.870431
 20
188.477001
 30
0.0
 40
0.2
210
0.0
220
0.0
230
1.0
100
AcDbArc
 50
135.0
 51
225.0
  0
LINE
  5
DE
100
AcDbEntity
  8
1
390
0
  6
Continuous
 62
     7
100
AcDbLine
 10
99.131517
 20
189.020929
 30
0.0
 11
98.72901
 21
188.618422
 31
0.0
  0
LINE
  5
DF
100
AcDbEntity
  8
1
390
0
  6
Continuous
 62
     7
100
AcDbLine
 10
98.185082
 20
189.16235
 30
0.0
 11
98.587589
 21
189.564857
 31
0.0
  0
ARC
  5
E0
100
AcDbEntity
  8
1
390
0
  6
Continuous
 62
     7
100
AcDbCircle
 10
98.04366
 20
189.303772
 30
0.0
 40
0.2
210
0.0
220
0.0
230
1.0
100
AcDbArc
 50
225.0
 51
315.0
  0
LINE
  5
E1
100
AcDbEntity
  8
1
390
0
  6
Continuous
 62
     7
100
AcDbLine
 10
97.499732
 20
189.564857
 30
0.0
 11
97.902239
 21
189.16235
 31
0.0
  0
LINE
  5
E2
100
AcDbEntity
  8
1
390
0
  6
Continuous
 62
     7
100
AcDbLine
 10
97.358311
 20
188.618422
 30
0.0
 11
96.955804
 21
189.020929
 31
0.0
  0
ARC
  5
E3
100
AcDbEntity
  8
1
390
0
  6
Continuous
 62
     7
100
AcDbCircle
 10
97.216889
 20
188.477001
 30
0.0
 40
0.2
210
0.0
220
0.0
230
1.0
100
AcDbArc
 50
315.0
 51
45.0
  0
LINE
  5
E4
100
AcDbEntity
  8
1
390
0
  6
Continuous
 62
     7
100
AcDbLine
 10
96.955804
 20
187.933073
 30
0.0
 11
97.358311
 21
188.33558
 31
0.0
  0
LINE
  5
E5
100
AcDbEntity
  8
1
390
0
  6
Continuous
 62
     7
100
AcDbLine
 10
97.499732
 20
187.389144
 30
0.0
 11
96.955804
 21
187.933073
 31
0.0
  0
LINE
  5
E6
100
AcDbEntity
  8
1
390
0
  6
Continuous
 62
     7
100
AcDbLine
 10
97.902239
 20
187.791651
 30
0.0
 11
97.499732
 21
187.389144
 31
0.0
  0
LINE
  5
E7
100
AcDbEntity
  8
1
390
0
  6
Continuous
 62
     7
100
AcDbLine
 10
96.955804
 20
189.020929
 30
0.0
 11
97.499732
 21
189.564857
 31
0.0
  0
LINE
  5
E8
100
AcDbEntity
  8
1
390
0
  6
Continuous
 62
     7
100
AcDbLine
 10
98.587589
 20
189.564857
 30
0.0
 11
99.131517
 21
189.020929
 31
0.0
  0
ARC
  5
E9
100
AcDbEntity
  8
1
390
0
  6
Continuous
 62
     7
100
AcDbCircle
 10
106.716889
 20
197.977001
 30
0.0
 40
0.2
210
0.0
220
0.0
230
1.0
100
AcDbArc
 50
315.0
 51
45.0
  0
ARC
  5
EA
100
AcDbEntity
  8
1
390
0
  6
Continuous
 62
     7
100
AcDbCircle
 10
107.54366
 20
197.15023
 30
0.0
 40
0.2
210
0.0
220
0.0
230
1.0
100
AcDbArc
 50
45.0
 51
135.0
  0
ARC
  5
EB
100
AcDbEntity
  8
1
390
0
  6
Continuous
 62
     7
100
AcDbCircle
 10
108.370431
 20
197.977001
 30
0.0
 40
0.2
210
0.0
220
0.0
230
1.0
100
AcDbArc
 50
135.0
 51
225.0
  0
ARC
  5
EC
100
AcDbEntity
  8
1
390
0
  6
Continuous
 62
     7
100
AcDbCircle
 10
107.54366
 20
198.803772
 30
0.0
 40
0.2
210
0.0
220
0.0
230
1.0
100
AcDbArc
 50
225.0
 51
315.0
  0
LINE
  5
ED
100
AcDbEntity
  8
1
390
0
  6
Continuous
 62
     7
100
AcDbLine
 10
107.402239
 20
198.662351
 30
0.0
 11
106.999732
 21
199.064858
 31
0.0
  0
LINE
  5
EE
100
AcDbEntity
  8
1
390
0
  6
Continuous
 62
     7
100
AcDbLine
 10
106.455804
 20
197.433073
 30
0.0
 11
106.999732
 21
196.889145
 31
0.0
  0
LINE
  5
EF
100
AcDbEntity
  8
1
390
0
  6
Continuous
 62
     7
100
AcDbLine
 10
106.999732
 20
199.064858
 30
0.0
 11
106.455804
 21
198.520929
 31
0.0
  0
LINE
  5
F0
100
AcDbEntity
  8
1
390
0
  6
Continuous
 62
     7
100
AcDbLine
 10
106.455804
 20
198.520929
 30
0.0
 11
106.858311
 21
198.118422
 31
0.0
  0
LINE
  5
F1
100
AcDbEntity
  8
1
390
0
  6
Continuous
 62
     7
100
AcDbLine
 10
106.858311
 20
197.83558
 30
0.0
 11
106.455804
 21
197.433073
 31
0.0
  0
LINE
  5
F2
100
AcDbEntity
  8
1
390
0
  6
Continuous
 62
     7
100
AcDbLine
 10
108.631517
 20
198.520929
 30
0.0
 11
108.087589
 21
199.064858
 31
0.0
  0
LINE
  5
F3
100
AcDbEntity
  8
1
390
0
  6
Continuous
 62
     7
100
AcDbLine
 10
106.999732
 20
196.889145
 30
0.0
 11
107.402239
 21
197.291651
 31
0.0
  0
LINE
  5
F4
100
AcDbEntity
  8
1
390
0
  6
Continuous
 62
     7
100
AcDbLine
 10
107.685082
 20
197.291651
 30
0.0
 11
108.087589
 21
196.889145
 31
0.0
  0
LINE
  5
F5
100
AcDbEntity
  8
1
390
0
  6
Continuous
 62
     7
100
AcDbLine
 10
108.087589
 20
196.889145
 30
0.0
 11
108.631517
 21
197.433073
 31
0.0
  0
LINE
  5
F6
100
AcDbEntity
  8
1
390
0
  6
Continuous
 62
     7
100
AcDbLine
 10
108.631517
 20
197.433073
 30
0.0
 11
108.22901
 21
197.83558
 31
0.0
  0
LINE
  5
F7
100
AcDbEntity
  8
1
390
0
  6
Continuous
 62
     7
100
AcDbLine
 10
108.22901
 20
198.118422
 30
0.0
 11
108.631517
 21
198.520929
 31
0.0
  0
LINE
  5
F8
100
AcDbEntity
  8
1
390
0
  6
Continuous
 62
     7
100
AcDbLine
 10
108.087589
 20
199.064858
 30
0.0
 11
107.685082
 21
198.662351
 31
0.0
  0
LINE
  5
F9
100
AcDbEntity
  8
1
390
0
  6
Continuous
 62
     7
100
AcDbLine
 10
97.499732
 20
199.064858
 30
0.0
 11
96.955804
 21
198.520929
 31
0.0
  0
LINE
  5
FA
100
AcDbEntity
  8
1
390
0
  6
Continuous
 62
     7
100
AcDbLine
 10
96.955804
 20
198.520929
 30
0.0
 11
97.358311
 21
198.118422
 31
0.0
  0
ARC
  5
FB
100
AcDbEntity
  8
1
390
0
  6
Continuous
 62
     7
100
AcDbCircle
 10
97.216889
 20
197.977001
 30
0.0
 40
0.2
210
0.0
220
0.0
230
1.0
100
AcDbArc
 50
315.0
 51
45.0
  0
ARC
  5
FC
100
AcDbEntity
  8
1
390
0
  6
Continuous
 62
     7
100
AcDbCircle
 10
98.04366
 20
197.15023
 30
0.0
 40
0.2
210
0.0
220
0.0
230
1.0
100
AcDbArc
 50
45.0
 51
135.0
  0
LINE
  5
FD
100
AcDbEntity
  8
1
390
0
  6
Continuous
 62
     7
100
AcDbLine
 10
98.587589
 20
196.889145
 30
0.0
 11
99.131517
 21
197.433073
 31
0.0
  0
ARC
  5
FE
100
AcDbEntity
  8
1
390
0
  6
Continuous
 62
     7
100
AcDbCircle
 10
98.870431
 20
197.977001
 30
0.0
 40
0.2
210
0.0
220
0.0
230
1.0
100
AcDbArc
 50
135.0
 51
225.0
  0
ARC
  5
FF
100
AcDbEntity
  8
1
390
0
  6
Continuous
 62
     7
100
AcDbCircle
 10
98.04366
 20
198.803772
 30
0.0
 40
0.2
210
0.0
220
0.0
230
1.0
100
AcDbArc
 50
225.0
 51
315.0
  0
LINE
  5
100
100
AcDbEntity
  8
1
390
0
  6
Continuous
 62
     7
100
AcDbLine
 10
97.902239
 20
198.662351
 30
0.0
 11
97.499732
 21
199.064858
 31
0.0
  0
LINE
  5
101
100
AcDbEntity
  8
1
390
0
  6
Continuous
 62
     7
100
AcDbLine
 10
96.955804
 20
197.433073
 30
0.0
 11
97.499732
 21
196.889145
 31
0.0
  0
LINE
  5
102
100
AcDbEntity
  8
1
390
0
  6
Continuous
 62
     7
100
AcDbLine
 10
97.358311
 20
197.83558
 30
0.0
 11
96.955804
 21
197.433073
 31
0.0
  0
LINE
  5
103
100
AcDbEntity
  8
1
390
0
  6
Continuous
 62
     7
100
AcDbLine
 10
97.499732
 20
196.889145
 30
0.0
 11
97.902239
 21
197.291651
 31
0.0
  0
LINE
  5
104
100
AcDbEntity
  8
1
390
0
  6
Continuous
 62
     7
100
AcDbLine
 10
98.185082
 20
197.291651
 30
0.0
 11
98.587589
 21
196.889145
 31
0.0
  0
LINE
  5
105
100
AcDbEntity
  8
1
390
0
  6
Continuous
 62
     7
100
AcDbLine
 10
99.131517
 20
197.433073
 30
0.0
 11
98.72901
 21
197.83558
 31
0.0
  0
LINE
  5
106
100
AcDbEntity
  8
1
390
0
  6
Continuous
 62
     7
100
AcDbLine
 10
99.131517
 20
198.520929
 30
0.0
 11
98.587589
 21
199.064858
 31
0.0
  0
LINE
  5
107
100
AcDbEntity
  8
1
390
0
  6
Continuous
 62
     7
100
AcDbLine
 10
98.587589
 20
199.064858
 30
0.0
 11
98.185082
 21
198.662351
 31
0.0
  0
LINE
  5
108
100
AcDbEntity
  8
1
390
0
  6
Continuous
 62
     7
100
AcDbLine
 10
98.72901
 20
198.118422
 30
0.0
 11
99.131517
 21
198.520929
 31
0.0
  0
ARC
  5
109
100
AcDbEntity
  8
1
390
0
  6
Continuous
 62
     7
100
AcDbCircle
 10
107.54366
 20
187.65023
 30
0.0
 40
0.2
210
0.0
220
0.0
230
1.0
100
AcDbArc
 50
45.0
 51
135.0
  0
ARC
  5
10A
100
AcDbEntity
  8
1
390
0
  6
Continuous
 62
     7
100
AcDbCircle
 10
108.370431
 20
188.477001
 30
0.0
 40
0.2
210
0.0
220
0.0
230
1.0
100
AcDbArc
 50
135.0
 51
225.0
  0
ARC
  5
10B
100
AcDbEntity
  8
1
390
0
  6
Continuous
 62
     7
100
AcDbCircle
 10
107.54366
 20
189.303772
 30
0.0
 40
0.2
210
0.0
220
0.0
230
1.0
100
AcDbArc
 50
225.0
 51
315.0
  0
ARC
  5
10C
100
AcDbEntity
  8
1
390
0
  6
Continuous
 62
     7
100
AcDbCircle
 10
106.716889
 20
188.477001
 30
0.0
 40
0.2
210
0.0
220
0.0
230
1.0
100
AcDbArc
 50
315.0
 51
45.0
  0
LINE
  5
10D
100
AcDbEntity
  8
1
390
0
  6
Continuous
 62
     7
100
AcDbLine
 10
107.402239
 20
187.791651
 30
0.0
 11
106.999732
 21
187.389144
 31
0.0
  0
LINE
  5
10E
100
AcDbEntity
  8
1
390
0
  6
Continuous
 62
     7
100
AcDbLine
 10
108.631517
 20
187.933073
 30
0.0
 11
108.087589
 21
187.389144
 31
0.0
  0
LINE
  5
10F
100
AcDbEntity
  8
1
390
0
  6
Continuous
 62
     7
100
AcDbLine
 10
108.087589
 20
187.389144
 30
0.0
 11
107.685082
 21
187.791651
 31
0.0
  0
LINE
  5
110
100
AcDbEntity
  8
1
390
0
  6
Continuous
 62
     7
100
AcDbLine
 10
106.999732
 20
187.389144
 30
0.0
 11
106.455804
 21
187.933073
 31
0.0
  0
LINE
  5
111
100
AcDbEntity
  8
1
390
0
  6
Continuous
 62
     7
100
AcDbLine
 10
106.455804
 20
187.933073
 30
0.0
 11
106.858311
 21
188.33558
 31
0.0
  0
LINE
  5
112
100
AcDbEntity
  8
1
390
0
  6
Continuous
 62
     7
100
AcDbLine
 10
106.858311
 20
188.618422
 30
0.0
 11
106.455804
 21
189.020929
 31
0.0
  0
LINE
  5
113
100
AcDbEntity
  8
1
390
0
  6
Continuous
 62
     7
100
AcDbLine
 10
106.455804
 20
189.020929
 30
0.0
 11
106.999732
 21
189.564857
 31
0.0
  0
LINE
  5
114
100
AcDbEntity
  8
1
390
0
  6
Continuous
 62
     7
100
AcDbLine
 10
107.685082
 20
189.16235
 30
0.0
 11
108.087589
 21
189.564857
 31
0.0
  0
LINE
  5
115
100
AcDbEntity
  8
1
390
0
  6
Continuous
 62
     7
100
AcDbLine
 10
108.087589
 20
189.564857
 30
0.0
 11
108.631517
 21
189.020929
 31
0.0
  0
LINE
  5
116
100
AcDbEntity
  8
1
390
0
  6
Continuous
 62
     7
100
AcDbLine
 10
108.631517
 20
189.020929
 30
0.0
 11
108.22901
 21
188.618422
 31
0.0
  0
LINE
  5
117
100
AcDbEntity
  8
1
390
0
  6
Continuous
 62
     7
100
AcDbLine
 10
108.22901
 20
188.335579
 30
0.0
 11
108.631517
 21
187.933073
 31
0.0
  0
LINE
  5
118
100
AcDbEntity
  8
1
390
0
  6
Continuous
 62
     7
100
AcDbLine
 10
106.999732
 20
189.564857
 30
0.0
 11
107.402239
 21
189.16235
 31
0.0
  0
CIRCLE
  5
119
100
AcDbEntity
  8
1
390
0
  6
Continuous
 62
     7
100
AcDbCircle
 10
98.04366
 20
188.477001
 30
0.0
 40
1.75
210
0.0
220
0.0
230
1.0
  0
CIRCLE
  5
11A
100
AcDbEntity
  8
1
390
0
  6
Continuous
 62
     7
100
AcDbCircle
 10
107.54366
 20
197.977001
 30
0.0
 40
1.75
210
0.0
220
0.0
230
1.0
  0
CIRCLE
  5
11B
100
AcDbEntity
  8
1
390
0
  6
Continuous
 62
     7
100
AcDbCircle
 10
98.04366
 20
197.977001
 30
0.0
 40
1.75
210
0.0
220
0.0
230
1.0
  0
CIRCLE
  5
11C
100
AcDbEntity
  8
1
390
0
  6
Continuous
 62
     7
100
AcDbCircle
 10
107.54366
 20
188.477001
 30
0.0
 40
1.75
210
0.0
220
0.0
230
1.0
  0
LINE
  5
11D
100
AcDbEntity
  8
1
390
0
  6
Continuous
 62
     7
100
AcDbLine
 10
96.79366
 20
212.227001
 30
0.0
 11
183.79366
 21
212.227001
 31
0.0
  0
LINE
  5
11E
100
AcDbEntity
  8
1
390
0
  6
Continuous
 62
     7
100
AcDbLine
 10
185.79366
 20
210.227001
 30
0.0
 11
185.79366
 21
176.227001
 31
0.0
  0
ARC
  5
11F
100
AcDbEntity
  8
1
390
0
  6
Continuous
 62
     7
100
AcDbCircle
 10
183.79366
 20
176.227001
 30
0.0
 40
2.0
210
0.0
220
0.0
230
1.0
100
AcDbArc
 50
270.0
 51
360.0
  0
LINE
  5
120
100
AcDbEntity
  8
1
390
0
  6
Continuous
 62
     7
100
AcDbLine
 10
183.79366
 20
174.227001
 30
0.0
 11
96.79366
 21
174.227001
 31
0.0
  0
ARC
  5
121
100
AcDbEntity
  8
1
390
0
  6
Continuous
 62
     7
100
AcDbCircle
 10
96.79366
 20
176.227001
 30
0.0
 40
2.0
210
0.0
220
0.0
230
1.0
100
AcDbArc
 50
180.0
 51
270.0
  0
LINE
  5
122
100
AcDbEntity
  8
1
390
0
  6
Continuous
 62
     7
100
AcDbLine
 10
94.79366
 20
176.227001
 30
0.0
 11
94.79366
 21
183.227001
 31
0.0
  0
LINE
  5
123
100
AcDbEntity
  8
1
390
0
  6
Continuous
 62
     7
100
AcDbLine
 10
96.79366
 20
185.227001
 30
0.0
 11
108.79366
 21
185.227001
 31
0.0
  0
ARC
  5
124
100
AcDbEntity
  8
1
390
0
  6
Continuous
 62
     7
100
AcDbCircle
 10
108.79366
 20
187.227001
 30
0.0
 40
2.0
210
0.0
220
0.0
230
1.0
100
AcDbArc
 50
270.0
 51
360.0
  0
LINE
  5
125
100
AcDbEntity
  8
1
390
0
  6
Continuous
 62
     7
100
AcDbLine
 10
110.79366
 20
187.227001
 30
0.0
 11
110.79366
 21
199.227001
 31
0.0
  0
ARC
  5
126
100
AcDbEntity
  8
1
390
0
  6
Continuous
 62
     7
100
AcDbCircle
 10
108.79366
 20
199.227001
 30
0.0
 40
2.0
210
0.0
220
0.0
230
1.0
100
AcDbArc
 50
0.0
 51
90.0
  0
ARC
  5
127
100
AcDbEntity
  8
1
390
0
  6
Continuous
 62
     7
100
AcDbCircle
 10
96.79366
 20
210.227001
 30
0.0
 40
2.0
210
0.0
220
0.0
230
1.0
100
AcDbArc
 50
90.0
 51
180.0
  0
ARC
  5
128
100
AcDbEntity
  8
1
390
0
  6
Continuous
 62
     7
100
AcDbCircle
 10
96.79366
 20
183.227001
 30
0.0
 40
2.0
210
0.0
220
0.0
230
1.0
100
AcDbArc
 50
90.0
 51
180.0
  0
ARC
  5
129
100
AcDbEntity
  8
1
390
0
  6
Continuous
 62
     7
100
AcDbCircle
 10
96.79366
 20
203.227001
 30
0.0
 40
2.0
210
0.0
220
0.0
230
1.0
100
AcDbArc
 50
180.0
 51
270.0
  0
LINE
  5
12A
100
AcDbEntity
  8
1
390
0
  6
Continuous
 62
     7
100
AcDbLine
 10
108.79366
 20
201.227001
 30
0.0
 11
96.79366
 21
201.227001
 31
0.0
  0
LINE
  5
12B
100
AcDbEntity
  8
1
390
0
  6
Continuous
 62
     7
100
AcDbLine
 10
94.79366
 20
203.227001
 30
0.0
 11
94.79366
 21
210.227001
 31
0.0
  0
ARC
  5
12C
100
AcDbEntity
  8
1
390
0
  6
Continuous
 62
     7
100
AcDbCircle
 10
183.79366
 20
210.227001
 30
0.0
 40
2.0
210
0.0
220
0.0
230
1.0
100
AcDbArc
 50
0.0
 51
90.0
  0
LINE
  5
12D
100
AcDbEntity
  8
1
390
0
  6
Continuous
 62
     7
100
AcDbLine
 10
187.79366
 20
213.227001
 30
0.0
 11
187.79366
 21
173.227001
 31
0.0
  0
ARC
  5
12E
100
AcDbEntity
  8
1
390
0
  6
Continuous
 62
     7
100
AcDbCircle
 10
93.79366
 20
173.227001
 30
0.0
 40
1.0
210
0.0
220
0.0
230
1.0
100
AcDbArc
 50
180.0
 51
270.0
  0
LINE
  5
12F
100
AcDbEntity
  8
1
390
0
  6
Continuous
 62
     7
100
AcDbLine
 10
93.79366
 20
214.227001
 30
0.0
 11
186.79366
 21
214.227001
 31
0.0
  0
LINE
  5
130
100
AcDbEntity
  8
1
390
0
  6
Continuous
 62
     7
100
AcDbLine
 10
186.79366
 20
172.227001
 30
0.0
 11
93.79366
 21
172.227001
 31
0.0
  0
ARC
  5
131
100
AcDbEntity
  8
1
390
0
  6
Continuous
 62
     7
100
AcDbCircle
 10
93.79366
 20
213.227001
 30
0.0
 40
1.0
210
0.0
220
0.0
230
1.0
100
AcDbArc
 50
90.0
 51
180.0
  0
LINE
  5
132
100
AcDbEntity
  8
1
390
0
  6
Continuous
 62
     7
100
AcDbLine
 10
92.79366
 20
173.227001
 30
0.0
 11
92.79366
 21
213.227001
 31
0.0
  0
ARC
  5
133
100
AcDbEntity
  8
1
390
0
  6
Continuous
 62
     7
100
AcDbCircle
 10
186.79366
 20
213.227001
 30
0.0
 40
1.0
210
0.0
220
0.0
230
1.0
100
AcDbArc
 50
0.0
 51
90.0
  0
ARC
  5
134
100
AcDbEntity
  8
1
390
0
  6
Continuous
 62
     7
100
AcDbCircle
 10
186.79366
 20
173.227001
 30
0.0
 40
1.0
210
0.0
220
0.0
230
1.0
100
AcDbArc
 50
270.0
 51
360.0
  0
LINE
  5
135
100
AcDbEntity
  8
1
390
0
  6
Continuous
 62
     7
100
AcDbLine
 10
188.70566
 20
183.503001
 30
0.0
 11
188.70566
 21
176.951001
 31
0.0
  0
LINE
  5
136
100
AcDbEntity
  8
1
390
0
  6
Continuous
 62
     7
100
AcDbLine
 10
189.619548
 20
179.292778
 30
0.0
 11
189.600984
 21
179.204911
 31
0.0
  0
LINE
  5
137
100
AcDbEntity
  8
1
390
0
  6
DOT
 62
     9
100
AcDbLine
 10
189.619257
 20
181.162607
 30
0.0
 11
189.618585
 21
181.16579
 31
0.0
  0
LINE
  5
138
100
AcDbEntity
  8
1
390
0
  6
DOT
 62
     9
100
AcDbLine
 10
189.604953
 20
181.23033
 30
0.0
 11
189.600984
 21
181.249092
 31
0.0
  0
ELLIPSE
  5
139
100
AcDbEntity
  8
1
390
0
  6
Continuous
 62
     7
100
AcDbEllipse
 10
183.768397
 20
181.441939
 30
0.0
 11
-5.6706784663715926
 21
0.0
 31
0.0
210
0.0
220
0.0
230
1.0
 40
0.707107
 41
3.0404221589650793
 42
3.2427631499957772
  0
ELLIPSE
  5
13A
100
AcDbEntity
  8
1
390
0
  6
Continuous
 62
     7
100
AcDbEllipse
 10
183.768397
 20
179.822022
 30
0.0
 11
5.8975187236378073
 21
0.0
 31
0.0
210
0.0
220
0.0
230
1.0
 40
0.707107
 41
0.1485276297750612
 42
0.2956271010664832
  0
ARC
  5
13B
100
AcDbEntity
  8
1
390
0
  6
Continuous
 62
     7
100
AcDbCircle
 10
188.398048
 20
180.227001
 30
0.0
 40
1.221497
210
0.0
220
0.0
230
1.0
100
AcDbArc
 50
349.99899
 51
10.001014
  0
ELLIPSE
  5
13C
100
AcDbEntity
  8
1
390
0
  6
Continuous
 62
     7
100
AcDbEllipse
 10
183.768397
 20
180.63198
 30
0.0
 11
-5.8975186994827125
 21
0.0
 31
0.0
210
0.0
220
0.0
230
1.0
 40
0.707107
 41
2.8459655953640479
 42
2.9930650658469631
  0
ELLIPSE
  5
13D
100
AcDbEntity
  8
1
390
0
  6
Continuous
 62
     7
100
AcDbEllipse
 10
183.768397
 20
179.012063
 30
0.0
 11
5.6706785417355299
 21
0.0
 31
0.0
210
0.0
220
0.0
230
0.9999999999999999
 40
0.707107
 41
6.1820148439740166
 42
6.3843558445430624
  0
ELLIPSE
  5
13E
100
AcDbEntity
  8
1
390
0
  6
Continuous
 62
     7
100
AcDbEllipse
 10
183.768397
 20
179.822022
 30
0.0
 11
5.8975187401126004
 21
0.0
 31
0.0
210
0.0
220
0.0
230
1.0
 40
0.707107
 41
5.987558251051933
 42
6.1346577200205239
  0
LINE
  5
13F
100
AcDbEntity
  8
1
390
0
  6
DOT
 62
     9
100
AcDbLine
 10
189.600984
 20
179.204911
 30
0.0
 11
189.605088
 21
179.22431
 31
0.0
  0
LINE
  5
140
100
AcDbEntity
  8
1
390
0
  6
Continuous
 62
     7
100
AcDbLine
 10
189.600984
 20
181.249092
 30
0.0
 11
189.619548
 21
181.161224
 31
0.0
  0
ELLIPSE
  5
141
100
AcDbEntity
  8
1
390
0
  6
Continuous
 62
     7
100
AcDbEllipse
 10
183.768397
 20
180.63198
 30
0.0
 11
-5.8975187226619763
 21
0.0
 31
0.0
210
0.0
220
0.0
230
0.9999999999999999
 40
0.707107
 41
3.2901202838368775
 42
3.437219754706732
  0
LINE
  5
142
100
AcDbEntity
  8
1
390
0
  6
Continuous
 62
     7
100
AcDbLine
 10
188.29366
 20
186.977001
 30
0.0
 11
188.29366
 21
189.517001
 31
0.0
  0
LINE
  5
143
100
AcDbEntity
  8
1
390
0
  6
Continuous
 62
     7
100
AcDbLine
 10
188.04366
 20
186.977001
 30
0.0
 11
188.29366
 21
186.977001
 31
0.0
  0
LINE
  5
144
100
AcDbEntity
  8
1
390
0
  6
Continuous
 62
     7
100
AcDbLine
 10
188.04366
 20
186.977001
 30
0.0
 11
187.79366
 21
186.977001
 31
0.0
  0
LINE
  5
145
100
AcDbEntity
  8
1
390
0
  6
Continuous
 62
     7
100
AcDbLine
 10
188.29366
 20
189.517001
 30
0.0
 11
188.29366
 21
192.057001
 31
0.0
  0
LINE
  5
146
100
AcDbEntity
  8
1
390
0
  6
Continuous
 62
     7
100
AcDbLine
 10
188.29366
 20
192.057001
 30
0.0
 11
188.29366
 21
194.597001
 31
0.0
  0
LINE
  5
147
100
AcDbEntity
  8
1
390
0
  6
Continuous
 62
     7
100
AcDbLine
 10
188.29366
 20
194.597001
 30
0.0
 11
188.29366
 21
197.137001
 31
0.0
  0
LINE
  5
148
100
AcDbEntity
  8
1
390
0
  6
Continuous
 62
     7
100
AcDbLine
 10
188.29366
 20
197.137001
 30
0.0
 11
188.29366
 21
199.677001
 31
0.0
  0
LINE
  5
149
100
AcDbEntity
  8
1
390
0
  6
Continuous
 62
     7
100
AcDbLine
 10
188.29366
 20
199.677001
 30
0.0
 11
188.29366
 21
202.217001
 31
0.0
  0
LINE
  5
14A
100
AcDbEntity
  8
1
390
0
  6
Continuous
 62
     7
100
AcDbLine
 10
188.29366
 20
204.757001
 30
0.0
 11
188.29366
 21
207.297001
 31
0.0
  0
LINE
  5
14B
100
AcDbEntity
  8
1
390
0
  6
Continuous
 62
     7
100
AcDbLine
 10
188.29366
 20
202.217001
 30
0.0
 11
188.29366
 21
204.757001
 31
0.0
  0
LINE
  5
14C
100
AcDbEntity
  8
1
390
0
  6
Continuous
 62
     7
100
AcDbLine
 10
188.29366
 20
208.797001
 30
0.0
 11
188.04366
 21
208.797001
 31
0.0
  0
LINE
  5
14D
100
AcDbEntity
  8
1
390
0
  6
Continuous
 62
     7
100
AcDbLine
 10
188.29366
 20
207.297001
 30
0.0
 11
188.29366
 21
208.797001
 31
0.0
  0
LINE
  5
14E
100
AcDbEntity
  8
1
390
0
  6
Continuous
 62
     7
100
AcDbLine
 10
187.79366
 20
208.797001
 30
0.0
 11
188.04366
 21
208.797001
 31
0.0
  0
LINE
  5
14F
100
AcDbEntity
  8
1
390
0
  6
DOT
 62
     9
100
AcDbLine
 10
188.29366
 20
178.607084
 30
0.0
 11
188.29366
 21
179.417042
 31
0.0
  0
LINE
  5
150
100
AcDbEntity
  8
1
390
0
  6
DOT
 62
     9
100
AcDbLine
 10
189.410079
 20
179.417042
 30
0.0
 11
188.29366
 21
179.417042
 31
0.0
  0
LINE
  5
151
100
AcDbEntity
  8
1
390
0
  6
DOT
 62
     9
100
AcDbLine
 10
188.29366
 20
179.417042
 30
0.0
 11
188.29366
 21
180.014869
 31
0.0
  0
LINE
  5
152
100
AcDbEntity
  8
1
390
0
  6
DOT
 62
     9
100
AcDbLine
 10
188.29366
 20
180.439133
 30
0.0
 11
188.29366
 21
181.03696
 31
0.0
  0
LINE
  5
153
100
AcDbEntity
  8
1
390
0
  6
DOT
 62
     9
100
AcDbLine
 10
189.410079
 20
181.03696
 30
0.0
 11
188.29366
 21
181.03696
 31
0.0
  0
LINE
  5
154
100
AcDbEntity
  8
1
390
0
  6
DOT
 62
     9
100
AcDbLine
 10
188.29366
 20
181.03696
 30
0.0
 11
188.29366
 21
181.846918
 31
0.0
  0
LINE
  5
155
100
AcDbEntity
  8
1
390
0
  6
DOT
 62
     9
100
AcDbLine
 10
188.29366
 20
180.439133
 30
0.0
 11
188.29366
 21
180.014869
 31
0.0
  0
LINE
  5
156
100
AcDbEntity
  8
1
390
0
  6
DOT
 62
     9
100
AcDbLine
 10
185.69366
 20
187.417001
 30
0.0
 11
185.69366
 21
189.517001
 31
0.0
  0
LINE
  5
157
100
AcDbEntity
  8
1
390
0
  6
DOT
 62
     9
100
AcDbLine
 10
188.29366
 20
189.517001
 30
0.0
 11
188.04366
 21
189.517001
 31
0.0
  0
LINE
  5
158
100
AcDbEntity
  8
1
390
0
  6
DOT
 62
     9
100
AcDbLine
 10
188.04366
 20
189.517001
 30
0.0
 11
187.79366
 21
189.517001
 31
0.0
  0
LINE
  5
159
100
AcDbEntity
  8
1
390
0
  6
DOT
 62
     9
100
AcDbLine
 10
187.79366
 20
189.517001
 30
0.0
 11
185.69366
 21
189.517001
 31
0.0
  0
LINE
  5
15A
100
AcDbEntity
  8
1
390
0
  6
DOT
 62
     9
100
AcDbLine
 10
185.69366
 20
189.517001
 30
0.0
 11
184.09366
 21
189.517001
 31
0.0
  0
LINE
  5
15B
100
AcDbEntity
  8
1
390
0
  6
DOT
 62
     9
100
AcDbLine
 10
184.09366
 20
187.917001
 30
0.0
 11
185.69366
 21
187.417001
 31
0.0
  0
LINE
  5
15C
100
AcDbEntity
  8
1
390
0
  6
DOT
 62
     9
100
AcDbLine
 10
188.29366
 20
187.417001
 30
0.0
 11
185.69366
 21
187.417001
 31
0.0
  0
LINE
  5
15D
100
AcDbEntity
  8
1
390
0
  6
DOT
 62
     9
100
AcDbLine
 10
184.09366
 20
190.457001
 30
0.0
 11
185.69366
 21
189.957001
 31
0.0
  0
LINE
  5
15E
100
AcDbEntity
  8
1
390
0
  6
DOT
 62
     9
100
AcDbLine
 10
185.69366
 20
189.957001
 30
0.0
 11
185.69366
 21
192.057001
 31
0.0
  0
LINE
  5
15F
100
AcDbEntity
  8
1
390
0
  6
DOT
 62
     9
100
AcDbLine
 10
188.29366
 20
192.057001
 30
0.0
 11
188.04366
 21
192.057001
 31
0.0
  0
LINE
  5
160
100
AcDbEntity
  8
1
390
0
  6
DOT
 62
     9
100
AcDbLine
 10
188.04366
 20
192.057001
 30
0.0
 11
187.79366
 21
192.057001
 31
0.0
  0
LINE
  5
161
100
AcDbEntity
  8
1
390
0
  6
DOT
 62
     9
100
AcDbLine
 10
187.79366
 20
192.057001
 30
0.0
 11
185.69366
 21
192.057001
 31
0.0
  0
LINE
  5
162
100
AcDbEntity
  8
1
390
0
  6
DOT
 62
     9
100
AcDbLine
 10
185.69366
 20
192.057001
 30
0.0
 11
184.09366
 21
192.057001
 31
0.0
  0
LINE
  5
163
100
AcDbEntity
  8
1
390
0
  6
DOT
 62
     9
100
AcDbLine
 10
188.29366
 20
189.957001
 30
0.0
 11
185.69366
 21
189.957001
 31
0.0
  0
LINE
  5
164
100
AcDbEntity
  8
1
390
0
  6
DOT
 62
     9
100
AcDbLine
 10
188.29366
 20
192.497001
 30
0.0
 11
185.69366
 21
192.497001
 31
0.0
  0
LINE
  5
165
100
AcDbEntity
  8
1
390
0
  6
DOT
 62
     9
100
AcDbLine
 10
184.09366
 20
192.997001
 30
0.0
 11
185.69366
 21
192.497001
 31
0.0
  0
LINE
  5
166
100
AcDbEntity
  8
1
390
0
  6
DOT
 62
     9
100
AcDbLine
 10
185.69366
 20
192.497001
 30
0.0
 11
185.69366
 21
194.597001
 31
0.0
  0
LINE
  5
167
100
AcDbEntity
  8
1
390
0
  6
DOT
 62
     9
100
AcDbLine
 10
188.29366
 20
197.577001
 30
0.0
 11
185.69366
 21
197.577001
 31
0.0
  0
LINE
  5
168
100
AcDbEntity
  8
1
390
0
  6
DOT
 62
     9
100
AcDbLine
 10
185.69366
 20
197.577001
 30
0.0
 11
185.69366
 21
199.677001
 31
0.0
  0
LINE
  5
169
100
AcDbEntity
  8
1
390
0
  6
DOT
 62
     9
100
AcDbLine
 10
188.29366
 20
197.137001
 30
0.0
 11
188.04366
 21
197.137001
 31
0.0
  0
LINE
  5
16A
100
AcDbEntity
  8
1
390
0
  6
DOT
 62
     9
100
AcDbLine
 10
188.04366
 20
197.137001
 30
0.0
 11
187.79366
 21
197.137001
 31
0.0
  0
LINE
  5
16B
100
AcDbEntity
  8
1
390
0
  6
DOT
 62
     9
100
AcDbLine
 10
187.79366
 20
197.137001
 30
0.0
 11
185.69366
 21
197.137001
 31
0.0
  0
LINE
  5
16C
100
AcDbEntity
  8
1
390
0
  6
DOT
 62
     9
100
AcDbLine
 10
185.69366
 20
197.137001
 30
0.0
 11
184.09366
 21
197.137001
 31
0.0
  0
LINE
  5
16D
100
AcDbEntity
  8
1
390
0
  6
DOT
 62
     9
100
AcDbLine
 10
184.09366
 20
195.537001
 30
0.0
 11
185.69366
 21
195.037001
 31
0.0
  0
LINE
  5
16E
100
AcDbEntity
  8
1
390
0
  6
DOT
 62
     9
100
AcDbLine
 10
185.69366
 20
195.037001
 30
0.0
 11
185.69366
 21
197.137001
 31
0.0
  0
LINE
  5
16F
100
AcDbEntity
  8
1
390
0
  6
DOT
 62
     9
100
AcDbLine
 10
188.29366
 20
195.037001
 30
0.0
 11
185.69366
 21
195.037001
 31
0.0
  0
LINE
  5
170
100
AcDbEntity
  8
1
390
0
  6
DOT
 62
     9
100
AcDbLine
 10
184.09366
 20
198.077001
 30
0.0
 11
185.69366
 21
197.577001
 31
0.0
  0
LINE
  5
171
100
AcDbEntity
  8
1
390
0
  6
DOT
 62
     9
100
AcDbLine
 10
188.29366
 20
199.677001
 30
0.0
 11
188.04366
 21
199.677001
 31
0.0
  0
LINE
  5
172
100
AcDbEntity
  8
1
390
0
  6
DOT
 62
     9
100
AcDbLine
 10
188.04366
 20
199.677001
 30
0.0
 11
187.79366
 21
199.677001
 31
0.0
  0
LINE
  5
173
100
AcDbEntity
  8
1
390
0
  6
DOT
 62
     9
100
AcDbLine
 10
187.79366
 20
199.677001
 30
0.0
 11
185.69366
 21
199.677001
 31
0.0
  0
LINE
  5
174
100
AcDbEntity
  8
1
390
0
  6
DOT
 62
     9
100
AcDbLine
 10
185.69366
 20
199.677001
 30
0.0
 11
184.09366
 21
199.677001
 31
0.0
  0
LINE
  5
175
100
AcDbEntity
  8
1
390
0
  6
DOT
 62
     9
100
AcDbLine
 10
185.69366
 20
194.597001
 30
0.0
 11
184.09366
 21
194.597001
 31
0.0
  0
LINE
  5
176
100
AcDbEntity
  8
1
390
0
  6
DOT
 62
     9
100
AcDbLine
 10
188.29366
 20
194.597001
 30
0.0
 11
188.04366
 21
194.597001
 31
0.0
  0
LINE
  5
177
100
AcDbEntity
  8
1
390
0
  6
DOT
 62
     9
100
AcDbLine
 10
188.04366
 20
194.597001
 30
0.0
 11
187.79366
 21
194.597001
 31
0.0
  0
LINE
  5
178
100
AcDbEntity
  8
1
390
0
  6
DOT
 62
     9
100
AcDbLine
 10
187.79366
 20
194.597001
 30
0.0
 11
185.69366
 21
194.597001
 31
0.0
  0
LINE
  5
179
100
AcDbEntity
  8
1
390
0
  6
DOT
 62
     9
100
AcDbLine
 10
188.29366
 20
202.217001
 30
0.0
 11
188.04366
 21
202.217001
 31
0.0
  0
LINE
  5
17A
100
AcDbEntity
  8
1
390
0
  6
DOT
 62
     9
100
AcDbLine
 10
188.04366
 20
202.217001
 30
0.0
 11
187.79366
 21
202.217001
 31
0.0
  0
LINE
  5
17B
100
AcDbEntity
  8
1
390
0
  6
DOT
 62
     9
100
AcDbLine
 10
187.79366
 20
202.217001
 30
0.0
 11
185.69366
 21
202.217001
 31
0.0
  0
LINE
  5
17C
100
AcDbEntity
  8
1
390
0
  6
DOT
 62
     9
100
AcDbLine
 10
188.29366
 20
200.117001
 30
0.0
 11
185.69366
 21
200.117001
 31
0.0
  0
LINE
  5
17D
100
AcDbEntity
  8
1
390
0
  6
DOT
 62
     9
100
AcDbLine
 10
185.69366
 20
200.117001
 30
0.0
 11
185.69366
 21
202.217001
 31
0.0
  0
LINE
  5
17E
100
AcDbEntity
  8
1
390
0
  6
DOT
 62
     9
100
AcDbLine
 10
185.69366
 20
202.217001
 30
0.0
 11
184.09366
 21
202.217001
 31
0.0
  0
LINE
  5
17F
100
AcDbEntity
  8
1
390
0
  6
DOT
 62
     9
100
AcDbLine
 10
184.09366
 20
200.617001
 30
0.0
 11
185.69366
 21
200.117001
 31
0.0
  0
LINE
  5
180
100
AcDbEntity
  8
1
390
0
  6
DOT
 62
     9
100
AcDbLine
 10
184.09366
 20
203.157001
 30
0.0
 11
185.69366
 21
202.657001
 31
0.0
  0
LINE
  5
181
100
AcDbEntity
  8
1
390
0
  6
DOT
 62
     9
100
AcDbLine
 10
188.29366
 20
207.297001
 30
0.0
 11
188.04366
 21
207.297001
 31
0.0
  0
LINE
  5
182
100
AcDbEntity
  8
1
390
0
  6
DOT
 62
     9
100
AcDbLine
 10
188.04366
 20
207.297001
 30
0.0
 11
187.79366
 21
207.297001
 31
0.0
  0
LINE
  5
183
100
AcDbEntity
  8
1
390
0
  6
DOT
 62
     9
100
AcDbLine
 10
187.79366
 20
207.297001
 30
0.0
 11
185.69366
 21
207.297001
 31
0.0
  0
LINE
  5
184
100
AcDbEntity
  8
1
390
0
  6
DOT
 62
     9
100
AcDbLine
 10
185.69366
 20
205.197001
 30
0.0
 11
185.69366
 21
207.297001
 31
0.0
  0
LINE
  5
185
100
AcDbEntity
  8
1
390
0
  6
DOT
 62
     9
100
AcDbLine
 10
185.69366
 20
207.297001
 30
0.0
 11
184.09366
 21
207.297001
 31
0.0
  0
LINE
  5
186
100
AcDbEntity
  8
1
390
0
  6
DOT
 62
     9
100
AcDbLine
 10
188.29366
 20
202.657001
 30
0.0
 11
185.69366
 21
202.657001
 31
0.0
  0
LINE
  5
187
100
AcDbEntity
  8
1
390
0
  6
DOT
 62
     9
100
AcDbLine
 10
185.69366
 20
202.657001
 30
0.0
 11
185.69366
 21
204.757001
 31
0.0
  0
LINE
  5
188
100
AcDbEntity
  8
1
390
0
  6
DOT
 62
     9
100
AcDbLine
 10
188.29366
 20
205.197001
 30
0.0
 11
185.69366
 21
205.197001
 31
0.0
  0
LINE
  5
189
100
AcDbEntity
  8
1
390
0
  6
DOT
 62
     9
100
AcDbLine
 10
184.09366
 20
205.697001
 30
0.0
 11
185.69366
 21
205.197001
 31
0.0
  0
LINE
  5
18A
100
AcDbEntity
  8
1
390
0
  6
DOT
 62
     9
100
AcDbLine
 10
188.29366
 20
204.757001
 30
0.0
 11
188.04366
 21
204.757001
 31
0.0
  0
LINE
  5
18B
100
AcDbEntity
  8
1
390
0
  6
DOT
 62
     9
100
AcDbLine
 10
188.04366
 20
204.757001
 30
0.0
 11
187.79366
 21
204.757001
 31
0.0
  0
LINE
  5
18C
100
AcDbEntity
  8
1
390
0
  6
DOT
 62
     9
100
AcDbLine
 10
187.79366
 20
204.757001
 30
0.0
 11
185.69366
 21
204.757001
 31
0.0
  0
LINE
  5
18D
100
AcDbEntity
  8
1
390
0
  6
DOT
 62
     9
100
AcDbLine
 10
185.69366
 20
204.757001
 30
0.0
 11
184.09366
 21
204.757001
 31
0.0
  0
LINE
  5
18E
100
AcDbEntity
  8
1
390
0
  6
DOT
 62
     9
100
AcDbLine
 10
189.410079
 20
181.846918
 30
0.0
 11
188.29366
 21
181.846918
 31
0.0
  0
LINE
  5
18F
100
AcDbEntity
  8
1
390
0
  6
DOT
 62
     9
100
AcDbLine
 10
189.410079
 20
178.607084
 30
0.0
 11
188.29366
 21
178.607084
 31
0.0
  0
LINE
  5
190
100
AcDbEntity
  8
1
390
0
  6
DOT
 62
     9
100
AcDbLine
 10
184.09366
 20
187.917001
 30
0.0
 11
184.09366
 21
189.517001
 31
0.0
  0
LINE
  5
191
100
AcDbEntity
  8
1
390
0
  6
DOT
 62
     9
100
AcDbLine
 10
184.09366
 20
190.457001
 30
0.0
 11
184.09366
 21
192.057001
 31
0.0
  0
LINE
  5
192
100
AcDbEntity
  8
1
390
0
  6
DOT
 62
     9
100
AcDbLine
 10
184.09366
 20
192.997001
 30
0.0
 11
184.09366
 21
194.597001
 31
0.0
  0
LINE
  5
193
100
AcDbEntity
  8
1
390
0
  6
DOT
 62
     9
100
AcDbLine
 10
184.09366
 20
195.537001
 30
0.0
 11
184.09366
 21
197.137001
 31
0.0
  0
LINE
  5
194
100
AcDbEntity
  8
1
390
0
  6
DOT
 62
     9
100
AcDbLine
 10
184.09366
 20
200.617001
 30
0.0
 11
184.09366
 21
202.217001
 31
0.0
  0
LINE
  5
195
100
AcDbEntity
  8
1
390
0
  6
DOT
 62
     9
100
AcDbLine
 10
184.09366
 20
198.077001
 30
0.0
 11
184.09366
 21
199.677001
 31
0.0
  0
LINE
  5
196
100
AcDbEntity
  8
1
390
0
  6
DOT
 62
     9
100
AcDbLine
 10
184.09366
 20
205.697001
 30
0.0
 11
184.09366
 21
207.297001
 31
0.0
  0
LINE
  5
197
100
AcDbEntity
  8
1
390
0
  6
DOT
 62
     9
100
AcDbLine
 10
184.09366
 20
203.157001
 30
0.0
 11
184.09366
 21
204.757001
 31
0.0
  0
LINE
  5
198
100
AcDbEntity
  8
1
390
0
  6
Continuous
 62
     7
100
AcDbLine
 10
189.619548
 20
181.161224
 30
0.0
 11
189.619257
 21
181.162607
 31
0.0
  0
LINE
  5
199
100
AcDbEntity
  8
1
390
0
  6
Continuous
 62
     7
100
AcDbLine
 10
189.94366
 20
191.457001
 30
0.0
 11
189.74366
 21
191.457001
 31
0.0
  0
LINE
  5
19A
100
AcDbEntity
  8
1
390
0
  6
Continuous
 62
     7
100
AcDbLine
 10
189.94366
 20
190.057001
 30
0.0
 11
189.94366
 21
191.457001
 31
0.0
  0
LINE
  5
19B
100
AcDbEntity
  8
1
390
0
  6
Continuous
 62
     7
100
AcDbLine
 10
189.74366
 20
190.057001
 30
0.0
 11
189.94366
 21
190.057001
 31
0.0
  0
LINE
  5
19C
100
AcDbEntity
  8
1
390
0
  6
Continuous
 62
     7
100
AcDbLine
 10
189.94366
 20
187.517001
 30
0.0
 11
189.94366
 21
188.917001
 31
0.0
  0
LINE
  5
19D
100
AcDbEntity
  8
1
390
0
  6
Continuous
 62
     7
100
AcDbLine
 10
189.74366
 20
187.517001
 30
0.0
 11
189.94366
 21
187.517001
 31
0.0
  0
LINE
  5
19E
100
AcDbEntity
  8
1
390
0
  6
Continuous
 62
     7
100
AcDbLine
 10
189.94366
 20
188.917001
 30
0.0
 11
189.74366
 21
188.917001
 31
0.0
  0
LINE
  5
19F
100
AcDbEntity
  8
1
390
0
  6
Continuous
 62
     7
100
AcDbLine
 10
188.29366
 20
187.517001
 30
0.0
 11
189.74366
 21
187.517001
 31
0.0
  0
LINE
  5
1A0
100
AcDbEntity
  8
1
390
0
  6
Continuous
 62
     7
100
AcDbLine
 10
188.29366
 20
188.917001
 30
0.0
 11
189.74366
 21
188.917001
 31
0.0
  0
LINE
  5
1A1
100
AcDbEntity
  8
1
390
0
  6
Continuous
 62
     7
100
AcDbLine
 10
188.29366
 20
192.597001
 30
0.0
 11
189.74366
 21
192.597001
 31
0.0
  0
LINE
  5
1A2
100
AcDbEntity
  8
1
390
0
  6
Continuous
 62
     7
100
AcDbLine
 10
188.29366
 20
193.997001
 30
0.0
 11
189.74366
 21
193.997001
 31
0.0
  0
LINE
  5
1A3
100
AcDbEntity
  8
1
390
0
  6
Continuous
 62
     7
100
AcDbLine
 10
188.29366
 20
191.457001
 30
0.0
 11
189.74366
 21
191.457001
 31
0.0
  0
LINE
  5
1A4
100
AcDbEntity
  8
1
390
0
  6
Continuous
 62
     7
100
AcDbLine
 10
188.29366
 20
190.057001
 30
0.0
 11
189.74366
 21
190.057001
 31
0.0
  0
LINE
  5
1A5
100
AcDbEntity
  8
1
390
0
  6
Continuous
 62
     7
100
AcDbLine
 10
189.94366
 20
196.537001
 30
0.0
 11
189.74366
 21
196.537001
 31
0.0
  0
LINE
  5
1A6
100
AcDbEntity
  8
1
390
0
  6
Continuous
 62
     7
100
AcDbLine
 10
189.94366
 20
195.137001
 30
0.0
 11
189.94366
 21
196.537001
 31
0.0
  0
LINE
  5
1A7
100
AcDbEntity
  8
1
390
0
  6
Continuous
 62
     7
100
AcDbLine
 10
189.74366
 20
195.137001
 30
0.0
 11
189.94366
 21
195.137001
 31
0.0
  0
LINE
  5
1A8
100
AcDbEntity
  8
1
390
0
  6
Continuous
 62
     7
100
AcDbLine
 10
189.94366
 20
192.597001
 30
0.0
 11
189.94366
 21
193.997001
 31
0.0
  0
LINE
  5
1A9
100
AcDbEntity
  8
1
390
0
  6
Continuous
 62
     7
100
AcDbLine
 10
189.74366
 20
192.597001
 30
0.0
 11
189.94366
 21
192.597001
 31
0.0
  0
LINE
  5
1AA
100
AcDbEntity
  8
1
390
0
  6
Continuous
 62
     7
100
AcDbLine
 10
189.94366
 20
193.997001
 30
0.0
 11
189.74366
 21
193.997001
 31
0.0
  0
LINE
  5
1AB
100
AcDbEntity
  8
1
390
0
  6
Continuous
 62
     7
100
AcDbLine
 10
189.94366
 20
197.677001
 30
0.0
 11
189.94366
 21
199.077001
 31
0.0
  0
LINE
  5
1AC
100
AcDbEntity
  8
1
390
0
  6
Continuous
 62
     7
100
AcDbLine
 10
189.74366
 20
197.677001
 30
0.0
 11
189.94366
 21
197.677001
 31
0.0
  0
LINE
  5
1AD
100
AcDbEntity
  8
1
390
0
  6
Continuous
 62
     7
100
AcDbLine
 10
189.94366
 20
199.077001
 30
0.0
 11
189.74366
 21
199.077001
 31
0.0
  0
LINE
  5
1AE
100
AcDbEntity
  8
1
390
0
  6
Continuous
 62
     7
100
AcDbLine
 10
189.94366
 20
201.617001
 30
0.0
 11
189.74366
 21
201.617001
 31
0.0
  0
LINE
  5
1AF
100
AcDbEntity
  8
1
390
0
  6
Continuous
 62
     7
100
AcDbLine
 10
189.94366
 20
200.217001
 30
0.0
 11
189.94366
 21
201.617001
 31
0.0
  0
LINE
  5
1B0
100
AcDbEntity
  8
1
390
0
  6
Continuous
 62
     7
100
AcDbLine
 10
189.74366
 20
200.217001
 30
0.0
 11
189.94366
 21
200.217001
 31
0.0
  0
LINE
  5
1B1
100
AcDbEntity
  8
1
390
0
  6
Continuous
 62
     7
100
AcDbLine
 10
188.29366
 20
197.677001
 30
0.0
 11
189.74366
 21
197.677001
 31
0.0
  0
LINE
  5
1B2
100
AcDbEntity
  8
1
390
0
  6
Continuous
 62
     7
100
AcDbLine
 10
188.29366
 20
199.077001
 30
0.0
 11
189.74366
 21
199.077001
 31
0.0
  0
LINE
  5
1B3
100
AcDbEntity
  8
1
390
0
  6
Continuous
 62
     7
100
AcDbLine
 10
188.29366
 20
196.537001
 30
0.0
 11
189.74366
 21
196.537001
 31
0.0
  0
LINE
  5
1B4
100
AcDbEntity
  8
1
390
0
  6
Continuous
 62
     7
100
AcDbLine
 10
188.29366
 20
195.137001
 30
0.0
 11
189.74366
 21
195.137001
 31
0.0
  0
LINE
  5
1B5
100
AcDbEntity
  8
1
390
0
  6
Continuous
 62
     7
100
AcDbLine
 10
188.29366
 20
201.617001
 30
0.0
 11
189.74366
 21
201.617001
 31
0.0
  0
LINE
  5
1B6
100
AcDbEntity
  8
1
390
0
  6
Continuous
 62
     7
100
AcDbLine
 10
188.29366
 20
200.217001
 30
0.0
 11
189.74366
 21
200.217001
 31
0.0
  0
LINE
  5
1B7
100
AcDbEntity
  8
1
390
0
  6
Continuous
 62
     7
100
AcDbLine
 10
189.94366
 20
202.757001
 30
0.0
 11
189.94366
 21
204.157001
 31
0.0
  0
LINE
  5
1B8
100
AcDbEntity
  8
1
390
0
  6
Continuous
 62
     7
100
AcDbLine
 10
189.74366
 20
202.757001
 30
0.0
 11
189.94366
 21
202.757001
 31
0.0
  0
LINE
  5
1B9
100
AcDbEntity
  8
1
390
0
  6
Continuous
 62
     7
100
AcDbLine
 10
189.94366
 20
204.157001
 30
0.0
 11
189.74366
 21
204.157001
 31
0.0
  0
LINE
  5
1BA
100
AcDbEntity
  8
1
390
0
  6
Continuous
 62
     7
100
AcDbLine
 10
188.29366
 20
202.757001
 30
0.0
 11
189.74366
 21
202.757001
 31
0.0
  0
LINE
  5
1BB
100
AcDbEntity
  8
1
390
0
  6
Continuous
 62
     7
100
AcDbLine
 10
188.29366
 20
204.157001
 30
0.0
 11
189.74366
 21
204.157001
 31
0.0
  0
LINE
  5
1BC
100
AcDbEntity
  8
1
390
0
  6
Continuous
 62
     7
100
AcDbLine
 10
189.94366
 20
206.697001
 30
0.0
 11
189.74366
 21
206.697001
 31
0.0
  0
LINE
  5
1BD
100
AcDbEntity
  8
1
390
0
  6
Continuous
 62
     7
100
AcDbLine
 10
189.94366
 20
205.297001
 30
0.0
 11
189.94366
 21
206.697001
 31
0.0
  0
LINE
  5
1BE
100
AcDbEntity
  8
1
390
0
  6
Continuous
 62
     7
100
AcDbLine
 10
189.74366
 20
205.297001
 30
0.0
 11
189.94366
 21
205.297001
 31
0.0
  0
LINE
  5
1BF
100
AcDbEntity
  8
1
390
0
  6
Continuous
 62
     7
100
AcDbLine
 10
188.29366
 20
206.697001
 30
0.0
 11
189.74366
 21
206.697001
 31
0.0
  0
LINE
  5
1C0
100
AcDbEntity
  8
1
390
0
  6
Continuous
 62
     7
100
AcDbLine
 10
188.29366
 20
205.297001
 30
0.0
 11
189.74366
 21
205.297001
 31
0.0
  0
LINE
  5
1C1
100
AcDbEntity
  8
1
390
0
  6
DOT
 62
     9
100
AcDbLine
 10
188.14366
 20
189.517001
 30
0.0
 11
188.14366
 21
186.977001
 31
0.0
  0
LINE
  5
1C2
100
AcDbEntity
  8
1
390
0
  6
DOT
 62
     9
100
AcDbLine
 10
188.14366
 20
194.597001
 30
0.0
 11
188.14366
 21
192.057001
 31
0.0
  0
LINE
  5
1C3
100
AcDbEntity
  8
1
390
0
  6
DOT
 62
     9
100
AcDbLine
 10
188.14366
 20
192.057001
 30
0.0
 11
188.14366
 21
189.517001
 31
0.0
  0
LINE
  5
1C4
100
AcDbEntity
  8
1
390
0
  6
DOT
 62
     9
100
AcDbLine
 10
188.14366
 20
197.137001
 30
0.0
 11
188.14366
 21
194.597001
 31
0.0
  0
LINE
  5
1C5
100
AcDbEntity
  8
1
390
0
  6
DOT
 62
     9
100
AcDbLine
 10
188.14366
 20
199.677001
 30
0.0
 11
188.14366
 21
197.137001
 31
0.0
  0
LINE
  5
1C6
100
AcDbEntity
  8
1
390
0
  6
DOT
 62
     9
100
AcDbLine
 10
188.14366
 20
202.217001
 30
0.0
 11
188.14366
 21
199.677001
 31
0.0
  0
LINE
  5
1C7
100
AcDbEntity
  8
1
390
0
  6
DOT
 62
     9
100
AcDbLine
 10
188.14366
 20
207.297001
 30
0.0
 11
188.14366
 21
204.757001
 31
0.0
  0
LINE
  5
1C8
100
AcDbEntity
  8
1
390
0
  6
DOT
 62
     9
100
AcDbLine
 10
188.14366
 20
204.757001
 30
0.0
 11
188.14366
 21
202.217001
 31
0.0
  0
LINE
  5
1C9
100
AcDbEntity
  8
1
390
0
  6
DOT
 62
     9
100
AcDbLine
 10
188.14366
 20
208.797001
 30
0.0
 11
188.14366
 21
207.297001
 31
0.0
  0
LINE
  5
1CA
100
AcDbEntity
  8
1
390
0
  6
Continuous
 62
     7
100
AcDbLine
 10
92.29366
 20
213.027001
 30
0.0
 11
92.79366
 21
213.027001
 31
0.0
  0
LINE
  5
1CB
100
AcDbEntity
  8
1
390
0
  6
Continuous
 62
     7
100
AcDbLine
 10
92.29366
 20
173.427001
 30
0.0
 11
92.79366
 21
173.427001
 31
0.0
  0
LINE
  5
1CC
100
AcDbEntity
  8
1
390
0
  6
Continuous
 62
     7
100
AcDbLine
 10
187.79366
 20
173.427001
 30
0.0
 11
188.29366
 21
173.427001
 31
0.0
  0
LINE
  5
1CD
100
AcDbEntity
  8
1
390
0
  6
Continuous
 62
     7
100
AcDbLine
 10
187.79366
 20
213.027001
 30
0.0
 11
188.29366
 21
213.027001
 31
0.0
  0
LINE
  5
1CE
100
AcDbEntity
  8
1
390
0
  6
Continuous
 62
     7
100
AcDbLine
 10
91.29366
 20
213.027001
 30
0.0
 11
91.29366
 21
173.427001
 31
0.0
  0
LINE
  5
1CF
100
AcDbEntity
  8
1
390
0
  6
Continuous
 62
     7
100
AcDbLine
 10
91.29366
 20
213.027001
 30
0.0
 11
92.29366
 21
213.027001
 31
0.0
  0
LINE
  5
1D0
100
AcDbEntity
  8
1
390
0
  6
Continuous
 62
     7
100
AcDbLine
 10
91.29366
 20
173.427001
 30
0.0
 11
92.29366
 21
173.427001
 31
0.0
  0
LINE
  5
1D1
100
AcDbEntity
  8
1
390
0
  6
Continuous
 62
     7
100
AcDbLine
 10
189.29366
 20
213.027001
 30
0.0
 11
189.29366
 21
206.697001
 31
0.0
  0
LINE
  5
1D2
100
AcDbEntity
  8
1
390
0
  6
DOT
 62
     9
100
AcDbLine
 10
189.29366
 20
206.697001
 30
0.0
 11
189.29366
 21
205.297001
 31
0.0
  0
LINE
  5
1D3
100
AcDbEntity
  8
1
390
0
  6
Continuous
 62
     7
100
AcDbLine
 10
189.29366
 20
205.297001
 30
0.0
 11
189.29366
 21
204.157001
 31
0.0
  0
LINE
  5
1D4
100
AcDbEntity
  8
1
390
0
  6
DOT
 62
     9
100
AcDbLine
 10
189.29366
 20
204.157001
 30
0.0
 11
189.29366
 21
202.757001
 31
0.0
  0
LINE
  5
1D5
100
AcDbEntity
  8
1
390
0
  6
Continuous
 62
     7
100
AcDbLine
 10
189.29366
 20
202.757001
 30
0.0
 11
189.29366
 21
201.617001
 31
0.0
  0
LINE
  5
1D6
100
AcDbEntity
  8
1
390
0
  6
DOT
 62
     9
100
AcDbLine
 10
189.29366
 20
201.617001
 30
0.0
 11
189.29366
 21
200.217001
 31
0.0
  0
LINE
  5
1D7
100
AcDbEntity
  8
1
390
0
  6
Continuous
 62
     7
100
AcDbLine
 10
189.29366
 20
200.217001
 30
0.0
 11
189.29366
 21
199.077001
 31
0.0
  0
LINE
  5
1D8
100
AcDbEntity
  8
1
390
0
  6
DOT
 62
     9
100
AcDbLine
 10
189.29366
 20
199.077001
 30
0.0
 11
189.29366
 21
197.677001
 31
0.0
  0
LINE
  5
1D9
100
AcDbEntity
  8
1
390
0
  6
Continuous
 62
     7
100
AcDbLine
 10
189.29366
 20
197.677001
 30
0.0
 11
189.29366
 21
196.537001
 31
0.0
  0
LINE
  5
1DA
100
AcDbEntity
  8
1
390
0
  6
DOT
 62
     9
100
AcDbLine
 10
189.29366
 20
196.537001
 30
0.0
 11
189.29366
 21
195.137001
 31
0.0
  0
LINE
  5
1DB
100
AcDbEntity
  8
1
390
0
  6
Continuous
 62
     7
100
AcDbLine
 10
189.29366
 20
195.137001
 30
0.0
 11
189.29366
 21
193.997001
 31
0.0
  0
LINE
  5
1DC
100
AcDbEntity
  8
1
390
0
  6
DOT
 62
     9
100
AcDbLine
 10
189.29366
 20
193.997001
 30
0.0
 11
189.29366
 21
192.597001
 31
0.0
  0
LINE
  5
1DD
100
AcDbEntity
  8
1
390
0
  6
Continuous
 62
     7
100
AcDbLine
 10
189.29366
 20
192.597001
 30
0.0
 11
189.29366
 21
191.457001
 31
0.0
  0
LINE
  5
1DE
100
AcDbEntity
  8
1
390
0
  6
DOT
 62
     9
100
AcDbLine
 10
189.29366
 20
191.457001
 30
0.0
 11
189.29366
 21
190.057001
 31
0.0
  0
LINE
  5
1DF
100
AcDbEntity
  8
1
390
0
  6
Continuous
 62
     7
100
AcDbLine
 10
189.29366
 20
190.057001
 30
0.0
 11
189.29366
 21
188.917001
 31
0.0
  0
LINE
  5
1E0
100
AcDbEntity
  8
1
390
0
  6
DOT
 62
     9
100
AcDbLine
 10
189.29366
 20
188.917001
 30
0.0
 11
189.29366
 21
187.517001
 31
0.0
  0
LINE
  5
1E1
100
AcDbEntity
  8
1
390
0
  6
Continuous
 62
     7
100
AcDbLine
 10
189.29366
 20
187.517001
 30
0.0
 11
189.29366
 21
182.367144
 31
0.0
  0
LINE
  5
1E2
100
AcDbEntity
  8
1
390
0
  6
DOT
 62
     9
100
AcDbLine
 10
189.29366
 20
182.367144
 30
0.0
 11
189.29366
 21
181.161224
 31
0.0
  0
LINE
  5
1E3
100
AcDbEntity
  8
1
390
0
  6
DOT
 62
     9
100
AcDbLine
 10
189.29366
 20
181.161224
 30
0.0
 11
189.29366
 21
179.292778
 31
0.0
  0
LINE
  5
1E4
100
AcDbEntity
  8
1
390
0
  6
DOT
 62
     9
100
AcDbLine
 10
189.29366
 20
179.292778
 30
0.0
 11
189.29366
 21
178.086858
 31
0.0
  0
LINE
  5
1E5
100
AcDbEntity
  8
1
390
0
  6
Continuous
 62
     7
100
AcDbLine
 10
189.29366
 20
178.086858
 30
0.0
 11
189.29366
 21
173.427001
 31
0.0
  0
LINE
  5
1E6
100
AcDbEntity
  8
1
390
0
  6
Continuous
 62
     7
100
AcDbLine
 10
188.29366
 20
173.427001
 30
0.0
 11
189.29366
 21
173.427001
 31
0.0
  0
LINE
  5
1E7
100
AcDbEntity
  8
1
390
0
  6
Continuous
 62
     7
100
AcDbLine
 10
188.29366
 20
213.027001
 30
0.0
 11
189.29366
 21
213.027001
 31
0.0
  0
ARC
  5
1E8
100
AcDbEntity
  8
1
390
0
  6
DOT
 62
     9
100
AcDbCircle
 10
167.29366
 20
191.727001
 30
0.0
 40
12.75
210
0.0
220
0.0
230
1.0
100
AcDbArc
 50
180.0
 51
360.0
  0
ARC
  5
1E9
100
AcDbEntity
  8
1
390
0
  6
DOT
 62
     9
100
AcDbCircle
 10
167.29366
 20
191.727001
 30
0.0
 40
12.75
210
0.0
220
0.0
230
1.0
100
AcDbArc
 50
0.0
 51
180.0
  0
CIRCLE
  5
1EA
100
AcDbEntity
  8
1
390
0
  6
DOT
 62
     9
100
AcDbCircle
 10
167.29366
 20
191.727001
 30
0.0
 40
10.75
210
0.0
220
0.0
230
1.0
  0
ARC
  5
1EB
100
AcDbEntity
  8
1
390
0
  6
DOT
 62
     9
100
AcDbCircle
 10
113.29366
 20
194.727001
 30
0.0
 40
12.75
210
0.0
220
0.0
230
1.0
100
AcDbArc
 50
228.16752
 51
360.0
  0
ARC
  5
1EC
100
AcDbEntity
  8
1
390
0
  6
DOT
 62
     9
100
AcDbCircle
 10
113.29366
 20
194.727001
 30
0.0
 40
12.75
210
0.0
220
0.0
230
1.0
100
AcDbArc
 50
224.900872
 51
228.16752
  0
ARC
  5
1ED
100
AcDbEntity
  8
1
390
0
  6
DOT
 62
     9
100
AcDbCircle
 10
113.29366
 20
194.727001
 30
0.0
 40
12.75
210
0.0
220
0.0
230
1.0
100
AcDbArc
 50
207.720134
 51
224.900872
  0
ARC
  5
1EE
100
AcDbEntity
  8
1
390
0
  6
DOT
 62
     9
100
AcDbCircle
 10
113.29366
 20
194.727001
 30
0.0
 40
12.75
210
0.0
220
0.0
230
1.0
100
AcDbArc
 50
204.828749
 51
207.720134
  0
ARC
  5
1EF
100
AcDbEntity
  8
1
390
0
  6
DOT
 62
     9
100
AcDbCircle
 10
113.29366
 20
194.727001
 30
0.0
 40
12.75
210
0.0
220
0.0
230
1.0
100
AcDbArc
 50
198.485941
 51
204.828749
  0
ARC
  5
1F0
100
AcDbEntity
  8
1
390
0
  6
DOT
 62
     9
100
AcDbCircle
 10
113.29366
 20
194.727001
 30
0.0
 40
12.75
210
0.0
220
0.0
230
1.0
100
AcDbArc
 50
180.0
 51
198.485941
  0
ARC
  5
1F1
100
AcDbEntity
  8
1
390
0
  6
DOT
 62
     9
100
AcDbCircle
 10
113.29366
 20
194.727001
 30
0.0
 40
12.75
210
0.0
220
0.0
230
1.0
100
AcDbArc
 50
177.774264
 51
180.0
  0
ARC
  5
1F2
100
AcDbEntity
  8
1
390
0
  6
DOT
 62
     9
100
AcDbCircle
 10
113.29366
 20
194.727001
 30
0.0
 40
12.75
210
0.0
220
0.0
230
1.0
100
AcDbArc
 50
171.431456
 51
177.774264
  0
ARC
  5
1F3
100
AcDbEntity
  8
1
390
0
  6
DOT
 62
     9
100
AcDbCircle
 10
113.29366
 20
194.727001
 30
0.0
 40
12.75
210
0.0
220
0.0
230
1.0
100
AcDbArc
 50
168.540071
 51
171.431456
  0
ARC
  5
1F4
100
AcDbEntity
  8
1
390
0
  6
DOT
 62
     9
100
AcDbCircle
 10
113.29366
 20
194.727001
 30
0.0
 40
12.75
210
0.0
220
0.0
230
1.0
100
AcDbArc
 50
151.927513
 51
168.540071
  0
ARC
  5
1F5
100
AcDbEntity
  8
1
390
0
  6
DOT
 62
     9
100
AcDbCircle
 10
113.29366
 20
194.727001
 30
0.0
 40
12.75
210
0.0
220
0.0
230
1.0
100
AcDbArc
 50
149.34923
 51
151.927513
  0
ARC
  5
1F6
100
AcDbEntity
  8
1
390
0
  6
DOT
 62
     9
100
AcDbCircle
 10
113.29366
 20
194.727001
 30
0.0
 40
12.75
210
0.0
220
0.0
230
1.0
100
AcDbArc
 50
0.0
 51
149.34923
  0
ARC
  5
1F7
100
AcDbEntity
  8
1
390
0
  6
DOT
 62
     9
100
AcDbCircle
 10
113.29366
 20
194.727001
 30
0.0
 40
10.75
210
0.0
220
0.0
230
0.9999999999999999
100
AcDbArc
 50
177.410599
 51
180.0
  0
ARC
  5
1F8
100
AcDbEntity
  8
1
390
0
  6
DOT
 62
     9
100
AcDbCircle
 10
113.29366
 20
194.727001
 30
0.0
 40
10.75
210
0.0
220
0.0
230
1.0
100
AcDbArc
 50
171.998025
 51
177.410599
  0
ARC
  5
1F9
100
AcDbEntity
  8
1
390
0
  6
DOT
 62
     9
100
AcDbCircle
 10
113.29366
 20
194.727001
 30
0.0
 40
10.75
210
0.0
220
0.0
230
1.0
100
AcDbArc
 50
166.55364
 51
171.998025
  0
ARC
  5
1FA
100
AcDbEntity
  8
1
390
0
  6
DOT
 62
     9
100
AcDbCircle
 10
113.29366
 20
194.727001
 30
0.0
 40
10.75
210
0.0
220
0.0
230
1.0
100
AcDbArc
 50
163.814435
 51
166.55364
  0
ARC
  5
1FB
100
AcDbEntity
  8
1
390
0
  6
DOT
 62
     9
100
AcDbCircle
 10
113.29366
 20
194.727001
 30
0.0
 40
10.75
210
0.0
220
0.0
230
1.0
100
AcDbArc
 50
146.072768
 51
163.814435
  0
ARC
  5
1FC
100
AcDbEntity
  8
1
390
0
  6
DOT
 62
     9
100
AcDbCircle
 10
113.29366
 20
194.727001
 30
0.0
 40
10.75
210
0.0
220
0.0
230
1.0
100
AcDbArc
 50
142.796256
 51
146.072768
  0
ARC
  5
1FD
100
AcDbEntity
  8
1
390
0
  6
DOT
 62
     9
100
AcDbCircle
 10
113.29366
 20
194.727001
 30
0.0
 40
10.75
210
0.0
220
0.0
230
1.0
100
AcDbArc
 50
242.094527
 51
142.796256
  0
ARC
  5
1FE
100
AcDbEntity
  8
1
390
0
  6
DOT
 62
     9
100
AcDbCircle
 10
113.29366
 20
194.727001
 30
0.0
 40
10.75
210
0.0
220
0.0
230
1.0
100
AcDbArc
 50
236.846592
 51
242.094527
  0
ARC
  5
1FF
100
AcDbEntity
  8
1
390
0
  6
DOT
 62
     9
100
AcDbCircle
 10
113.29366
 20
194.727001
 30
0.0
 40
10.75
210
0.0
220
0.0
230
1.0
100
AcDbArc
 50
212.44577
 51
236.846592
  0
ARC
  5
200
100
AcDbEntity
  8
1
390
0
  6
DOT
 62
     9
100
AcDbCircle
 10
113.29366
 20
194.727001
 30
0.0
 40
10.75
210
0.0
220
0.0
230
1.0
100
AcDbArc
 50
209.706564
 51
212.44577
  0
ARC
  5
201
100
AcDbEntity
  8
1
390
0
  6
DOT
 62
     9
100
AcDbCircle
 10
113.29366
 20
194.727001
 30
0.0
 40
10.75
210
0.0
220
0.0
230
0.9999999999999999
100
AcDbArc
 50
204.26218
 51
209.706564
  0
ARC
  5
202
100
AcDbEntity
  8
1
390
0
  6
DOT
 62
     9
100
AcDbCircle
 10
113.29366
 20
194.727001
 30
0.0
 40
10.75
210
0.0
220
0.0
230
1.0
100
AcDbArc
 50
198.849606
 51
204.26218
  0
ARC
  5
203
100
AcDbEntity
  8
1
390
0
  6
DOT
 62
     9
100
AcDbCircle
 10
113.29366
 20
194.727001
 30
0.0
 40
10.75
210
0.0
220
0.0
230
1.0
100
AcDbArc
 50
194.796767
 51
198.849606
  0
ARC
  5
204
100
AcDbEntity
  8
1
390
0
  6
DOT
 62
     9
100
AcDbCircle
 10
113.29366
 20
194.727001
 30
0.0
 40
10.75
210
0.0
220
0.0
230
1.0
100
AcDbArc
 50
181.463438
 51
194.796767
  0
ARC
  5
205
100
AcDbEntity
  8
1
390
0
  6
DOT
 62
     9
100
AcDbCircle
 10
113.29366
 20
194.727001
 30
0.0
 40
10.75
210
0.0
220
0.0
230
0.9999999999999999
100
AcDbArc
 50
180.0
 51
181.463438
  0
LINE
  5
206
100
AcDbEntity
  8
1
390
0
  6
DOT
 62
     9
100
AcDbLine
 10
92.29366
 20
213.027001
 30
0.0
 11
92.29366
 21
173.427001
 31
0.0
  0
LINE
  5
207
100
AcDbEntity
  8
1
390
0
  6
DOT
 62
     9
100
AcDbLine
 10
188.29366
 20
213.027001
 30
0.0
 11
188.29366
 21
208.797001
 31
0.0
  0
LINE
  5
208
100
AcDbEntity
  8
1
390
0
  6
DOT
 62
     9
100
AcDbLine
 10
188.29366
 20
186.977001
 30
0.0
 11
188.29366
 21
181.846918
 31
0.0
  0
LINE
  5
209
100
AcDbEntity
  8
1
390
0
  6
DOT
 62
     9
100
AcDbLine
 10
188.29366
 20
178.607084
 30
0.0
 11
188.29366
 21
173.427001
 31
0.0
  0
ARC
  5
20A
100
AcDbEntity
  8
1
390
0
  6
Continuous
 62
     7
100
AcDbCircle
 10
82.29366
 20
176.427001
 30
0.0
 40
3.0
210
0.0
220
0.0
230
1.0
100
AcDbArc
 50
180.0
 51
270.0
  0
LINE
  5
20B
100
AcDbEntity
  8
1
390
0
  6
Continuous
 62
     7
100
AcDbLine
 10
79.29366
 20
210.027001
 30
0.0
 11
79.29366
 21
176.427001
 31
0.0
  0
CIRCLE
  5
20C
100
AcDbEntity
  8
1
390
0
  6
Continuous
 62
     7
100
AcDbCircle
 10
85.29366
 20
206.227001
 30
0.0
 40
2.1
210
0.0
220
0.0
230
1.0
  0
ARC
  5
20D
100
AcDbEntity
  8
1
390
0
  6
Continuous
 62
     7
100
AcDbCircle
 10
82.29366
 20
210.027001
 30
0.0
 40
3.0
210
0.0
220
0.0
230
1.0
100
AcDbArc
 50
90.0
 51
180.0
  0
LINE
  5
20E
100
AcDbEntity
  8
1
390
0
  6
Continuous
 62
     7
100
AcDbLine
 10
82.29366
 20
213.027001
 30
0.0
 11
91.29366
 21
213.027001
 31
0.0
  0
LINE
  5
20F
100
AcDbEntity
  8
1
390
0
  6
Continuous
 62
     7
100
AcDbLine
 10
82.29366
 20
173.427001
 30
0.0
 11
91.29366
 21
173.427001
 31
0.0
  0
ARC
  5
210
100
AcDbEntity
  8
1
390
0
  6
Continuous
 62
     7
100
AcDbCircle
 10
198.29366
 20
210.027001
 30
0.0
 40
3.0
210
0.0
220
0.0
230
1.0
100
AcDbArc
 50
0.0
 51
90.0
  0
LINE
  5
211
100
AcDbEntity
  8
1
390
0
  6
Continuous
 62
     7
100
AcDbLine
 10
201.29366
 20
210.027001
 30
0.0
 11
201.29366
 21
176.427001
 31
0.0
  0
CIRCLE
  5
212
100
AcDbEntity
  8
1
390
0
  6
Continuous
 62
     7
100
AcDbCircle
 10
195.29366
 20
180.227001
 30
0.0
 40
2.1
210
0.0
220
0.0
230
1.0
  0
ARC
  5
213
100
AcDbEntity
  8
1
390
0
  6
Continuous
 62
     7
100
AcDbCircle
 10
198.29366
 20
176.427001
 30
0.0
 40
3.0
210
0.0
220
0.0
230
1.0
100
AcDbArc
 50
270.0
 51
360.0
  0
LINE
  5
214
100
AcDbEntity
  8
1
390
0
  6
Continuous
 62
     7
100
AcDbLine
 10
189.29366
 20
173.427001
 30
0.0
 11
198.29366
 21
173.427001
 31
0.0
  0
LINE
  5
215
100
AcDbEntity
  8
1
390
0
  6
Continuous
 62
     7
100
AcDbLine
 10
189.29366
 20
213.027001
 30
0.0
 11
198.29366
 21
213.027001
 31
0.0
  0
CIRCLE
  5
216
100
AcDbEntity
  8
1
390
0
  6
DOT
 62
     9
100
AcDbCircle
 10
167.29366
 20
191.727001
 30
0.0
 40
12.75
210
0.0
220
0.0
230
1.0
  0
ARC
  5
217
100
AcDbEntity
  8
1
390
0
  6
Continuous
 62
     7
100
AcDbCircle
 10
183.768397
 20
180.227001
 30
0.0
 40
5.925263
210
0.0
220
0.0
230
1.0
100
AcDbArc
 50
326.434712
 51
350.927389
  0
ARC
  5
218
100
AcDbEntity
  8
1
390
0
  6
Continuous
 62
     7
100
AcDbCircle
 10
183.768397
 20
180.227001
 30
0.0
 40
5.925263
210
0.0
220
0.0
230
1.0
100
AcDbArc
 50
9.039128
 51
33.565288
  0
LINE
  5
219
100
AcDbEntity
  8
1
390
0
  6
Continuous
 62
     7
100
AcDbLine
 10
188.70566
 20
183.503001
 30
0.0
 11
187.79366
 21
183.503001
 31
0.0
  0
LINE
  5
21A
100
AcDbEntity
  8
1
390
0
  6
Continuous
 62
     7
100
AcDbLine
 10
187.79366
 20
176.951001
 30
0.0
 11
188.70566
 21
176.951001
 31
0.0
  0
LINE
  5
21B
100
AcDbEntity
  8
1
390
0
  6
DOT
 62
     9
100
AcDbLine
 10
188.29366
 20
181.161224
 30
0.0
 11
189.425162
 21
181.161224
 31
0.0
  0
LINE
  5
21C
100
AcDbEntity
  8
1
390
0
  6
Continuous
 62
     7
100
AcDbLine
 10
189.425162
 20
181.161224
 30
0.0
 11
189.619548
 21
181.161224
 31
0.0
  0
LINE
  5
21D
100
AcDbEntity
  8
1
390
0
  6
Continuous
 62
     7
100
AcDbLine
 10
189.619548
 20
181.161224
 30
0.0
 11
189.6362
 21
181.161224
 31
0.0
  0
LINE
  5
21E
100
AcDbEntity
  8
1
390
0
  6
Continuous
 62
     7
100
AcDbLine
 10
189.6362
 20
179.292778
 30
0.0
 11
189.425162
 21
179.292778
 31
0.0
  0
LINE
  5
21F
100
AcDbEntity
  8
1
390
0
  6
DOT
 62
     9
100
AcDbLine
 10
189.425162
 20
179.292778
 30
0.0
 11
188.29366
 21
179.292778
 31
0.0
  0
LINE
  5
220
100
AcDbEntity
  8
1
390
0
  6
Continuous
 62
     7
100
AcDbLine
 10
187.79366
 20
83.087969
 30
0.0
 11
186.79366
 21
83.087969
 31
0.0
  0
LINE
  5
221
100
AcDbEntity
  8
1
390
0
  6
Continuous
 62
     7
100
AcDbLine
 10
187.79366
 20
83.087969
 30
0.0
 11
187.79366
 21
101.187969
 31
0.0
  0
ARC
  5
222
100
AcDbEntity
  8
1
390
0
  6
Continuous
 62
     7
100
AcDbCircle
 10
186.79366
 20
101.187969
 30
0.0
 40
1.0
210
0.0
220
0.0
230
1.0
100
AcDbArc
 50
0.0
 51
90.0
  0
ARC
  5
223
100
AcDbEntity
  8
1
390
0
  6
Continuous
 62
     7
100
AcDbCircle
 10
93.79366
 20
101.187969
 30
0.0
 40
1.0
210
0.0
220
0.0
230
1.0
100
AcDbArc
 50
90.0
 51
180.0
  0
LINE
  5
224
100
AcDbEntity
  8
1
390
0
  6
Continuous
 62
     7
100
AcDbLine
 10
186.79366
 20
83.087969
 30
0.0
 11
93.79366
 21
83.087969
 31
0.0
  0
LINE
  5
225
100
AcDbEntity
  8
1
390
0
  6
Continuous
 62
     7
100
AcDbLine
 10
92.79366
 20
83.087969
 30
0.0
 11
92.79366
 21
101.187969
 31
0.0
  0
LINE
  5
226
100
AcDbEntity
  8
1
390
0
  6
Continuous
 62
     7
100
AcDbLine
 10
93.79366
 20
83.087969
 30
0.0
 11
92.79366
 21
83.087969
 31
0.0
  0
LINE
  5
227
100
AcDbEntity
  8
1
390
0
  6
Continuous
 62
     7
100
AcDbLine
 10
93.79366
 20
102.187969
 30
0.0
 11
186.79366
 21
102.187969
 31
0.0
  0
LINE
  5
228
100
AcDbEntity
  8
1
390
0
  6
Continuous
 62
     7
100
AcDbLine
 10
79.29366
 20
78.187969
 30
0.0
 11
79.29366
 21
79.187969
 31
0.0
  0
LINE
  5
229
100
AcDbEntity
  8
1
390
0
  6
Continuous
 62
     7
100
AcDbLine
 10
82.29366
 20
78.187969
 30
0.0
 11
79.29366
 21
78.187969
 31
0.0
  0
LINE
  5
22A
100
AcDbEntity
  8
1
390
0
  6
Continuous
 62
     7
100
AcDbLine
 10
79.29366
 20
79.187969
 30
0.0
 11
82.29366
 21
79.187969
 31
0.0
  0
LINE
  5
22B
100
AcDbEntity
  8
1
390
0
  6
Continuous
 62
     7
100
AcDbLine
 10
201.29366
 20
79.187969
 30
0.0
 11
201.29366
 21
78.187969
 31
0.0
  0
LINE
  5
22C
100
AcDbEntity
  8
1
390
0
  6
Continuous
 62
     7
100
AcDbLine
 10
198.29366
 20
79.187969
 30
0.0
 11
201.29366
 21
79.187969
 31
0.0
  0
LINE
  5
22D
100
AcDbEntity
  8
1
390
0
  6
Continuous
 62
     7
100
AcDbLine
 10
201.29366
 20
78.187969
 30
0.0
 11
198.29366
 21
78.187969
 31
0.0
  0
ARC
  5
22E
100
AcDbEntity
  8
1
390
0
  6
Continuous
 62
     7
100
AcDbCircle
 10
189.29366
 20
79.187969
 30
0.0
 40
1.0
210
0.0
220
0.0
230
1.0
100
AcDbArc
 50
180.0
 51
270.0
  0
LINE
  5
22F
100
AcDbEntity
  8
1
390
0
  6
Continuous
 62
     7
100
AcDbLine
 10
188.29366
 20
79.187969
 30
0.0
 11
188.29366
 21
83.087969
 31
0.0
  0
LINE
  5
230
100
AcDbEntity
  8
1
390
0
  6
Continuous
 62
     7
100
AcDbLine
 10
189.29366
 20
83.087969
 30
0.0
 11
189.29366
 21
79.187969
 31
0.0
  0
LINE
  5
231
100
AcDbEntity
  8
1
390
0
  6
Continuous
 62
     7
100
AcDbLine
 10
187.79366
 20
84.087969
 30
0.0
 11
188.29366
 21
84.087969
 31
0.0
  0
ARC
  5
232
100
AcDbEntity
  8
1
390
0
  6
Continuous
 62
     7
100
AcDbCircle
 10
188.29366
 20
83.087969
 30
0.0
 40
1.0
210
0.0
220
0.0
230
1.0
100
AcDbArc
 50
0.0
 51
90.0
  0
LINE
  5
233
100
AcDbEntity
  8
1
390
0
  6
Continuous
 62
     7
100
AcDbLine
 10
189.29366
 20
79.187969
 30
0.0
 11
198.29366
 21
79.187969
 31
0.0
  0
LINE
  5
234
100
AcDbEntity
  8
1
390
0
  6
Continuous
 62
     7
100
AcDbLine
 10
198.29366
 20
78.187969
 30
0.0
 11
189.29366
 21
78.187969
 31
0.0
  0
LINE
  5
235
100
AcDbEntity
  8
1
390
0
  6
Continuous
 62
     7
100
AcDbLine
 10
188.29366
 20
83.087969
 30
0.0
 11
187.79366
 21
83.087969
 31
0.0
  0
LINE
  5
236
100
AcDbEntity
  8
1
390
0
  6
Continuous
 62
     7
100
AcDbLine
 10
92.29366
 20
84.087969
 30
0.0
 11
92.79366
 21
84.087969
 31
0.0
  0
ARC
  5
237
100
AcDbEntity
  8
1
390
0
  6
Continuous
 62
     7
100
AcDbCircle
 10
92.29366
 20
83.087969
 30
0.0
 40
1.0
210
0.0
220
0.0
230
1.0
100
AcDbArc
 50
90.0
 51
180.0
  0
LINE
  5
238
100
AcDbEntity
  8
1
390
0
  6
Continuous
 62
     7
100
AcDbLine
 10
92.29366
 20
83.087969
 30
0.0
 11
92.29366
 21
79.187969
 31
0.0
  0
LINE
  5
239
100
AcDbEntity
  8
1
390
0
  6
Continuous
 62
     7
100
AcDbLine
 10
91.29366
 20
79.187969
 30
0.0
 11
91.29366
 21
83.087969
 31
0.0
  0
ARC
  5
23A
100
AcDbEntity
  8
1
390
0
  6
Continuous
 62
     7
100
AcDbCircle
 10
91.29366
 20
79.187969
 30
0.0
 40
1.0
210
0.0
220
0.0
230
1.0
100
AcDbArc
 50
270.0
 51
360.0
  0
LINE
  5
23B
100
AcDbEntity
  8
1
390
0
  6
Continuous
 62
     7
100
AcDbLine
 10
91.29366
 20
78.187969
 30
0.0
 11
82.29366
 21
78.187969
 31
0.0
  0
LINE
  5
23C
100
AcDbEntity
  8
1
390
0
  6
Continuous
 62
     7
100
AcDbLine
 10
82.29366
 20
79.187969
 30
0.0
 11
91.29366
 21
79.187969
 31
0.0
  0
LINE
  5
23D
100
AcDbEntity
  8
1
390
0
  6
Continuous
 62
     7
100
AcDbLine
 10
92.79366
 20
83.087969
 30
0.0
 11
92.29366
 21
83.087969
 31
0.0
  0
LINE
  5
23E
100
AcDbEntity
  8
1
390
0
  6
Continuous
 62
     7
100
AcDbLine
 10
94.79366
 20
102.287969
 30
0.0
 11
94.79366
 21
102.187969
 31
0.0
  0
LINE
  5
23F
100
AcDbEntity
  8
1
390
0
  6
Continuous
 62
     7
100
AcDbLine
 10
96.79366
 20
102.287969
 30
0.0
 11
94.79366
 21
102.287969
 31
0.0
  0
LINE
  5
240
100
AcDbEntity
  8
1
390
0
  6
Continuous
 62
     7
100
AcDbLine
 10
185.79366
 20
102.287969
 30
0.0
 11
183.79366
 21
102.287969
 31
0.0
  0
LINE
  5
241
100
AcDbEntity
  8
1
390
0
  6
Continuous
 62
     7
100
AcDbLine
 10
185.79366
 20
102.287969
 30
0.0
 11
185.79366
 21
102.187969
 31
0.0
  0
LINE
  5
242
100
AcDbEntity
  8
1
390
0
  6
Continuous
 62
     7
100
AcDbLine
 10
183.79366
 20
102.287969
 30
0.0
 11
96.79366
 21
102.287969
 31
0.0
  0
LINE
  5
243
100
AcDbEntity
  8
1
390
0
  6
Continuous
 62
     7
100
AcDbLine
 10
188.70566
 20
95.463969
 30
0.0
 11
188.70566
 21
88.911969
 31
0.0
  0
LINE
  5
244
100
AcDbEntity
  8
1
390
0
  6
Continuous
 62
     7
100
AcDbLine
 10
189.619548
 20
91.253747
 30
0.0
 11
189.600984
 21
91.165879
 31
0.0
  0
LINE
  5
245
100
AcDbEntity
  8
1
390
0
  6
Continuous
 62
     7
100
AcDbLine
 10
189.600984
 20
93.21006
 30
0.0
 11
189.619548
 21
93.122192
 31
0.0
  0
ELLIPSE
  5
246
100
AcDbEntity
  8
1
390
0
  6
Continuous
 62
     7
100
AcDbEllipse
 10
183.768397
 20
92.592949
 30
0.0
 11
-5.8975186994827125
 21
0.0
 31
0.0
210
0.0
220
0.0
230
1.0
 40
0.707107
 41
3.2901202413326271
 42
3.4372197118155383
  0
ELLIPSE
  5
247
100
AcDbEntity
  8
1
390
0
  6
Continuous
 62
     7
100
AcDbEllipse
 10
183.768397
 20
93.402907
 30
0.0
 11
-5.6706785417355299
 21
0.0
 31
0.0
210
0.0
220
0.0
230
0.9999999999999999
 40
0.707107
 41
3.0404221903842252
 42
3.2427631909532679
  0
ELLIPSE
  5
248
100
AcDbEntity
  8
1
390
0
  6
Continuous
 62
     7
100
AcDbEllipse
 10
183.768397
 20
91.78299
 30
0.0
 11
5.8975187401126004
 21
0.0
 31
0.0
210
0.0
220
0.0
230
1.0
 40
0.707107
 41
0.1485275871590641
 42
0.2956270561276503
  0
ARC
  5
249
100
AcDbEntity
  8
1
390
0
  6
Continuous
 62
     7
100
AcDbCircle
 10
188.39824
 20
92.18797
 30
0.0
 40
1.221308
210
0.0
220
0.0
230
1.0
100
AcDbArc
 50
349.997424
 51
10.002578
  0
ELLIPSE
  5
24A
100
AcDbEntity
  8
1
390
0
  6
Continuous
 62
     7
100
AcDbEllipse
 10
183.768397
 20
92.592949
 30
0.0
 11
-5.8975187231231354
 21
0.0
 31
0.0
210
0.0
220
0.0
230
1.0
 40
0.707107
 41
2.8459656275942753
 42
2.9930650959940754
  0
ELLIPSE
  5
24B
100
AcDbEntity
  8
1
390
0
  6
Continuous
 62
     7
100
AcDbEllipse
 10
183.768397
 20
90.973032
 30
0.0
 11
5.6706785947430172
 21
0.0
 31
0.0
210
0.0
220
0.0
230
1.0
 40
0.707107
 41
6.1820148140111115
 42
6.3843558004455723
  0
ELLIPSE
  5
24C
100
AcDbEntity
  8
1
390
0
  6
Continuous
 62
     7
100
AcDbEllipse
 10
183.768397
 20
91.78299
 30
0.0
 11
5.8975187231765647
 21
0.0
 31
0.0
210
0.0
220
0.0
230
1.0
 40
0.707107
 41
5.9875582811868266
 42
6.1346577500323685
  0
LINE
  5
24D
100
AcDbEntity
  8
1
390
0
  6
DOT
 62
     9
100
AcDbLine
 10
188.29366
 20
91.378011
 30
0.0
 11
188.29366
 21
91.975838
 31
0.0
  0
LINE
  5
24E
100
AcDbEntity
  8
1
390
0
  6
DOT
 62
     9
100
AcDbLine
 10
188.29366
 20
90.568052
 30
0.0
 11
188.29366
 21
91.378011
 31
0.0
  0
LINE
  5
24F
100
AcDbEntity
  8
1
390
0
  6
DOT
 62
     9
100
AcDbLine
 10
189.410079
 20
91.378011
 30
0.0
 11
188.29366
 21
91.378011
 31
0.0
  0
LINE
  5
250
100
AcDbEntity
  8
1
390
0
  6
DOT
 62
     9
100
AcDbLine
 10
188.29366
 20
92.400102
 30
0.0
 11
188.29366
 21
92.997928
 31
0.0
  0
LINE
  5
251
100
AcDbEntity
  8
1
390
0
  6
DOT
 62
     9
100
AcDbLine
 10
189.410079
 20
92.997928
 30
0.0
 11
188.29366
 21
92.997928
 31
0.0
  0
LINE
  5
252
100
AcDbEntity
  8
1
390
0
  6
DOT
 62
     9
100
AcDbLine
 10
188.29366
 20
92.997928
 30
0.0
 11
188.29366
 21
93.807887
 31
0.0
  0
LINE
  5
253
100
AcDbEntity
  8
1
390
0
  6
Continuous
 62
     7
100
AcDbLine
 10
180.04366
 20
78.187969
 30
0.0
 11
154.54366
 21
78.187969
 31
0.0
  0
LINE
  5
254
100
AcDbEntity
  8
1
390
0
  6
DOT
 62
     9
100
AcDbLine
 10
188.29366
 20
92.400102
 30
0.0
 11
188.29366
 21
91.975838
 31
0.0
  0
LINE
  5
255
100
AcDbEntity
  8
1
390
0
  6
DOT
 62
     9
100
AcDbLine
 10
189.410079
 20
90.568052
 30
0.0
 11
188.29366
 21
90.568052
 31
0.0
  0
LINE
  5
256
100
AcDbEntity
  8
1
390
0
  6
DOT
 62
     9
100
AcDbLine
 10
189.410079
 20
93.807887
 30
0.0
 11
188.29366
 21
93.807887
 31
0.0
  0
LINE
  5
257
100
AcDbEntity
  8
1
390
0
  6
Continuous
 62
     7
100
AcDbLine
 10
189.619548
 20
93.122192
 30
0.0
 11
189.619171
 21
93.123982
 31
0.0
  0
LINE
  5
258
100
AcDbEntity
  8
1
390
0
  6
Continuous
 62
     7
100
AcDbLine
 10
126.04366
 20
78.187969
 30
0.0
 11
100.54366
 21
78.187969
 31
0.0
  0
LINE
  5
259
100
AcDbEntity
  8
1
390
0
  6
DOT
 62
     9
100
AcDbLine
 10
110.79366
 20
102.287969
 30
0.0
 11
110.79366
 21
102.187969
 31
0.0
  0
LINE
  5
25A
100
AcDbEntity
  8
1
390
0
  6
Continuous
 62
     7
100
AcDbLine
 10
95.29366
 20
104.187969
 30
0.0
 11
95.29366
 21
102.287969
 31
0.0
  0
LINE
  5
25B
100
AcDbEntity
  8
1
390
0
  6
DOT
 62
     9
100
AcDbLine
 10
95.29366
 20
102.287969
 30
0.0
 11
95.29366
 21
102.187969
 31
0.0
  0
LINE
  5
25C
100
AcDbEntity
  8
1
390
0
  6
Continuous
 62
     7
100
AcDbLine
 10
96.79366
 20
104.187969
 30
0.0
 11
95.29366
 21
104.187969
 31
0.0
  0
LINE
  5
25D
100
AcDbEntity
  8
1
390
0
  6
Continuous
 62
     7
100
AcDbLine
 10
96.79366
 20
104.187969
 30
0.0
 11
96.79366
 21
102.287969
 31
0.0
  0
LINE
  5
25E
100
AcDbEntity
  8
1
390
0
  6
DOT
 62
     9
100
AcDbLine
 10
96.79366
 20
102.287969
 30
0.0
 11
96.79366
 21
102.187969
 31
0.0
  0
LINE
  5
25F
100
AcDbEntity
  8
1
390
0
  6
Continuous
 62
     7
100
AcDbLine
 10
108.79366
 20
104.187969
 30
0.0
 11
108.79366
 21
102.287969
 31
0.0
  0
LINE
  5
260
100
AcDbEntity
  8
1
390
0
  6
DOT
 62
     9
100
AcDbLine
 10
108.79366
 20
102.287969
 30
0.0
 11
108.79366
 21
102.187969
 31
0.0
  0
LINE
  5
261
100
AcDbEntity
  8
1
390
0
  6
Continuous
 62
     7
100
AcDbLine
 10
110.29366
 20
104.187969
 30
0.0
 11
108.79366
 21
104.187969
 31
0.0
  0
LINE
  5
262
100
AcDbEntity
  8
1
390
0
  6
Continuous
 62
     7
100
AcDbLine
 10
110.29366
 20
104.187969
 30
0.0
 11
110.29366
 21
102.287969
 31
0.0
  0
LINE
  5
263
100
AcDbEntity
  8
1
390
0
  6
DOT
 62
     9
100
AcDbLine
 10
110.29366
 20
102.287969
 30
0.0
 11
110.29366
 21
102.187969
 31
0.0
  0
LINE
  5
264
100
AcDbEntity
  8
1
390
0
  6
Continuous
 62
     7
100
AcDbLine
 10
108.79366
 20
104.187969
 30
0.0
 11
96.79366
 21
104.187969
 31
0.0
  0
LINE
  5
265
100
AcDbEntity
  8
1
390
0
  6
DOT
 62
     9
100
AcDbLine
 10
109.54366
 20
102.687969
 30
0.0
 11
107.54366
 21
102.687969
 31
0.0
  0
LINE
  5
266
100
AcDbEntity
  8
1
390
0
  6
DOT
 62
     9
100
AcDbLine
 10
107.54366
 20
102.687969
 30
0.0
 11
105.54366
 21
102.687969
 31
0.0
  0
LINE
  5
267
100
AcDbEntity
  8
1
390
0
  6
DOT
 62
     9
100
AcDbLine
 10
100.04366
 20
102.687969
 30
0.0
 11
98.04366
 21
102.687969
 31
0.0
  0
LINE
  5
268
100
AcDbEntity
  8
1
390
0
  6
DOT
 62
     9
100
AcDbLine
 10
98.04366
 20
102.687969
 30
0.0
 11
96.04366
 21
102.687969
 31
0.0
  0
LINE
  5
269
100
AcDbEntity
  8
1
390
0
  6
DOT
 62
     9
100
AcDbLine
 10
99.29366
 20
103.987969
 30
0.0
 11
96.79366
 21
103.987969
 31
0.0
  0
LINE
  5
26A
100
AcDbEntity
  8
1
390
0
  6
DOT
 62
     9
100
AcDbLine
 10
108.79366
 20
103.987969
 30
0.0
 11
106.29366
 21
103.987969
 31
0.0
  0
LINE
  5
26B
100
AcDbEntity
  8
1
390
0
  6
DOT
 62
     9
100
AcDbLine
 10
188.04366
 20
94.587969
 30
0.0
 11
187.79366
 21
94.587969
 31
0.0
  0
ARC
  5
26C
100
AcDbEntity
  8
1
390
0
  6
DOT
 62
     9
100
AcDbCircle
 10
188.04366
 20
94.337969
 30
0.0
 40
0.25
210
0.0
220
0.0
230
1.0
100
AcDbArc
 50
0.0
 51
90.0
  0
LINE
  5
26D
100
AcDbEntity
  8
1
390
0
  6
Continuous
 62
     7
100
AcDbLine
 10
188.29366
 20
87.137969
 30
0.0
 11
188.29366
 21
88.911969
 31
0.0
  0
LINE
  5
26E
100
AcDbEntity
  8
1
390
0
  6
DOT
 62
     9
100
AcDbLine
 10
188.29366
 20
88.911969
 30
0.0
 11
188.29366
 21
90.568052
 31
0.0
  0
LINE
  5
26F
100
AcDbEntity
  8
1
390
0
  6
DOT
 62
     9
100
AcDbLine
 10
188.29366
 20
93.807887
 30
0.0
 11
188.29366
 21
94.337969
 31
0.0
  0
ARC
  5
270
100
AcDbEntity
  8
1
390
0
  6
Continuous
 62
     7
100
AcDbCircle
 10
188.14366
 20
87.137969
 30
0.0
 40
0.15
210
0.0
220
0.0
230
1.0
100
AcDbArc
 50
270.0
 51
360.0
  0
ARC
  5
271
100
AcDbEntity
  8
1
390
0
  6
Continuous
 62
     7
100
AcDbCircle
 10
188.04366
 20
84.837969
 30
0.0
 40
0.25
210
0.0
220
0.0
230
1.0
100
AcDbArc
 50
270.0
 51
66.421822
  0
LINE
  5
272
100
AcDbEntity
  8
1
390
0
  6
Continuous
 62
     7
100
AcDbLine
 10
187.79366
 20
84.587969
 30
0.0
 11
188.04366
 21
84.587969
 31
0.0
  0
LINE
  5
273
100
AcDbEntity
  8
1
390
0
  6
Continuous
 62
     7
100
AcDbLine
 10
188.14366
 20
85.067098
 30
0.0
 11
188.14366
 21
86.987969
 31
0.0
  0
LINE
  5
274
100
AcDbEntity
  8
1
390
0
  6
DOT
 62
     9
100
AcDbLine
 10
106.999732
 20
103.987969
 30
0.0
 11
106.999732
 21
103.187969
 31
0.0
  0
LINE
  5
275
100
AcDbEntity
  8
1
390
0
  6
DOT
 62
     9
100
AcDbLine
 10
97.499732
 20
103.987969
 30
0.0
 11
97.499732
 21
103.187969
 31
0.0
  0
LINE
  5
276
100
AcDbEntity
  8
1
390
0
  6
DOT
 62
     9
100
AcDbLine
 10
106.999732
 20
103.187969
 30
0.0
 11
107.402239
 21
103.187969
 31
0.0
  0
LINE
  5
277
100
AcDbEntity
  8
1
390
0
  6
DOT
 62
     9
100
AcDbLine
 10
106.455804
 20
103.187969
 30
0.0
 11
106.999732
 21
103.187969
 31
0.0
  0
LINE
  5
278
100
AcDbEntity
  8
1
390
0
  6
DOT
 62
     9
100
AcDbLine
 10
96.955804
 20
103.187969
 30
0.0
 11
97.499732
 21
103.187969
 31
0.0
  0
LINE
  5
279
100
AcDbEntity
  8
1
390
0
  6
DOT
 62
     9
100
AcDbLine
 10
97.499732
 20
103.187969
 30
0.0
 11
97.902239
 21
103.187969
 31
0.0
  0
LINE
  5
27A
100
AcDbEntity
  8
1
390
0
  6
DOT
 62
     9
100
AcDbLine
 10
107.685082
 20
103.187969
 30
0.0
 11
108.087589
 21
103.187969
 31
0.0
  0
LINE
  5
27B
100
AcDbEntity
  8
1
390
0
  6
DOT
 62
     9
100
AcDbLine
 10
98.587589
 20
103.187969
 30
0.0
 11
99.131517
 21
103.187969
 31
0.0
  0
LINE
  5
27C
100
AcDbEntity
  8
1
390
0
  6
DOT
 62
     9
100
AcDbLine
 10
98.587589
 20
103.987969
 30
0.0
 11
98.587589
 21
103.187969
 31
0.0
  0
LINE
  5
27D
100
AcDbEntity
  8
1
390
0
  6
DOT
 62
     9
100
AcDbLine
 10
98.185082
 20
103.187969
 30
0.0
 11
98.587589
 21
103.187969
 31
0.0
  0
LINE
  5
27E
100
AcDbEntity
  8
1
390
0
  6
DOT
 62
     9
100
AcDbLine
 10
108.087589
 20
103.987969
 30
0.0
 11
108.087589
 21
103.187969
 31
0.0
  0
LINE
  5
27F
100
AcDbEntity
  8
1
390
0
  6
DOT
 62
     9
100
AcDbLine
 10
108.087589
 20
103.187969
 30
0.0
 11
108.631517
 21
103.187969
 31
0.0
  0
LINE
  5
280
100
AcDbEntity
  8
1
390
0
  6
DOT
 62
     9
100
AcDbLine
 10
188.29366
 20
91.097969
 30
0.0
 11
185.69366
 21
91.097969
 31
0.0
  0
LINE
  5
281
100
AcDbEntity
  8
1
390
0
  6
DOT
 62
     9
100
AcDbLine
 10
188.29366
 20
93.097969
 30
0.0
 11
185.69366
 21
93.097969
 31
0.0
  0
LINE
  5
282
100
AcDbEntity
  8
1
390
0
  6
DOT
 62
     9
100
AcDbLine
 10
185.69366
 20
91.097969
 30
0.0
 11
185.69366
 21
93.097969
 31
0.0
  0
LINE
  5
283
100
AcDbEntity
  8
1
390
0
  6
DOT
 62
     9
100
AcDbLine
 10
184.09366
 20
91.837969
 30
0.0
 11
185.69366
 21
91.097969
 31
0.0
  0
LINE
  5
284
100
AcDbEntity
  8
1
390
0
  6
DOT
 62
     9
100
AcDbLine
 10
184.09366
 20
92.837969
 30
0.0
 11
185.69366
 21
93.097969
 31
0.0
  0
LINE
  5
285
100
AcDbEntity
  8
1
390
0
  6
DOT
 62
     9
100
AcDbLine
 10
188.29366
 20
90.687969
 30
0.0
 11
189.424728
 21
90.687969
 31
0.0
  0
LINE
  5
286
100
AcDbEntity
  8
1
390
0
  6
DOT
 62
     9
100
AcDbLine
 10
189.424728
 20
90.687969
 30
0.0
 11
189.500652
 21
90.687969
 31
0.0
  0
LINE
  5
287
100
AcDbEntity
  8
1
390
0
  6
Continuous
 62
     7
100
AcDbLine
 10
189.500652
 20
90.687969
 30
0.0
 11
189.74366
 21
90.687969
 31
0.0
  0
LINE
  5
288
100
AcDbEntity
  8
1
390
0
  6
Continuous
 62
     7
100
AcDbLine
 10
189.94366
 20
90.487969
 30
0.0
 11
189.94366
 21
87.787969
 31
0.0
  0
ARC
  5
289
100
AcDbEntity
  8
1
390
0
  6
Continuous
 62
     7
100
AcDbCircle
 10
189.74366
 20
90.487969
 30
0.0
 40
0.2
210
0.0
220
0.0
230
1.0
100
AcDbArc
 50
0.0
 51
90.0
  0
LINE
  5
28A
100
AcDbEntity
  8
1
390
0
  6
Continuous
 62
     7
100
AcDbLine
 10
188.29366
 20
87.587969
 30
0.0
 11
189.74366
 21
87.587969
 31
0.0
  0
ARC
  5
28B
100
AcDbEntity
  8
1
390
0
  6
Continuous
 62
     7
100
AcDbCircle
 10
189.74366
 20
87.787969
 30
0.0
 40
0.2
210
0.0
220
0.0
230
1.0
100
AcDbArc
 50
270.0
 51
360.0
  0
LINE
  5
28C
100
AcDbEntity
  8
1
390
0
  6
DOT
 62
     9
100
AcDbLine
 10
107.402239
 20
103.187969
 30
0.0
 11
107.685082
 21
103.187969
 31
0.0
  0
LINE
  5
28D
100
AcDbEntity
  8
1
390
0
  6
DOT
 62
     9
100
AcDbLine
 10
97.902239
 20
103.187969
 30
0.0
 11
98.185082
 21
103.187969
 31
0.0
  0
LINE
  5
28E
100
AcDbEntity
  8
1
390
0
  6
DOT
 62
     9
100
AcDbLine
 10
184.09366
 20
91.837969
 30
0.0
 11
184.09366
 21
92.837969
 31
0.0
  0
LINE
  5
28F
100
AcDbEntity
  8
1
390
0
  6
DOT
 62
     9
100
AcDbLine
 10
99.131517
 20
103.987969
 30
0.0
 11
99.131517
 21
103.187969
 31
0.0
  0
LINE
  5
290
100
AcDbEntity
  8
1
390
0
  6
DOT
 62
     9
100
AcDbLine
 10
108.631517
 20
103.987969
 30
0.0
 11
108.631517
 21
103.187969
 31
0.0
  0
LINE
  5
291
100
AcDbEntity
  8
1
390
0
  6
DOT
 62
     9
100
AcDbLine
 10
106.455804
 20
103.987969
 30
0.0
 11
106.455804
 21
103.187969
 31
0.0
  0
LINE
  5
292
100
AcDbEntity
  8
1
390
0
  6
DOT
 62
     9
100
AcDbLine
 10
96.955804
 20
103.987969
 30
0.0
 11
96.955804
 21
103.187969
 31
0.0
  0
LINE
  5
293
100
AcDbEntity
  8
1
390
0
  6
Continuous
 62
     7
100
AcDbLine
 10
107.29366
 20
105.187969
 30
0.0
 11
98.29366
 21
105.187969
 31
0.0
  0
LINE
  5
294
100
AcDbEntity
  8
1
390
0
  6
Continuous
 62
     7
100
AcDbLine
 10
98.79366
 20
106.187969
 30
0.0
 11
106.79366
 21
106.187969
 31
0.0
  0
LINE
  5
295
100
AcDbEntity
  8
1
390
0
  6
Continuous
 62
     7
100
AcDbLine
 10
106.79366
 20
109.387969
 30
0.0
 11
98.79366
 21
109.387969
 31
0.0
  0
LINE
  5
296
100
AcDbEntity
  8
1
390
0
  6
Continuous
 62
     7
100
AcDbLine
 10
99.09366
 20
109.687969
 30
0.0
 11
106.49366
 21
109.687969
 31
0.0
  0
LINE
  5
297
100
AcDbEntity
  8
1
390
0
  6
DOT
 62
     9
100
AcDbLine
 10
101.79366
 20
109.687969
 30
0.0
 11
101.79366
 21
108.687969
 31
0.0
  0
LINE
  5
298
100
AcDbEntity
  8
1
390
0
  6
DOT
 62
     9
100
AcDbLine
 10
101.79366
 20
108.687969
 30
0.0
 11
101.79366
 21
107.187969
 31
0.0
  0
POLYLINE
  5
299
100
AcDbEntity
  8
1
390
0
  6
DOT
 62
     9
100
AcDb2dPolyline
 66
     1
 10
0.0
 20
0.0
 30
0.0
 40
3.0
 41
3.0
  0
VERTEX
  5
29A
100
AcDbEntity
  8
1
390
0
 62
     9
100
AcDbVertex
100
AcDb2dVertex
 10
101.79366
 20
107.187969
 30
0.0
  0
VERTEX
  5
29B
100
AcDbEntity
  8
1
390
0
 62
     9
100
AcDbVertex
100
AcDb2dVertex
 10
101.794644
 20
107.148433
 30
0.0
  0
VERTEX
  5
29C
100
AcDbEntity
  8
1
390
0
 62
     9
100
AcDbVertex
100
AcDb2dVertex
 10
101.797584
 20
107.108951
 30
0.0
  0
VERTEX
  5
29D
100
AcDbEntity
  8
1
390
0
 62
     9
100
AcDbVertex
100
AcDb2dVertex
 10
101.80246
 20
107.069684
 30
0.0
  0
VERTEX
  5
29E
100
AcDbEntity
  8
1
390
0
 62
     9
100
AcDbVertex
100
AcDb2dVertex
 10
101.809253
 20
107.030793
 30
0.0
  0
VERTEX
  5
29F
100
AcDbEntity
  8
1
390
0
 62
     9
100
AcDbVertex
100
AcDb2dVertex
 10
101.816015
 20
107.000184
 30
0.0
  0
VERTEX
  5
2A0
100
AcDbEntity
  8
1
390
0
 62
     9
100
AcDbVertex
100
AcDb2dVertex
 10
101.823969
 20
106.969869
 30
0.0
  0
VERTEX
  5
2A1
100
AcDbEntity
  8
1
390
0
 62
     9
100
AcDbVertex
100
AcDb2dVertex
 10
101.83309
 20
106.939919
 30
0.0
  0
VERTEX
  5
2A2
100
AcDbEntity
  8
1
390
0
 62
     9
100
AcDbVertex
100
AcDb2dVertex
 10
101.843354
 20
106.910408
 30
0.0
  0
VERTEX
  5
2A3
100
AcDbEntity
  8
1
390
0
 62
     9
100
AcDbVertex
100
AcDb2dVertex
 10
101.855078
 20
106.880573
 30
0.0
  0
VERTEX
  5
2A4
100
AcDbEntity
  8
1
390
0
 62
     9
100
AcDbVertex
100
AcDb2dVertex
 10
101.867981
 20
106.851245
 30
0.0
  0
VERTEX
  5
2A5
100
AcDbEntity
  8
1
390
0
 62
     9
100
AcDbVertex
100
AcDb2dVertex
 10
101.882027
 20
106.822491
 30
0.0
  0
VERTEX
  5
2A6
100
AcDbEntity
  8
1
390
0
 62
     9
100
AcDbVertex
100
AcDb2dVertex
 10
101.897179
 20
106.794379
 30
0.0
  0
VERTEX
  5
2A7
100
AcDbEntity
  8
1
390
0
 62
     9
100
AcDbVertex
100
AcDb2dVertex
 10
101.913533
 20
106.766752
 30
0.0
  0
VERTEX
  5
2A8
100
AcDbEntity
  8
1
390
0
 62
     9
100
AcDbVertex
100
AcDb2dVertex
 10
101.930977
 20
106.739812
 30
0.0
  0
VERTEX
  5
2A9
100
AcDbEntity
  8
1
390
0
 62
     9
100
AcDbVertex
100
AcDb2dVertex
 10
101.949466
 20
106.713617
 30
0.0
  0
VERTEX
  5
2AA
100
AcDbEntity
  8
1
390
0
 62
     9
100
AcDbVertex
100
AcDb2dVertex
 10
101.968956
 20
106.688225
 30
0.0
  0
VERTEX
  5
2AB
100
AcDbEntity
  8
1
390
0
 62
     9
100
AcDbVertex
100
AcDb2dVertex
 10
101.989988
 20
106.663016
 30
0.0
  0
VERTEX
  5
2AC
100
AcDbEntity
  8
1
390
0
 62
     9
100
AcDbVertex
100
AcDb2dVertex
 10
102.012041
 20
106.638686
 30
0.0
  0
VERTEX
  5
2AD
100
AcDbEntity
  8
1
390
0
 62
     9
100
AcDbVertex
100
AcDb2dVertex
 10
102.035062
 20
106.615288
 30
0.0
  0
VERTEX
  5
2AE
100
AcDbEntity
  8
1
390
0
 62
     9
100
AcDbVertex
100
AcDb2dVertex
 10
102.058997
 20
106.592877
 30
0.0
  0
VERTEX
  5
2AF
100
AcDbEntity
  8
1
390
0
 62
     9
100
AcDbVertex
100
AcDb2dVertex
 10
102.084355
 20
106.571038
 30
0.0
  0
VERTEX
  5
2B0
100
AcDbEntity
  8
1
390
0
 62
     9
100
AcDbVertex
100
AcDb2dVertex
 10
102.11063
 20
106.550259
 30
0.0
  0
VERTEX
  5
2B1
100
AcDbEntity
  8
1
390
0
 62
     9
100
AcDbVertex
100
AcDb2dVertex
 10
102.137758
 20
106.530589
 30
0.0
  0
VERTEX
  5
2B2
100
AcDbEntity
  8
1
390
0
 62
     9
100
AcDbVertex
100
AcDb2dVertex
 10
102.165676
 20
106.512078
 30
0.0
  0
VERTEX
  5
2B3
100
AcDbEntity
  8
1
390
0
 62
     9
100
AcDbVertex
100
AcDb2dVertex
 10
102.195202
 20
106.494265
 30
0.0
  0
VERTEX
  5
2B4
100
AcDbEntity
  8
1
390
0
 62
     9
100
AcDbVertex
100
AcDb2dVertex
 10
102.225521
 20
106.477712
 30
0.0
  0
VERTEX
  5
2B5
100
AcDbEntity
  8
1
390
0
 62
     9
100
AcDbVertex
100
AcDb2dVertex
 10
102.256554
 20
106.462466
 30
0.0
  0
VERTEX
  5
2B6
100
AcDbEntity
  8
1
390
0
 62
     9
100
AcDbVertex
100
AcDb2dVertex
 10
102.288221
 20
106.448573
 30
0.0
  0
VERTEX
  5
2B7
100
AcDbEntity
  8
1
390
0
 62
     9
100
AcDbVertex
100
AcDb2dVertex
 10
102.319677
 20
106.436352
 30
0.0
  0
VERTEX
  5
2B8
100
AcDbEntity
  8
1
390
0
 62
     9
100
AcDbVertex
100
AcDb2dVertex
 10
102.351687
 20
106.425447
 30
0.0
  0
VERTEX
  5
2B9
100
AcDbEntity
  8
1
390
0
 62
     9
100
AcDbVertex
100
AcDb2dVertex
 10
102.384166
 20
106.415889
 30
0.0
  0
VERTEX
  5
2BA
100
AcDbEntity
  8
1
390
0
 62
     9
100
AcDbVertex
100
AcDb2dVertex
 10
102.417031
 20
106.407712
 30
0.0
  0
VERTEX
  5
2BB
100
AcDbEntity
  8
1
390
0
 62
     9
100
AcDbVertex
100
AcDb2dVertex
 10
102.451296
 20
106.400742
 30
0.0
  0
VERTEX
  5
2BC
100
AcDbEntity
  8
1
390
0
 62
     9
100
AcDbVertex
100
AcDb2dVertex
 10
102.48591
 20
106.395266
 30
0.0
  0
VERTEX
  5
2BD
100
AcDbEntity
  8
1
390
0
 62
     9
100
AcDbVertex
100
AcDb2dVertex
 10
102.520768
 20
106.391301
 30
0.0
  0
VERTEX
  5
2BE
100
AcDbEntity
  8
1
390
0
 62
     9
100
AcDbVertex
100
AcDb2dVertex
 10
102.555766
 20
106.388867
 30
0.0
  0
VERTEX
  5
2BF
100
AcDbEntity
  8
1
390
0
 62
     9
100
AcDbVertex
100
AcDb2dVertex
 10
102.59366
 20
106.387969
 30
0.0
  0
SEQEND
  5
2C0
100
AcDbEntity
  8
0
390
0
  0
LINE
  5
2C1
100
AcDbEntity
  8
1
390
0
  6
DOT
 62
     9
100
AcDbLine
 10
102.99366
 20
106.387969
 30
0.0
 11
102.59366
 21
106.387969
 31
0.0
  0
POLYLINE
  5
2C2
100
AcDbEntity
  8
1
390
0
  6
DOT
 62
     9
100
AcDb2dPolyline
 66
     1
 10
0.0
 20
0.0
 30
0.0
 40
3.0
 41
3.0
  0
VERTEX
  5
2C3
100
AcDbEntity
  8
1
390
0
 62
     9
100
AcDbVertex
100
AcDb2dVertex
 10
102.99366
 20
106.387969
 30
0.0
  0
VERTEX
  5
2C4
100
AcDbEntity
  8
1
390
0
 62
     9
100
AcDbVertex
100
AcDb2dVertex
 10
103.030998
 20
106.388854
 30
0.0
  0
VERTEX
  5
2C5
100
AcDbEntity
  8
1
390
0
 62
     9
100
AcDbVertex
100
AcDb2dVertex
 10
103.068302
 20
106.391492
 30
0.0
  0
VERTEX
  5
2C6
100
AcDbEntity
  8
1
390
0
 62
     9
100
AcDbVertex
100
AcDb2dVertex
 10
103.105446
 20
106.39586
 30
0.0
  0
VERTEX
  5
2C7
100
AcDbEntity
  8
1
390
0
 62
     9
100
AcDbVertex
100
AcDb2dVertex
 10
103.142306
 20
106.401934
 30
0.0
  0
VERTEX
  5
2C8
100
AcDbEntity
  8
1
390
0
 62
     9
100
AcDbVertex
100
AcDb2dVertex
 10
103.178759
 20
106.409691
 30
0.0
  0
VERTEX
  5
2C9
100
AcDbEntity
  8
1
390
0
 62
     9
100
AcDbVertex
100
AcDb2dVertex
 10
103.214679
 20
106.419106
 30
0.0
  0
VERTEX
  5
2CA
100
AcDbEntity
  8
1
390
0
 62
     9
100
AcDbVertex
100
AcDb2dVertex
 10
103.245473
 20
106.428636
 30
0.0
  0
VERTEX
  5
2CB
100
AcDbEntity
  8
1
390
0
 62
     9
100
AcDbVertex
100
AcDb2dVertex
 10
103.275848
 20
106.439395
 30
0.0
  0
VERTEX
  5
2CC
100
AcDbEntity
  8
1
390
0
 62
     9
100
AcDbVertex
100
AcDb2dVertex
 10
103.305735
 20
106.451352
 30
0.0
  0
VERTEX
  5
2CD
100
AcDbEntity
  8
1
390
0
 62
     9
100
AcDbVertex
100
AcDb2dVertex
 10
103.335062
 20
106.464474
 30
0.0
  0
VERTEX
  5
2CE
100
AcDbEntity
  8
1
390
0
 62
     9
100
AcDbVertex
100
AcDb2dVertex
 10
103.364576
 20
106.479155
 30
0.0
  0
VERTEX
  5
2CF
100
AcDbEntity
  8
1
390
0
 62
     9
100
AcDbVertex
100
AcDb2dVertex
 10
103.393459
 20
106.495038
 30
0.0
  0
VERTEX
  5
2D0
100
AcDbEntity
  8
1
390
0
 62
     9
100
AcDbVertex
100
AcDb2dVertex
 10
103.421644
 20
106.51208
 30
0.0
  0
VERTEX
  5
2D1
100
AcDbEntity
  8
1
390
0
 62
     9
100
AcDbVertex
100
AcDb2dVertex
 10
103.449064
 20
106.530241
 30
0.0
  0
VERTEX
  5
2D2
100
AcDbEntity
  8
1
390
0
 62
     9
100
AcDbVertex
100
AcDb2dVertex
 10
103.475951
 20
106.549697
 30
0.0
  0
VERTEX
  5
2D3
100
AcDbEntity
  8
1
390
0
 62
     9
100
AcDbVertex
100
AcDb2dVertex
 10
103.502021
 20
106.570262
 30
0.0
  0
VERTEX
  5
2D4
100
AcDbEntity
  8
1
390
0
 62
     9
100
AcDbVertex
100
AcDb2dVertex
 10
103.527215
 20
106.591885
 30
0.0
  0
VERTEX
  5
2D5
100
AcDbEntity
  8
1
390
0
 62
     9
100
AcDbVertex
100
AcDb2dVertex
 10
103.55147
 20
106.614517
 30
0.0
  0
VERTEX
  5
2D6
100
AcDbEntity
  8
1
390
0
 62
     9
100
AcDbVertex
100
AcDb2dVertex
 10
103.575407
 20
106.638819
 30
0.0
  0
VERTEX
  5
2D7
100
AcDbEntity
  8
1
390
0
 62
     9
100
AcDbVertex
100
AcDb2dVertex
 10
103.598316
 20
106.664152
 30
0.0
  0
VERTEX
  5
2D8
100
AcDbEntity
  8
1
390
0
 62
     9
100
AcDbVertex
100
AcDb2dVertex
 10
103.620138
 20
106.690454
 30
0.0
  0
VERTEX
  5
2D9
100
AcDbEntity
  8
1
390
0
 62
     9
100
AcDbVertex
100
AcDb2dVertex
 10
103.640816
 20
106.717662
 30
0.0
  0
VERTEX
  5
2DA
100
AcDbEntity
  8
1
390
0
 62
     9
100
AcDbVertex
100
AcDb2dVertex
 10
103.66012
 20
106.745445
 30
0.0
  0
VERTEX
  5
2DB
100
AcDbEntity
  8
1
390
0
 62
     9
100
AcDbVertex
100
AcDb2dVertex
 10
103.678267
 20
106.774078
 30
0.0
  0
VERTEX
  5
2DC
100
AcDbEntity
  8
1
390
0
 62
     9
100
AcDbVertex
100
AcDb2dVertex
 10
103.695207
 20
106.803486
 30
0.0
  0
VERTEX
  5
2DD
100
AcDbEntity
  8
1
390
0
 62
     9
100
AcDbVertex
100
AcDb2dVertex
 10
103.710891
 20
106.833597
 30
0.0
  0
VERTEX
  5
2DE
100
AcDbEntity
  8
1
390
0
 62
     9
100
AcDbVertex
100
AcDb2dVertex
 10
103.725725
 20
106.865362
 30
0.0
  0
VERTEX
  5
2DF
100
AcDbEntity
  8
1
390
0
 62
     9
100
AcDbVertex
100
AcDb2dVertex
 10
103.739184
 20
106.897825
 30
0.0
  0
VERTEX
  5
2E0
100
AcDbEntity
  8
1
390
0
 62
     9
100
AcDbVertex
100
AcDb2dVertex
 10
103.751226
 20
106.930891
 30
0.0
  0
VERTEX
  5
2E1
100
AcDbEntity
  8
1
390
0
 62
     9
100
AcDbVertex
100
AcDb2dVertex
 10
103.761805
 20
106.964466
 30
0.0
  0
VERTEX
  5
2E2
100
AcDbEntity
  8
1
390
0
 62
     9
100
AcDbVertex
100
AcDb2dVertex
 10
103.771441
 20
107.000796
 30
0.0
  0
VERTEX
  5
2E3
100
AcDbEntity
  8
1
390
0
 62
     9
100
AcDbVertex
100
AcDb2dVertex
 10
103.779377
 20
107.037676
 30
0.0
  0
VERTEX
  5
2E4
100
AcDbEntity
  8
1
390
0
 62
     9
100
AcDbVertex
100
AcDb2dVertex
 10
103.785591
 20
107.07497
 30
0.0
  0
VERTEX
  5
2E5
100
AcDbEntity
  8
1
390
0
 62
     9
100
AcDbVertex
100
AcDb2dVertex
 10
103.790058
 20
107.112542
 30
0.0
  0
VERTEX
  5
2E6
100
AcDbEntity
  8
1
390
0
 62
     9
100
AcDbVertex
100
AcDb2dVertex
 10
103.792756
 20
107.150254
 30
0.0
  0
VERTEX
  5
2E7
100
AcDbEntity
  8
1
390
0
 62
     9
100
AcDbVertex
100
AcDb2dVertex
 10
103.79366
 20
107.187969
 30
0.0
  0
SEQEND
  5
2E8
100
AcDbEntity
  8
0
390
0
  0
LINE
  5
2E9
100
AcDbEntity
  8
1
390
0
  6
DOT
 62
     9
100
AcDbLine
 10
103.79366
 20
107.187969
 30
0.0
 11
103.79366
 21
108.687969
 31
0.0
  0
LINE
  5
2EA
100
AcDbEntity
  8
1
390
0
  6
DOT
 62
     9
100
AcDbLine
 10
103.79366
 20
108.687969
 30
0.0
 11
103.79366
 21
109.687969
 31
0.0
  0
LINE
  5
2EB
100
AcDbEntity
  8
1
390
0
  6
DOT
 62
     9
100
AcDbLine
 10
100.99366
 20
108.687969
 30
0.0
 11
104.59366
 21
108.687969
 31
0.0
  0
LINE
  5
2EC
100
AcDbEntity
  8
1
390
0
  6
DOT
 62
     9
100
AcDbLine
 10
104.79366
 20
108.487969
 30
0.0
 11
100.79366
 21
108.487969
 31
0.0
  0
LINE
  5
2ED
100
AcDbEntity
  8
1
390
0
  6
Continuous
 62
     7
100
AcDbLine
 10
188.70566
 20
95.463969
 30
0.0
 11
187.79366
 21
95.463969
 31
0.0
  0
LINE
  5
2EE
100
AcDbEntity
  8
1
390
0
  6
Continuous
 62
     7
100
AcDbLine
 10
187.79366
 20
88.911969
 30
0.0
 11
188.70566
 21
88.911969
 31
0.0
  0
ARC
  5
2EF
100
AcDbEntity
  8
1
390
0
  6
Continuous
 62
     7
100
AcDbCircle
 10
183.768397
 20
92.187969
 30
0.0
 40
5.925263
210
0.0
220
0.0
230
1.0
100
AcDbArc
 50
9.03758
 51
33.565288
  0
ARC
  5
2F0
100
AcDbEntity
  8
1
390
0
  6
Continuous
 62
     7
100
AcDbCircle
 10
183.768397
 20
92.187969
 30
0.0
 40
5.925263
210
0.0
220
0.0
230
1.0
100
AcDbArc
 50
326.434712
 51
350.928181
  0
LINE
  5
2F1
100
AcDbEntity
  8
1
390
0
  6
DOT
 62
     9
100
AcDbLine
 10
193.19366
 20
79.187969
 30
0.0
 11
193.19366
 21
78.187969
 31
0.0
  0
LINE
  5
2F2
100
AcDbEntity
  8
1
390
0
  6
DOT
 62
     9
100
AcDbLine
 10
197.39366
 20
78.187969
 30
0.0
 11
197.39366
 21
79.187969
 31
0.0
  0
ARC
  5
2F3
100
AcDbEntity
  8
1
390
0
  6
Continuous
 62
     7
100
AcDbCircle
 10
178.04366
 20
81.087969
 30
0.0
 40
2.0
210
0.0
220
0.0
230
1.0
100
AcDbArc
 50
0.0
 51
90.0
  0
ARC
  5
2F4
100
AcDbEntity
  8
1
390
0
  6
Continuous
 62
     7
100
AcDbCircle
 10
156.54366
 20
81.087969
 30
0.0
 40
2.0
210
0.0
220
0.0
230
1.0
100
AcDbArc
 50
90.0
 51
180.0
  0
LINE
  5
2F5
100
AcDbEntity
  8
1
390
0
  6
Continuous
 62
     7
100
AcDbLine
 10
154.54366
 20
81.087969
 30
0.0
 11
154.54366
 21
78.187969
 31
0.0
  0
LINE
  5
2F6
100
AcDbEntity
  8
1
390
0
  6
Continuous
 62
     7
100
AcDbLine
 10
180.04366
 20
78.187969
 30
0.0
 11
180.04366
 21
81.087969
 31
0.0
  0
LINE
  5
2F7
100
AcDbEntity
  8
1
390
0
  6
Continuous
 62
     7
100
AcDbLine
 10
189.6362
 20
91.253747
 30
0.0
 11
189.425162
 21
91.253747
 31
0.0
  0
LINE
  5
2F8
100
AcDbEntity
  8
1
390
0
  6
DOT
 62
     9
100
AcDbLine
 10
189.425162
 20
91.253747
 30
0.0
 11
188.29366
 21
91.253747
 31
0.0
  0
LINE
  5
2F9
100
AcDbEntity
  8
1
390
0
  6
DOT
 62
     9
100
AcDbLine
 10
188.29366
 20
93.122192
 30
0.0
 11
189.425162
 21
93.122192
 31
0.0
  0
LINE
  5
2FA
100
AcDbEntity
  8
1
390
0
  6
Continuous
 62
     7
100
AcDbLine
 10
189.425162
 20
93.122192
 30
0.0
 11
189.619548
 21
93.122192
 31
0.0
  0
LINE
  5
2FB
100
AcDbEntity
  8
1
390
0
  6
Continuous
 62
     7
100
AcDbLine
 10
189.619548
 20
93.122192
 30
0.0
 11
189.6362
 21
93.122192
 31
0.0
  0
LINE
  5
2FC
100
AcDbEntity
  8
1
390
0
  6
Continuous
 62
     7
100
AcDbLine
 10
100.54366
 20
81.087969
 30
0.0
 11
100.54366
 21
78.187969
 31
0.0
  0
LINE
  5
2FD
100
AcDbEntity
  8
1
390
0
  6
Continuous
 62
     7
100
AcDbLine
 10
126.04366
 20
78.187969
 30
0.0
 11
126.04366
 21
81.087969
 31
0.0
  0
ARC
  5
2FE
100
AcDbEntity
  8
1
390
0
  6
Continuous
 62
     7
100
AcDbCircle
 10
124.04366
 20
81.087969
 30
0.0
 40
2.0
210
0.0
220
0.0
230
1.0
100
AcDbArc
 50
0.0
 51
90.0
  0
ARC
  5
2FF
100
AcDbEntity
  8
1
390
0
  6
Continuous
 62
     7
100
AcDbCircle
 10
102.54366
 20
81.087969
 30
0.0
 40
2.0
210
0.0
220
0.0
230
1.0
100
AcDbArc
 50
90.0
 51
180.0
  0
LINE
  5
300
100
AcDbEntity
  8
1
390
0
  6
DOT
 62
     9
100
AcDbLine
 10
105.54366
 20
104.187969
 30
0.0
 11
105.54366
 21
102.687969
 31
0.0
  0
LINE
  5
301
100
AcDbEntity
  8
1
390
0
  6
DOT
 62
     9
100
AcDbLine
 10
109.54366
 20
102.687969
 30
0.0
 11
109.54366
 21
104.187969
 31
0.0
  0
LINE
  5
302
100
AcDbEntity
  8
1
390
0
  6
DOT
 62
     9
100
AcDbLine
 10
96.04366
 20
104.187969
 30
0.0
 11
96.04366
 21
102.687969
 31
0.0
  0
LINE
  5
303
100
AcDbEntity
  8
1
390
0
  6
DOT
 62
     9
100
AcDbLine
 10
100.04366
 20
102.687969
 30
0.0
 11
100.04366
 21
104.187969
 31
0.0
  0
LINE
  5
304
100
AcDbEntity
  8
1
390
0
  6
DOT
 62
     9
100
AcDbLine
 10
99.79366
 20
102.687969
 30
0.0
 11
99.79366
 21
103.487969
 31
0.0
  0
LINE
  5
305
100
AcDbEntity
  8
1
390
0
  6
DOT
 62
     9
100
AcDbLine
 10
96.29366
 20
103.487969
 30
0.0
 11
96.29366
 21
102.687969
 31
0.0
  0
LINE
  5
306
100
AcDbEntity
  8
1
390
0
  6
DOT
 62
     9
100
AcDbLine
 10
109.29366
 20
102.687969
 30
0.0
 11
109.29366
 21
103.487969
 31
0.0
  0
LINE
  5
307
100
AcDbEntity
  8
1
390
0
  6
DOT
 62
     9
100
AcDbLine
 10
105.79366
 20
103.487969
 30
0.0
 11
105.79366
 21
102.687969
 31
0.0
  0
ARC
  5
308
100
AcDbEntity
  8
1
390
0
  6
DOT
 62
     9
100
AcDbCircle
 10
96.79366
 20
103.487969
 30
0.0
 40
0.5
210
0.0
220
0.0
230
1.0
100
AcDbArc
 50
90.0
 51
180.0
  0
ARC
  5
309
100
AcDbEntity
  8
1
390
0
  6
DOT
 62
     9
100
AcDbCircle
 10
99.29366
 20
103.487969
 30
0.0
 40
0.5
210
0.0
220
0.0
230
1.0
100
AcDbArc
 50
0.0
 51
90.0
  0
ARC
  5
30A
100
AcDbEntity
  8
1
390
0
  6
DOT
 62
     9
100
AcDbCircle
 10
106.29366
 20
103.487969
 30
0.0
 40
0.5
210
0.0
220
0.0
230
1.0
100
AcDbArc
 50
90.0
 51
180.0
  0
ARC
  5
30B
100
AcDbEntity
  8
1
390
0
  6
DOT
 62
     9
100
AcDbCircle
 10
108.79366
 20
103.487969
 30
0.0
 40
0.5
210
0.0
220
0.0
230
1.0
100
AcDbArc
 50
0.0
 51
90.0
  0
LINE
  5
30C
100
AcDbEntity
  8
1
390
0
  6
DOT
 62
     9
100
AcDbLine
 10
108.170431
 20
103.987969
 30
0.0
 11
108.170431
 21
103.187969
 31
0.0
  0
LINE
  5
30D
100
AcDbEntity
  8
1
390
0
  6
DOT
 62
     9
100
AcDbLine
 10
98.670431
 20
103.987969
 30
0.0
 11
98.670431
 21
103.187969
 31
0.0
  0
LINE
  5
30E
100
AcDbEntity
  8
1
390
0
  6
DOT
 62
     9
100
AcDbLine
 10
106.916889
 20
103.187969
 30
0.0
 11
106.916889
 21
103.987969
 31
0.0
  0
LINE
  5
30F
100
AcDbEntity
  8
1
390
0
  6
DOT
 62
     9
100
AcDbLine
 10
97.416889
 20
103.187969
 30
0.0
 11
97.416889
 21
103.987969
 31
0.0
  0
LINE
  5
310
100
AcDbEntity
  8
1
390
0
  6
Continuous
 62
     7
100
AcDbLine
 10
98.29366
 20
105.187969
 30
0.0
 11
98.29366
 21
104.187969
 31
0.0
  0
LINE
  5
311
100
AcDbEntity
  8
1
390
0
  6
Continuous
 62
     7
100
AcDbLine
 10
107.29366
 20
104.187969
 30
0.0
 11
107.29366
 21
105.187969
 31
0.0
  0
LINE
  5
312
100
AcDbEntity
  8
1
390
0
  6
Continuous
 62
     7
100
AcDbLine
 10
98.79366
 20
109.387969
 30
0.0
 11
98.79366
 21
106.187969
 31
0.0
  0
LINE
  5
313
100
AcDbEntity
  8
1
390
0
  6
Continuous
 62
     7
100
AcDbLine
 10
106.79366
 20
106.187969
 30
0.0
 11
106.79366
 21
109.387969
 31
0.0
  0
LINE
  5
314
100
AcDbEntity
  8
1
390
0
  6
Continuous
 62
     7
100
AcDbLine
 10
106.79366
 20
109.387969
 30
0.0
 11
106.49366
 21
109.687969
 31
0.0
  0
LINE
  5
315
100
AcDbEntity
  8
1
390
0
  6
Continuous
 62
     7
100
AcDbLine
 10
99.09366
 20
109.687969
 30
0.0
 11
98.79366
 21
109.387969
 31
0.0
  0
LINE
  5
316
100
AcDbEntity
  8
1
390
0
  6
Continuous
 62
     7
100
AcDbLine
 10
99.29366
 20
106.187969
 30
0.0
 11
99.29366
 21
105.187969
 31
0.0
  0
LINE
  5
317
100
AcDbEntity
  8
1
390
0
  6
Continuous
 62
     7
100
AcDbLine
 10
106.29366
 20
105.187969
 30
0.0
 11
106.29366
 21
106.187969
 31
0.0
  0
LINE
  5
318
100
AcDbEntity
  8
1
390
0
  6
DOT
 62
     9
100
AcDbLine
 10
105.79366
 20
104.187969
 30
0.0
 11
105.79366
 21
109.687969
 31
0.0
  0
LINE
  5
319
100
AcDbEntity
  8
1
390
0
  6
DOT
 62
     9
100
AcDbLine
 10
99.79366
 20
109.687969
 30
0.0
 11
99.79366
 21
104.187969
 31
0.0
  0
LINE
  5
31A
100
AcDbEntity
  8
1
390
0
  6
DOT
 62
     9
100
AcDbLine
 10
104.79366
 20
108.487969
 30
0.0
 11
104.59366
 21
108.687969
 31
0.0
  0
LINE
  5
31B
100
AcDbEntity
  8
1
390
0
  6
DOT
 62
     9
100
AcDbLine
 10
100.99366
 20
108.687969
 30
0.0
 11
100.79366
 21
108.487969
 31
0.0
  0
LINE
  5
31C
100
AcDbEntity
  8
1
390
0
  6
DOT
 62
     9
100
AcDbLine
 10
104.79366
 20
104.187969
 30
0.0
 11
104.79366
 21
105.187969
 31
0.0
  0
LINE
  5
31D
100
AcDbEntity
  8
1
390
0
  6
DOT
 62
     9
100
AcDbLine
 10
104.79366
 20
105.187969
 30
0.0
 11
104.79366
 21
106.187969
 31
0.0
  0
LINE
  5
31E
100
AcDbEntity
  8
1
390
0
  6
DOT
 62
     9
100
AcDbLine
 10
104.79366
 20
106.187969
 30
0.0
 11
104.79366
 21
108.487969
 31
0.0
  0
LINE
  5
31F
100
AcDbEntity
  8
1
390
0
  6
DOT
 62
     9
100
AcDbLine
 10
100.79366
 20
108.487969
 30
0.0
 11
100.79366
 21
106.187969
 31
0.0
  0
LINE
  5
320
100
AcDbEntity
  8
1
390
0
  6
DOT
 62
     9
100
AcDbLine
 10
100.79366
 20
106.187969
 30
0.0
 11
100.79366
 21
105.187969
 31
0.0
  0
LINE
  5
321
100
AcDbEntity
  8
1
390
0
  6
DOT
 62
     9
100
AcDbLine
 10
100.79366
 20
105.187969
 30
0.0
 11
100.79366
 21
104.187969
 31
0.0
  0
LINE
  5
322
100
AcDbEntity
  8
1
390
0
  6
DOT
 62
     9
100
AcDbLine
 10
101.34366
 20
108.687969
 30
0.0
 11
101.54366
 21
108.487969
 31
0.0
  0
LINE
  5
323
100
AcDbEntity
  8
1
390
0
  6
DOT
 62
     9
100
AcDbLine
 10
104.04366
 20
108.487969
 30
0.0
 11
104.24366
 21
108.687969
 31
0.0
  0
LINE
  5
324
100
AcDbEntity
  8
1
390
0
  6
DOT
 62
     9
100
AcDbLine
 10
101.54366
 20
108.487969
 30
0.0
 11
101.54366
 21
104.187969
 31
0.0
  0
LINE
  5
325
100
AcDbEntity
  8
1
390
0
  6
DOT
 62
     9
100
AcDbLine
 10
104.04366
 20
104.187969
 30
0.0
 11
104.04366
 21
108.487969
 31
0.0
  0
LINE
  5
326
100
AcDbEntity
  8
1
390
0
  6
DOT
 62
     9
100
AcDbLine
 10
83.19366
 20
79.187969
 30
0.0
 11
83.19366
 21
78.187969
 31
0.0
  0
LINE
  5
327
100
AcDbEntity
  8
1
390
0
  6
DOT
 62
     9
100
AcDbLine
 10
87.39366
 20
78.187969
 30
0.0
 11
87.39366
 21
79.187969
 31
0.0
  0
LINE
  5
328
100
AcDbEntity
  8
1
390
0
  6
Continuous
 62
     7
100
AcDbLine
 10
315.178135
 20
210.027001
 30
0.0
 11
315.178135
 21
176.427001
 31
0.0
  0
LINE
  5
329
100
AcDbEntity
  8
1
390
0
  6
Continuous
 62
     7
100
AcDbLine
 10
314.178135
 20
210.027001
 30
0.0
 11
314.178135
 21
176.427001
 31
0.0
  0
LINE
  5
32A
100
AcDbEntity
  8
1
390
0
  6
Continuous
 62
     7
100
AcDbLine
 10
315.178135
 20
173.427001
 30
0.0
 11
314.178135
 21
173.427001
 31
0.0
  0
LINE
  5
32B
100
AcDbEntity
  8
1
390
0
  6
Continuous
 62
     7
100
AcDbLine
 10
314.178135
 20
173.427001
 30
0.0
 11
314.178135
 21
176.427001
 31
0.0
  0
LINE
  5
32C
100
AcDbEntity
  8
1
390
0
  6
Continuous
 62
     7
100
AcDbLine
 10
315.178135
 20
176.427001
 30
0.0
 11
315.178135
 21
173.427001
 31
0.0
  0
LINE
  5
32D
100
AcDbEntity
  8
1
390
0
  6
Continuous
 62
     7
100
AcDbLine
 10
314.178135
 20
213.027001
 30
0.0
 11
315.178135
 21
213.027001
 31
0.0
  0
LINE
  5
32E
100
AcDbEntity
  8
1
390
0
  6
Continuous
 62
     7
100
AcDbLine
 10
314.178135
 20
210.027001
 30
0.0
 11
314.178135
 21
213.027001
 31
0.0
  0
LINE
  5
32F
100
AcDbEntity
  8
1
390
0
  6
Continuous
 62
     7
100
AcDbLine
 10
315.178135
 20
213.027001
 30
0.0
 11
315.178135
 21
210.027001
 31
0.0
  0
LINE
  5
330
100
AcDbEntity
  8
1
390
0
  6
Continuous
 62
     7
100
AcDbLine
 10
305.778135
 20
206.697001
 30
0.0
 11
305.778135
 21
205.297001
 31
0.0
  0
LINE
  5
331
100
AcDbEntity
  8
1
390
0
  6
Continuous
 62
     7
100
AcDbLine
 10
305.578135
 20
205.297001
 30
0.0
 11
305.778135
 21
205.297001
 31
0.0
  0
LINE
  5
332
100
AcDbEntity
  8
1
390
0
  6
Continuous
 62
     7
100
AcDbLine
 10
305.778135
 20
206.697001
 30
0.0
 11
305.578135
 21
206.697001
 31
0.0
  0
LINE
  5
333
100
AcDbEntity
  8
1
390
0
  6
Continuous
 62
     7
100
AcDbLine
 10
302.678135
 20
188.917001
 30
0.0
 11
302.678135
 21
187.517001
 31
0.0
  0
LINE
  5
334
100
AcDbEntity
  8
1
390
0
  6
Continuous
 62
     7
100
AcDbLine
 10
302.878135
 20
188.917001
 30
0.0
 11
302.678135
 21
188.917001
 31
0.0
  0
LINE
  5
335
100
AcDbEntity
  8
1
390
0
  6
Continuous
 62
     7
100
AcDbLine
 10
302.678135
 20
187.517001
 30
0.0
 11
302.878135
 21
187.517001
 31
0.0
  0
LINE
  5
336
100
AcDbEntity
  8
1
390
0
  6
Continuous
 62
     7
100
AcDbLine
 10
302.878135
 20
187.517001
 30
0.0
 11
305.578135
 21
187.517001
 31
0.0
  0
LINE
  5
337
100
AcDbEntity
  8
1
390
0
  6
Continuous
 62
     7
100
AcDbLine
 10
305.578135
 20
188.917001
 30
0.0
 11
302.878135
 21
188.917001
 31
0.0
  0
LINE
  5
338
100
AcDbEntity
  8
1
390
0
  6
Continuous
 62
     7
100
AcDbLine
 10
305.778135
 20
197.677001
 30
0.0
 11
305.778135
 21
199.077001
 31
0.0
  0
LINE
  5
339
100
AcDbEntity
  8
1
390
0
  6
Continuous
 62
     7
100
AcDbLine
 10
305.578135
 20
197.677001
 30
0.0
 11
305.778135
 21
197.677001
 31
0.0
  0
LINE
  5
33A
100
AcDbEntity
  8
1
390
0
  6
Continuous
 62
     7
100
AcDbLine
 10
305.778135
 20
199.077001
 30
0.0
 11
305.578135
 21
199.077001
 31
0.0
  0
LINE
  5
33B
100
AcDbEntity
  8
1
390
0
  6
Continuous
 62
     7
100
AcDbLine
 10
302.878135
 20
205.297001
 30
0.0
 11
305.578135
 21
205.297001
 31
0.0
  0
LINE
  5
33C
100
AcDbEntity
  8
1
390
0
  6
Continuous
 62
     7
100
AcDbLine
 10
305.578135
 20
206.697001
 30
0.0
 11
302.878135
 21
206.697001
 31
0.0
  0
LINE
  5
33D
100
AcDbEntity
  8
1
390
0
  6
Continuous
 62
     7
100
AcDbLine
 10
305.778135
 20
191.457001
 30
0.0
 11
305.778135
 21
190.057001
 31
0.0
  0
LINE
  5
33E
100
AcDbEntity
  8
1
390
0
  6
Continuous
 62
     7
100
AcDbLine
 10
305.578135
 20
190.057001
 30
0.0
 11
305.778135
 21
190.057001
 31
0.0
  0
LINE
  5
33F
100
AcDbEntity
  8
1
390
0
  6
Continuous
 62
     7
100
AcDbLine
 10
305.778135
 20
191.457001
 30
0.0
 11
305.578135
 21
191.457001
 31
0.0
  0
LINE
  5
340
100
AcDbEntity
  8
1
390
0
  6
Continuous
 62
     7
100
AcDbLine
 10
302.878135
 20
202.757001
 30
0.0
 11
305.578135
 21
202.757001
 31
0.0
  0
LINE
  5
341
100
AcDbEntity
  8
1
390
0
  6
Continuous
 62
     7
100
AcDbLine
 10
305.578135
 20
204.157001
 30
0.0
 11
302.878135
 21
204.157001
 31
0.0
  0
LINE
  5
342
100
AcDbEntity
  8
1
390
0
  6
Continuous
 62
     7
100
AcDbLine
 10
302.678135
 20
204.157001
 30
0.0
 11
302.678135
 21
202.757001
 31
0.0
  0
LINE
  5
343
100
AcDbEntity
  8
1
390
0
  6
Continuous
 62
     7
100
AcDbLine
 10
302.878135
 20
204.157001
 30
0.0
 11
302.678135
 21
204.157001
 31
0.0
  0
LINE
  5
344
100
AcDbEntity
  8
1
390
0
  6
Continuous
 62
     7
100
AcDbLine
 10
302.678135
 20
202.757001
 30
0.0
 11
302.878135
 21
202.757001
 31
0.0
  0
LINE
  5
345
100
AcDbEntity
  8
1
390
0
  6
Continuous
 62
     7
100
AcDbLine
 10
305.778135
 20
188.917001
 30
0.0
 11
305.578135
 21
188.917001
 31
0.0
  0
LINE
  5
346
100
AcDbEntity
  8
1
390
0
  6
Continuous
 62
     7
100
AcDbLine
 10
305.778135
 20
187.517001
 30
0.0
 11
305.778135
 21
188.917001
 31
0.0
  0
LINE
  5
347
100
AcDbEntity
  8
1
390
0
  6
Continuous
 62
     7
100
AcDbLine
 10
305.578135
 20
187.517001
 30
0.0
 11
305.778135
 21
187.517001
 31
0.0
  0
LINE
  5
348
100
AcDbEntity
  8
1
390
0
  6
Continuous
 62
     7
100
AcDbLine
 10
302.678135
 20
196.537001
 30
0.0
 11
302.678135
 21
195.137001
 31
0.0
  0
LINE
  5
349
100
AcDbEntity
  8
1
390
0
  6
Continuous
 62
     7
100
AcDbLine
 10
302.878135
 20
196.537001
 30
0.0
 11
302.678135
 21
196.537001
 31
0.0
  0
LINE
  5
34A
100
AcDbEntity
  8
1
390
0
  6
Continuous
 62
     7
100
AcDbLine
 10
302.678135
 20
195.137001
 30
0.0
 11
302.878135
 21
195.137001
 31
0.0
  0
LINE
  5
34B
100
AcDbEntity
  8
1
390
0
  6
Continuous
 62
     7
100
AcDbLine
 10
302.678135
 20
201.617001
 30
0.0
 11
302.678135
 21
200.217001
 31
0.0
  0
LINE
  5
34C
100
AcDbEntity
  8
1
390
0
  6
Continuous
 62
     7
100
AcDbLine
 10
302.878135
 20
201.617001
 30
0.0
 11
302.678135
 21
201.617001
 31
0.0
  0
LINE
  5
34D
100
AcDbEntity
  8
1
390
0
  6
Continuous
 62
     7
100
AcDbLine
 10
302.678135
 20
200.217001
 30
0.0
 11
302.878135
 21
200.217001
 31
0.0
  0
LINE
  5
34E
100
AcDbEntity
  8
1
390
0
  6
Continuous
 62
     7
100
AcDbLine
 10
305.578135
 20
199.077001
 30
0.0
 11
302.878135
 21
199.077001
 31
0.0
  0
LINE
  5
34F
100
AcDbEntity
  8
1
390
0
  6
Continuous
 62
     7
100
AcDbLine
 10
302.878135
 20
197.677001
 30
0.0
 11
305.578135
 21
197.677001
 31
0.0
  0
LINE
  5
350
100
AcDbEntity
  8
1
390
0
  6
Continuous
 62
     7
100
AcDbLine
 10
302.678135
 20
199.077001
 30
0.0
 11
302.678135
 21
197.677001
 31
0.0
  0
LINE
  5
351
100
AcDbEntity
  8
1
390
0
  6
Continuous
 62
     7
100
AcDbLine
 10
302.878135
 20
199.077001
 30
0.0
 11
302.678135
 21
199.077001
 31
0.0
  0
LINE
  5
352
100
AcDbEntity
  8
1
390
0
  6
Continuous
 62
     7
100
AcDbLine
 10
302.678135
 20
197.677001
 30
0.0
 11
302.878135
 21
197.677001
 31
0.0
  0
LINE
  5
353
100
AcDbEntity
  8
1
390
0
  6
Continuous
 62
     7
100
AcDbLine
 10
305.778135
 20
196.537001
 30
0.0
 11
305.578135
 21
196.537001
 31
0.0
  0
LINE
  5
354
100
AcDbEntity
  8
1
390
0
  6
Continuous
 62
     7
100
AcDbLine
 10
305.778135
 20
196.537001
 30
0.0
 11
305.778135
 21
195.137001
 31
0.0
  0
LINE
  5
355
100
AcDbEntity
  8
1
390
0
  6
Continuous
 62
     7
100
AcDbLine
 10
305.578135
 20
195.137001
 30
0.0
 11
305.778135
 21
195.137001
 31
0.0
  0
LINE
  5
356
100
AcDbEntity
  8
1
390
0
  6
Continuous
 62
     7
100
AcDbLine
 10
305.778135
 20
201.617001
 30
0.0
 11
305.778135
 21
200.217001
 31
0.0
  0
LINE
  5
357
100
AcDbEntity
  8
1
390
0
  6
Continuous
 62
     7
100
AcDbLine
 10
305.578135
 20
200.217001
 30
0.0
 11
305.778135
 21
200.217001
 31
0.0
  0
LINE
  5
358
100
AcDbEntity
  8
1
390
0
  6
Continuous
 62
     7
100
AcDbLine
 10
305.778135
 20
201.617001
 30
0.0
 11
305.578135
 21
201.617001
 31
0.0
  0
LINE
  5
359
100
AcDbEntity
  8
1
390
0
  6
Continuous
 62
     7
100
AcDbLine
 10
305.578135
 20
193.997001
 30
0.0
 11
302.878135
 21
193.997001
 31
0.0
  0
LINE
  5
35A
100
AcDbEntity
  8
1
390
0
  6
Continuous
 62
     7
100
AcDbLine
 10
302.878135
 20
192.597001
 30
0.0
 11
305.578135
 21
192.597001
 31
0.0
  0
LINE
  5
35B
100
AcDbEntity
  8
1
390
0
  6
Continuous
 62
     7
100
AcDbLine
 10
305.778135
 20
204.157001
 30
0.0
 11
305.578135
 21
204.157001
 31
0.0
  0
LINE
  5
35C
100
AcDbEntity
  8
1
390
0
  6
Continuous
 62
     7
100
AcDbLine
 10
305.778135
 20
202.757001
 30
0.0
 11
305.778135
 21
204.157001
 31
0.0
  0
LINE
  5
35D
100
AcDbEntity
  8
1
390
0
  6
Continuous
 62
     7
100
AcDbLine
 10
305.578135
 20
202.757001
 30
0.0
 11
305.778135
 21
202.757001
 31
0.0
  0
LINE
  5
35E
100
AcDbEntity
  8
1
390
0
  6
Continuous
 62
     7
100
AcDbLine
 10
305.578135
 20
201.617001
 30
0.0
 11
302.878135
 21
201.617001
 31
0.0
  0
LINE
  5
35F
100
AcDbEntity
  8
1
390
0
  6
Continuous
 62
     7
100
AcDbLine
 10
302.878135
 20
200.217001
 30
0.0
 11
305.578135
 21
200.217001
 31
0.0
  0
LINE
  5
360
100
AcDbEntity
  8
1
390
0
  6
Continuous
 62
     7
100
AcDbLine
 10
302.878135
 20
195.137001
 30
0.0
 11
305.578135
 21
195.137001
 31
0.0
  0
LINE
  5
361
100
AcDbEntity
  8
1
390
0
  6
Continuous
 62
     7
100
AcDbLine
 10
305.578135
 20
196.537001
 30
0.0
 11
302.878135
 21
196.537001
 31
0.0
  0
LINE
  5
362
100
AcDbEntity
  8
1
390
0
  6
Continuous
 62
     7
100
AcDbLine
 10
302.678135
 20
191.457001
 30
0.0
 11
302.678135
 21
190.057001
 31
0.0
  0
LINE
  5
363
100
AcDbEntity
  8
1
390
0
  6
Continuous
 62
     7
100
AcDbLine
 10
302.678135
 20
190.057001
 30
0.0
 11
302.878135
 21
190.057001
 31
0.0
  0
LINE
  5
364
100
AcDbEntity
  8
1
390
0
  6
Continuous
 62
     7
100
AcDbLine
 10
302.878135
 20
191.457001
 30
0.0
 11
302.678135
 21
191.457001
 31
0.0
  0
LINE
  5
365
100
AcDbEntity
  8
1
390
0
  6
Continuous
 62
     7
100
AcDbLine
 10
302.878135
 20
190.057001
 30
0.0
 11
305.578135
 21
190.057001
 31
0.0
  0
LINE
  5
366
100
AcDbEntity
  8
1
390
0
  6
Continuous
 62
     7
100
AcDbLine
 10
305.578135
 20
191.457001
 30
0.0
 11
302.878135
 21
191.457001
 31
0.0
  0
LINE
  5
367
100
AcDbEntity
  8
1
390
0
  6
Continuous
 62
     7
100
AcDbLine
 10
302.678135
 20
206.697001
 30
0.0
 11
302.678135
 21
205.297001
 31
0.0
  0
LINE
  5
368
100
AcDbEntity
  8
1
390
0
  6
Continuous
 62
     7
100
AcDbLine
 10
302.678135
 20
205.297001
 30
0.0
 11
302.878135
 21
205.297001
 31
0.0
  0
LINE
  5
369
100
AcDbEntity
  8
1
390
0
  6
Continuous
 62
     7
100
AcDbLine
 10
302.878135
 20
206.697001
 30
0.0
 11
302.678135
 21
206.697001
 31
0.0
  0
LINE
  5
36A
100
AcDbEntity
  8
1
390
0
  6
Continuous
 62
     7
100
AcDbLine
 10
302.678135
 20
193.997001
 30
0.0
 11
302.678135
 21
192.597001
 31
0.0
  0
LINE
  5
36B
100
AcDbEntity
  8
1
390
0
  6
Continuous
 62
     7
100
AcDbLine
 10
302.878135
 20
193.997001
 30
0.0
 11
302.678135
 21
193.997001
 31
0.0
  0
LINE
  5
36C
100
AcDbEntity
  8
1
390
0
  6
Continuous
 62
     7
100
AcDbLine
 10
302.678135
 20
192.597001
 30
0.0
 11
302.878135
 21
192.597001
 31
0.0
  0
LINE
  5
36D
100
AcDbEntity
  8
1
390
0
  6
Continuous
 62
     7
100
AcDbLine
 10
305.778135
 20
192.597001
 30
0.0
 11
305.778135
 21
193.997001
 31
0.0
  0
LINE
  5
36E
100
AcDbEntity
  8
1
390
0
  6
Continuous
 62
     7
100
AcDbLine
 10
305.778135
 20
193.997001
 30
0.0
 11
305.578135
 21
193.997001
 31
0.0
  0
LINE
  5
36F
100
AcDbEntity
  8
1
390
0
  6
Continuous
 62
     7
100
AcDbLine
 10
305.578135
 20
192.597001
 30
0.0
 11
305.778135
 21
192.597001
 31
0.0
  0
CIRCLE
  5
370
100
AcDbEntity
  8
1
390
0
  6
Continuous
 62
     7
100
AcDbCircle
 10
301.178135
 20
180.227001
 30
0.0
 40
3.276
210
0.0
220
0.0
230
1.0
  0
LINE
  5
371
100
AcDbEntity
  8
1
390
0
  6
Continuous
 62
     7
100
AcDbLine
 10
299.558218
 20
181.03696
 30
0.0
 11
300.368177
 21
181.846918
 31
0.0
  0
LINE
  5
372
100
AcDbEntity
  8
1
390
0
  6
Continuous
 62
     7
100
AcDbLine
 10
300.156045
 20
180.439133
 30
0.0
 11
299.558218
 21
181.03696
 31
0.0
  0
POLYLINE
  5
373
100
AcDbEntity
  8
1
390
0
  6
Continuous
 62
     7
100
AcDb2dPolyline
 66
     1
 10
0.0
 20
0.0
 30
0.0
 40
3.0
 41
3.0
  0
VERTEX
  5
374
100
AcDbEntity
  8
1
390
0
 62
     7
100
AcDbVertex
100
AcDb2dVertex
 10
300.156045
 20
180.014869
 30
0.0
  0
VERTEX
  5
375
100
AcDbEntity
  8
1
390
0
 62
     7
100
AcDbVertex
100
AcDb2dVertex
 10
300.164525
 20
180.023704
 30
0.0
  0
VERTEX
  5
376
100
AcDbEntity
  8
1
390
0
 62
     7
100
AcDbVertex
100
AcDb2dVertex
 10
300.172652
 20
180.032895
 30
0.0
  0
VERTEX
  5
377
100
AcDbEntity
  8
1
390
0
 62
     7
100
AcDbVertex
100
AcDb2dVertex
 10
300.180404
 20
180.042417
 30
0.0
  0
VERTEX
  5
378
100
AcDbEntity
  8
1
390
0
 62
     7
100
AcDbVertex
100
AcDb2dVertex
 10
300.18776
 20
180.052249
 30
0.0
  0
VERTEX
  5
379
100
AcDbEntity
  8
1
390
0
 62
     7
100
AcDbVertex
100
AcDb2dVertex
 10
300.194904
 20
180.062677
 30
0.0
  0
VERTEX
  5
37A
100
AcDbEntity
  8
1
390
0
 62
     7
100
AcDbVertex
100
AcDb2dVertex
 10
300.201614
 20
180.073415
 30
0.0
  0
VERTEX
  5
37B
100
AcDbEntity
  8
1
390
0
 62
     7
100
AcDbVertex
100
AcDb2dVertex
 10
300.207872
 20
180.084435
 30
0.0
  0
VERTEX
  5
37C
100
AcDbEntity
  8
1
390
0
 62
     7
100
AcDbVertex
100
AcDb2dVertex
 10
300.213657
 20
180.095708
 30
0.0
  0
VERTEX
  5
37D
100
AcDbEntity
  8
1
390
0
 62
     7
100
AcDbVertex
100
AcDb2dVertex
 10
300.218838
 20
180.106936
 30
0.0
  0
VERTEX
  5
37E
100
AcDbEntity
  8
1
390
0
 62
     7
100
AcDbVertex
100
AcDb2dVertex
 10
300.223558
 20
180.118386
 30
0.0
  0
VERTEX
  5
37F
100
AcDbEntity
  8
1
390
0
 62
     7
100
AcDbVertex
100
AcDb2dVertex
 10
300.227806
 20
180.130027
 30
0.0
  0
VERTEX
  5
380
100
AcDbEntity
  8
1
390
0
 62
     7
100
AcDbVertex
100
AcDb2dVertex
 10
300.231568
 20
180.14183
 30
0.0
  0
VERTEX
  5
381
100
AcDbEntity
  8
1
390
0
 62
     7
100
AcDbVertex
100
AcDb2dVertex
 10
300.23493
 20
180.154142
 30
0.0
  0
VERTEX
  5
382
100
AcDbEntity
  8
1
390
0
 62
     7
100
AcDbVertex
100
AcDb2dVertex
 10
300.237768
 20
180.166604
 30
0.0
  0
VERTEX
  5
383
100
AcDbEntity
  8
1
390
0
 62
     7
100
AcDbVertex
100
AcDb2dVertex
 10
300.240075
 20
180.17918
 30
0.0
  0
VERTEX
  5
384
100
AcDbEntity
  8
1
390
0
 62
     7
100
AcDbVertex
100
AcDb2dVertex
 10
300.241844
 20
180.191834
 30
0.0
  0
VERTEX
  5
385
100
AcDbEntity
  8
1
390
0
 62
     7
100
AcDbVertex
100
AcDb2dVertex
 10
300.243032
 20
180.20404
 30
0.0
  0
VERTEX
  5
386
100
AcDbEntity
  8
1
390
0
 62
     7
100
AcDbVertex
100
AcDb2dVertex
 10
300.24372
 20
180.216298
 30
0.0
  0
VERTEX
  5
387
100
AcDbEntity
  8
1
390
0
 62
     7
100
AcDbVertex
100
AcDb2dVertex
 10
300.243907
 20
180.228574
 30
0.0
  0
VERTEX
  5
388
100
AcDbEntity
  8
1
390
0
 62
     7
100
AcDbVertex
100
AcDb2dVertex
 10
300.243593
 20
180.240837
 30
0.0
  0
VERTEX
  5
389
100
AcDbEntity
  8
1
390
0
 62
     7
100
AcDbVertex
100
AcDb2dVertex
 10
300.242745
 20
180.253434
 30
0.0
  0
VERTEX
  5
38A
100
AcDbEntity
  8
1
390
0
 62
     7
100
AcDbVertex
100
AcDb2dVertex
 10
300.241366
 20
180.265994
 30
0.0
  0
VERTEX
  5
38B
100
AcDbEntity
  8
1
390
0
 62
     7
100
AcDbVertex
100
AcDb2dVertex
 10
300.239461
 20
180.278482
 30
0.0
  0
VERTEX
  5
38C
100
AcDbEntity
  8
1
390
0
 62
     7
100
AcDbVertex
100
AcDb2dVertex
 10
300.237037
 20
180.290863
 30
0.0
  0
VERTEX
  5
38D
100
AcDbEntity
  8
1
390
0
 62
     7
100
AcDbVertex
100
AcDb2dVertex
 10
300.234199
 20
180.302718
 30
0.0
  0
VERTEX
  5
38E
100
AcDbEntity
  8
1
390
0
 62
     7
100
AcDbVertex
100
AcDb2dVertex
 10
300.230882
 20
180.314452
 30
0.0
  0
VERTEX
  5
38F
100
AcDbEntity
  8
1
390
0
 62
     7
100
AcDbVertex
100
AcDb2dVertex
 10
300.227093
 20
180.326037
 30
0.0
  0
VERTEX
  5
390
100
AcDbEntity
  8
1
390
0
 62
     7
100
AcDbVertex
100
AcDb2dVertex
 10
300.222844
 20
180.337442
 30
0.0
  0
VERTEX
  5
391
100
AcDbEntity
  8
1
390
0
 62
     7
100
AcDbVertex
100
AcDb2dVertex
 10
300.217996
 20
180.348976
 30
0.0
  0
VERTEX
  5
392
100
AcDbEntity
  8
1
390
0
 62
     7
100
AcDbVertex
100
AcDb2dVertex
 10
300.21267
 20
180.360299
 30
0.0
  0
VERTEX
  5
393
100
AcDbEntity
  8
1
390
0
 62
     7
100
AcDbVertex
100
AcDb2dVertex
 10
300.206882
 20
180.371384
 30
0.0
  0
VERTEX
  5
394
100
AcDbEntity
  8
1
390
0
 62
     7
100
AcDbVertex
100
AcDb2dVertex
 10
300.200649
 20
180.3822
 30
0.0
  0
VERTEX
  5
395
100
AcDbEntity
  8
1
390
0
 62
     7
100
AcDbVertex
100
AcDb2dVertex
 10
300.192841
 20
180.394431
 30
0.0
  0
VERTEX
  5
396
100
AcDbEntity
  8
1
390
0
 62
     7
100
AcDbVertex
100
AcDb2dVertex
 10
300.184443
 20
180.406279
 30
0.0
  0
VERTEX
  5
397
100
AcDbEntity
  8
1
390
0
 62
     7
100
AcDbVertex
100
AcDb2dVertex
 10
300.175489
 20
180.417704
 30
0.0
  0
VERTEX
  5
398
100
AcDbEntity
  8
1
390
0
 62
     7
100
AcDbVertex
100
AcDb2dVertex
 10
300.166012
 20
180.428669
 30
0.0
  0
VERTEX
  5
399
100
AcDbEntity
  8
1
390
0
 62
     7
100
AcDbVertex
100
AcDb2dVertex
 10
300.156045
 20
180.439133
 30
0.0
  0
SEQEND
  5
39A
100
AcDbEntity
  8
0
390
0
  0
LINE
  5
39B
100
AcDbEntity
  8
1
390
0
  6
Continuous
 62
     7
100
AcDbLine
 10
299.558218
 20
179.417042
 30
0.0
 11
300.156045
 21
180.014869
 31
0.0
  0
LINE
  5
39C
100
AcDbEntity
  8
1
390
0
  6
Continuous
 62
     7
100
AcDbLine
 10
300.368177
 20
178.607084
 30
0.0
 11
299.558218
 21
179.417042
 31
0.0
  0
LINE
  5
39D
100
AcDbEntity
  8
1
390
0
  6
Continuous
 62
     7
100
AcDbLine
 10
300.966003
 20
179.204911
 30
0.0
 11
300.368177
 21
178.607084
 31
0.0
  0
POLYLINE
  5
39E
100
AcDbEntity
  8
1
390
0
  6
Continuous
 62
     7
100
AcDb2dPolyline
 66
     1
 10
0.0
 20
0.0
 30
0.0
 40
3.0
 41
3.0
  0
VERTEX
  5
39F
100
AcDbEntity
  8
1
390
0
 62
     7
100
AcDbVertex
100
AcDb2dVertex
 10
301.390267
 20
179.204911
 30
0.0
  0
VERTEX
  5
3A0
100
AcDbEntity
  8
1
390
0
 62
     7
100
AcDbVertex
100
AcDb2dVertex
 10
301.381432
 20
179.213391
 30
0.0
  0
VERTEX
  5
3A1
100
AcDbEntity
  8
1
390
0
 62
     7
100
AcDbVertex
100
AcDb2dVertex
 10
301.372242
 20
179.221518
 30
0.0
  0
VERTEX
  5
3A2
100
AcDbEntity
  8
1
390
0
 62
     7
100
AcDbVertex
100
AcDb2dVertex
 10
301.362719
 20
179.22927
 30
0.0
  0
VERTEX
  5
3A3
100
AcDbEntity
  8
1
390
0
 62
     7
100
AcDbVertex
100
AcDb2dVertex
 10
301.352887
 20
179.236626
 30
0.0
  0
VERTEX
  5
3A4
100
AcDbEntity
  8
1
390
0
 62
     7
100
AcDbVertex
100
AcDb2dVertex
 10
301.34246
 20
179.24377
 30
0.0
  0
VERTEX
  5
3A5
100
AcDbEntity
  8
1
390
0
 62
     7
100
AcDbVertex
100
AcDb2dVertex
 10
301.331721
 20
179.25048
 30
0.0
  0
VERTEX
  5
3A6
100
AcDbEntity
  8
1
390
0
 62
     7
100
AcDbVertex
100
AcDb2dVertex
 10
301.320701
 20
179.256738
 30
0.0
  0
VERTEX
  5
3A7
100
AcDbEntity
  8
1
390
0
 62
     7
100
AcDbVertex
100
AcDb2dVertex
 10
301.309428
 20
179.262523
 30
0.0
  0
VERTEX
  5
3A8
100
AcDbEntity
  8
1
390
0
 62
     7
100
AcDbVertex
100
AcDb2dVertex
 10
301.2982
 20
179.267704
 30
0.0
  0
VERTEX
  5
3A9
100
AcDbEntity
  8
1
390
0
 62
     7
100
AcDbVertex
100
AcDb2dVertex
 10
301.28675
 20
179.272424
 30
0.0
  0
VERTEX
  5
3AA
100
AcDbEntity
  8
1
390
0
 62
     7
100
AcDbVertex
100
AcDb2dVertex
 10
301.275109
 20
179.276672
 30
0.0
  0
VERTEX
  5
3AB
100
AcDbEntity
  8
1
390
0
 62
     7
100
AcDbVertex
100
AcDb2dVertex
 10
301.263306
 20
179.280434
 30
0.0
  0
VERTEX
  5
3AC
100
AcDbEntity
  8
1
390
0
 62
     7
100
AcDbVertex
100
AcDb2dVertex
 10
301.250994
 20
179.283796
 30
0.0
  0
VERTEX
  5
3AD
100
AcDbEntity
  8
1
390
0
 62
     7
100
AcDbVertex
100
AcDb2dVertex
 10
301.238532
 20
179.286634
 30
0.0
  0
VERTEX
  5
3AE
100
AcDbEntity
  8
1
390
0
 62
     7
100
AcDbVertex
100
AcDb2dVertex
 10
301.225957
 20
179.288941
 30
0.0
  0
VERTEX
  5
3AF
100
AcDbEntity
  8
1
390
0
 62
     7
100
AcDbVertex
100
AcDb2dVertex
 10
301.213302
 20
179.29071
 30
0.0
  0
VERTEX
  5
3B0
100
AcDbEntity
  8
1
390
0
 62
     7
100
AcDbVertex
100
AcDb2dVertex
 10
301.201096
 20
179.291898
 30
0.0
  0
VERTEX
  5
3B1
100
AcDbEntity
  8
1
390
0
 62
     7
100
AcDbVertex
100
AcDb2dVertex
 10
301.188838
 20
179.292586
 30
0.0
  0
VERTEX
  5
3B2
100
AcDbEntity
  8
1
390
0
 62
     7
100
AcDbVertex
100
AcDb2dVertex
 10
301.176562
 20
179.292773
 30
0.0
  0
VERTEX
  5
3B3
100
AcDbEntity
  8
1
390
0
 62
     7
100
AcDbVertex
100
AcDb2dVertex
 10
301.1643
 20
179.292459
 30
0.0
  0
VERTEX
  5
3B4
100
AcDbEntity
  8
1
390
0
 62
     7
100
AcDbVertex
100
AcDb2dVertex
 10
301.151702
 20
179.291611
 30
0.0
  0
VERTEX
  5
3B5
100
AcDbEntity
  8
1
390
0
 62
     7
100
AcDbVertex
100
AcDb2dVertex
 10
301.139142
 20
179.290232
 30
0.0
  0
VERTEX
  5
3B6
100
AcDbEntity
  8
1
390
0
 62
     7
100
AcDbVertex
100
AcDb2dVertex
 10
301.126654
 20
179.288327
 30
0.0
  0
VERTEX
  5
3B7
100
AcDbEntity
  8
1
390
0
 62
     7
100
AcDbVertex
100
AcDb2dVertex
 10
301.114273
 20
179.285902
 30
0.0
  0
VERTEX
  5
3B8
100
AcDbEntity
  8
1
390
0
 62
     7
100
AcDbVertex
100
AcDb2dVertex
 10
301.102418
 20
179.283065
 30
0.0
  0
VERTEX
  5
3B9
100
AcDbEntity
  8
1
390
0
 62
     7
100
AcDbVertex
100
AcDb2dVertex
 10
301.090684
 20
179.279747
 30
0.0
  0
VERTEX
  5
3BA
100
AcDbEntity
  8
1
390
0
 62
     7
100
AcDbVertex
100
AcDb2dVertex
 10
301.079099
 20
179.275959
 30
0.0
  0
VERTEX
  5
3BB
100
AcDbEntity
  8
1
390
0
 62
     7
100
AcDbVertex
100
AcDb2dVertex
 10
301.067694
 20
179.27171
 30
0.0
  0
VERTEX
  5
3BC
100
AcDbEntity
  8
1
390
0
 62
     7
100
AcDbVertex
100
AcDb2dVertex
 10
301.056161
 20
179.266862
 30
0.0
  0
VERTEX
  5
3BD
100
AcDbEntity
  8
1
390
0
 62
     7
100
AcDbVertex
100
AcDb2dVertex
 10
301.044837
 20
179.261536
 30
0.0
  0
VERTEX
  5
3BE
100
AcDbEntity
  8
1
390
0
 62
     7
100
AcDbVertex
100
AcDb2dVertex
 10
301.033752
 20
179.255748
 30
0.0
  0
VERTEX
  5
3BF
100
AcDbEntity
  8
1
390
0
 62
     7
100
AcDbVertex
100
AcDb2dVertex
 10
301.022937
 20
179.249514
 30
0.0
  0
VERTEX
  5
3C0
100
AcDbEntity
  8
1
390
0
 62
     7
100
AcDbVertex
100
AcDb2dVertex
 10
301.010705
 20
179.241707
 30
0.0
  0
VERTEX
  5
3C1
100
AcDbEntity
  8
1
390
0
 62
     7
100
AcDbVertex
100
AcDb2dVertex
 10
300.998858
 20
179.233309
 30
0.0
  0
VERTEX
  5
3C2
100
AcDbEntity
  8
1
390
0
 62
     7
100
AcDbVertex
100
AcDb2dVertex
 10
300.987432
 20
179.224355
 30
0.0
  0
VERTEX
  5
3C3
100
AcDbEntity
  8
1
390
0
 62
     7
100
AcDbVertex
100
AcDb2dVertex
 10
300.976468
 20
179.214878
 30
0.0
  0
VERTEX
  5
3C4
100
AcDbEntity
  8
1
390
0
 62
     7
100
AcDbVertex
100
AcDb2dVertex
 10
300.966003
 20
179.204911
 30
0.0
  0
SEQEND
  5
3C5
100
AcDbEntity
  8
0
390
0
  0
LINE
  5
3C6
100
AcDbEntity
  8
1
390
0
  6
Continuous
 62
     7
100
AcDbLine
 10
301.988094
 20
178.607084
 30
0.0
 11
301.390267
 21
179.204911
 31
0.0
  0
LINE
  5
3C7
100
AcDbEntity
  8
1
390
0
  6
Continuous
 62
     7
100
AcDbLine
 10
302.798052
 20
179.417042
 30
0.0
 11
301.988094
 21
178.607084
 31
0.0
  0
LINE
  5
3C8
100
AcDbEntity
  8
1
390
0
  6
Continuous
 62
     7
100
AcDbLine
 10
302.200226
 20
180.014869
 30
0.0
 11
302.798052
 21
179.417042
 31
0.0
  0
POLYLINE
  5
3C9
100
AcDbEntity
  8
1
390
0
  6
Continuous
 62
     7
100
AcDb2dPolyline
 66
     1
 10
0.0
 20
0.0
 30
0.0
 40
3.0
 41
3.0
  0
VERTEX
  5
3CA
100
AcDbEntity
  8
1
390
0
 62
     7
100
AcDbVertex
100
AcDb2dVertex
 10
302.200226
 20
180.439133
 30
0.0
  0
VERTEX
  5
3CB
100
AcDbEntity
  8
1
390
0
 62
     7
100
AcDbVertex
100
AcDb2dVertex
 10
302.191745
 20
180.430298
 30
0.0
  0
VERTEX
  5
3CC
100
AcDbEntity
  8
1
390
0
 62
     7
100
AcDbVertex
100
AcDb2dVertex
 10
302.183619
 20
180.421108
 30
0.0
  0
VERTEX
  5
3CD
100
AcDbEntity
  8
1
390
0
 62
     7
100
AcDbVertex
100
AcDb2dVertex
 10
302.175867
 20
180.411585
 30
0.0
  0
VERTEX
  5
3CE
100
AcDbEntity
  8
1
390
0
 62
     7
100
AcDbVertex
100
AcDb2dVertex
 10
302.16851
 20
180.401753
 30
0.0
  0
VERTEX
  5
3CF
100
AcDbEntity
  8
1
390
0
 62
     7
100
AcDbVertex
100
AcDb2dVertex
 10
302.161366
 20
180.391326
 30
0.0
  0
VERTEX
  5
3D0
100
AcDbEntity
  8
1
390
0
 62
     7
100
AcDbVertex
100
AcDb2dVertex
 10
302.154656
 20
180.380587
 30
0.0
  0
VERTEX
  5
3D1
100
AcDbEntity
  8
1
390
0
 62
     7
100
AcDbVertex
100
AcDb2dVertex
 10
302.148399
 20
180.369567
 30
0.0
  0
VERTEX
  5
3D2
100
AcDbEntity
  8
1
390
0
 62
     7
100
AcDbVertex
100
AcDb2dVertex
 10
302.142613
 20
180.358294
 30
0.0
  0
VERTEX
  5
3D3
100
AcDbEntity
  8
1
390
0
 62
     7
100
AcDbVertex
100
AcDb2dVertex
 10
302.137433
 20
180.347066
 30
0.0
  0
VERTEX
  5
3D4
100
AcDbEntity
  8
1
390
0
 62
     7
100
AcDbVertex
100
AcDb2dVertex
 10
302.132712
 20
180.335616
 30
0.0
  0
VERTEX
  5
3D5
100
AcDbEntity
  8
1
390
0
 62
     7
100
AcDbVertex
100
AcDb2dVertex
 10
302.128465
 20
180.323975
 30
0.0
  0
VERTEX
  5
3D6
100
AcDbEntity
  8
1
390
0
 62
     7
100
AcDbVertex
100
AcDb2dVertex
 10
302.124702
 20
180.312172
 30
0.0
  0
VERTEX
  5
3D7
100
AcDbEntity
  8
1
390
0
 62
     7
100
AcDbVertex
100
AcDb2dVertex
 10
302.121341
 20
180.29986
 30
0.0
  0
VERTEX
  5
3D8
100
AcDbEntity
  8
1
390
0
 62
     7
100
AcDbVertex
100
AcDb2dVertex
 10
302.118503
 20
180.287398
 30
0.0
  0
VERTEX
  5
3D9
100
AcDbEntity
  8
1
390
0
 62
     7
100
AcDbVertex
100
AcDb2dVertex
 10
302.116195
 20
180.274823
 30
0.0
  0
VERTEX
  5
3DA
100
AcDbEntity
  8
1
390
0
 62
     7
100
AcDbVertex
100
AcDb2dVertex
 10
302.114426
 20
180.262168
 30
0.0
  0
VERTEX
  5
3DB
100
AcDbEntity
  8
1
390
0
 62
     7
100
AcDbVertex
100
AcDb2dVertex
 10
302.113239
 20
180.249962
 30
0.0
  0
VERTEX
  5
3DC
100
AcDbEntity
  8
1
390
0
 62
     7
100
AcDbVertex
100
AcDb2dVertex
 10
302.112551
 20
180.237704
 30
0.0
  0
VERTEX
  5
3DD
100
AcDbEntity
  8
1
390
0
 62
     7
100
AcDbVertex
100
AcDb2dVertex
 10
302.112363
 20
180.225428
 30
0.0
  0
VERTEX
  5
3DE
100
AcDbEntity
  8
1
390
0
 62
     7
100
AcDbVertex
100
AcDb2dVertex
 10
302.112677
 20
180.213166
 30
0.0
  0
VERTEX
  5
3DF
100
AcDbEntity
  8
1
390
0
 62
     7
100
AcDbVertex
100
AcDb2dVertex
 10
302.113526
 20
180.200568
 30
0.0
  0
VERTEX
  5
3E0
100
AcDbEntity
  8
1
390
0
 62
     7
100
AcDbVertex
100
AcDb2dVertex
 10
302.114905
 20
180.188008
 30
0.0
  0
VERTEX
  5
3E1
100
AcDbEntity
  8
1
390
0
 62
     7
100
AcDbVertex
100
AcDb2dVertex
 10
302.116809
 20
180.17552
 30
0.0
  0
VERTEX
  5
3E2
100
AcDbEntity
  8
1
390
0
 62
     7
100
AcDbVertex
100
AcDb2dVertex
 10
302.119234
 20
180.163139
 30
0.0
  0
VERTEX
  5
3E3
100
AcDbEntity
  8
1
390
0
 62
     7
100
AcDbVertex
100
AcDb2dVertex
 10
302.122071
 20
180.151284
 30
0.0
  0
VERTEX
  5
3E4
100
AcDbEntity
  8
1
390
0
 62
     7
100
AcDbVertex
100
AcDb2dVertex
 10
302.125389
 20
180.13955
 30
0.0
  0
VERTEX
  5
3E5
100
AcDbEntity
  8
1
390
0
 62
     7
100
AcDbVertex
100
AcDb2dVertex
 10
302.129177
 20
180.127965
 30
0.0
  0
VERTEX
  5
3E6
100
AcDbEntity
  8
1
390
0
 62
     7
100
AcDbVertex
100
AcDb2dVertex
 10
302.133426
 20
180.11656
 30
0.0
  0
VERTEX
  5
3E7
100
AcDbEntity
  8
1
390
0
 62
     7
100
AcDbVertex
100
AcDb2dVertex
 10
302.138275
 20
180.105027
 30
0.0
  0
VERTEX
  5
3E8
100
AcDbEntity
  8
1
390
0
 62
     7
100
AcDbVertex
100
AcDb2dVertex
 10
302.143601
 20
180.093703
 30
0.0
  0
VERTEX
  5
3E9
100
AcDbEntity
  8
1
390
0
 62
     7
100
AcDbVertex
100
AcDb2dVertex
 10
302.149388
 20
180.082618
 30
0.0
  0
VERTEX
  5
3EA
100
AcDbEntity
  8
1
390
0
 62
     7
100
AcDbVertex
100
AcDb2dVertex
 10
302.155622
 20
180.071803
 30
0.0
  0
VERTEX
  5
3EB
100
AcDbEntity
  8
1
390
0
 62
     7
100
AcDbVertex
100
AcDb2dVertex
 10
302.16343
 20
180.059571
 30
0.0
  0
VERTEX
  5
3EC
100
AcDbEntity
  8
1
390
0
 62
     7
100
AcDbVertex
100
AcDb2dVertex
 10
302.171827
 20
180.047723
 30
0.0
  0
VERTEX
  5
3ED
100
AcDbEntity
  8
1
390
0
 62
     7
100
AcDbVertex
100
AcDb2dVertex
 10
302.180781
 20
180.036298
 30
0.0
  0
VERTEX
  5
3EE
100
AcDbEntity
  8
1
390
0
 62
     7
100
AcDbVertex
100
AcDb2dVertex
 10
302.190258
 20
180.025333
 30
0.0
  0
VERTEX
  5
3EF
100
AcDbEntity
  8
1
390
0
 62
     7
100
AcDbVertex
100
AcDb2dVertex
 10
302.200226
 20
180.014869
 30
0.0
  0
SEQEND
  5
3F0
100
AcDbEntity
  8
0
390
0
  0
LINE
  5
3F1
100
AcDbEntity
  8
1
390
0
  6
Continuous
 62
     7
100
AcDbLine
 10
302.798052
 20
181.03696
 30
0.0
 11
302.200226
 21
180.439133
 31
0.0
  0
LINE
  5
3F2
100
AcDbEntity
  8
1
390
0
  6
Continuous
 62
     7
100
AcDbLine
 10
301.988094
 20
181.846918
 30
0.0
 11
302.798052
 21
181.03696
 31
0.0
  0
LINE
  5
3F3
100
AcDbEntity
  8
1
390
0
  6
Continuous
 62
     7
100
AcDbLine
 10
301.390267
 20
181.249092
 30
0.0
 11
301.988094
 21
181.846918
 31
0.0
  0
POLYLINE
  5
3F4
100
AcDbEntity
  8
1
390
0
  6
Continuous
 62
     7
100
AcDb2dPolyline
 66
     1
 10
0.0
 20
0.0
 30
0.0
 40
3.0
 41
3.0
  0
VERTEX
  5
3F5
100
AcDbEntity
  8
1
390
0
 62
     7
100
AcDbVertex
100
AcDb2dVertex
 10
300.966003
 20
181.249092
 30
0.0
  0
VERTEX
  5
3F6
100
AcDbEntity
  8
1
390
0
 62
     7
100
AcDbVertex
100
AcDb2dVertex
 10
300.974839
 20
181.240611
 30
0.0
  0
VERTEX
  5
3F7
100
AcDbEntity
  8
1
390
0
 62
     7
100
AcDbVertex
100
AcDb2dVertex
 10
300.984029
 20
181.232484
 30
0.0
  0
VERTEX
  5
3F8
100
AcDbEntity
  8
1
390
0
 62
     7
100
AcDbVertex
100
AcDb2dVertex
 10
300.993551
 20
181.224732
 30
0.0
  0
VERTEX
  5
3F9
100
AcDbEntity
  8
1
390
0
 62
     7
100
AcDbVertex
100
AcDb2dVertex
 10
301.003383
 20
181.217376
 30
0.0
  0
VERTEX
  5
3FA
100
AcDbEntity
  8
1
390
0
 62
     7
100
AcDbVertex
100
AcDb2dVertex
 10
301.013811
 20
181.210232
 30
0.0
  0
VERTEX
  5
3FB
100
AcDbEntity
  8
1
390
0
 62
     7
100
AcDbVertex
100
AcDb2dVertex
 10
301.024549
 20
181.203522
 30
0.0
  0
VERTEX
  5
3FC
100
AcDbEntity
  8
1
390
0
 62
     7
100
AcDbVertex
100
AcDb2dVertex
 10
301.03557
 20
181.197265
 30
0.0
  0
VERTEX
  5
3FD
100
AcDbEntity
  8
1
390
0
 62
     7
100
AcDbVertex
100
AcDb2dVertex
 10
301.046843
 20
181.191479
 30
0.0
  0
VERTEX
  5
3FE
100
AcDbEntity
  8
1
390
0
 62
     7
100
AcDbVertex
100
AcDb2dVertex
 10
301.058071
 20
181.186299
 30
0.0
  0
VERTEX
  5
3FF
100
AcDbEntity
  8
1
390
0
 62
     7
100
AcDbVertex
100
AcDb2dVertex
 10
301.06952
 20
181.181578
 30
0.0
  0
VERTEX
  5
400
100
AcDbEntity
  8
1
390
0
 62
     7
100
AcDbVertex
100
AcDb2dVertex
 10
301.081161
 20
181.17733
 30
0.0
  0
VERTEX
  5
401
100
AcDbEntity
  8
1
390
0
 62
     7
100
AcDbVertex
100
AcDb2dVertex
 10
301.092964
 20
181.173568
 30
0.0
  0
VERTEX
  5
402
100
AcDbEntity
  8
1
390
0
 62
     7
100
AcDbVertex
100
AcDb2dVertex
 10
301.105277
 20
181.170207
 30
0.0
  0
VERTEX
  5
403
100
AcDbEntity
  8
1
390
0
 62
     7
100
AcDbVertex
100
AcDb2dVertex
 10
301.117738
 20
181.167368
 30
0.0
  0
VERTEX
  5
404
100
AcDbEntity
  8
1
390
0
 62
     7
100
AcDbVertex
100
AcDb2dVertex
 10
301.130314
 20
181.165061
 30
0.0
  0
VERTEX
  5
405
100
AcDbEntity
  8
1
390
0
 62
     7
100
AcDbVertex
100
AcDb2dVertex
 10
301.142968
 20
181.163292
 30
0.0
  0
VERTEX
  5
406
100
AcDbEntity
  8
1
390
0
 62
     7
100
AcDbVertex
100
AcDb2dVertex
 10
301.155175
 20
181.162105
 30
0.0
  0
VERTEX
  5
407
100
AcDbEntity
  8
1
390
0
 62
     7
100
AcDbVertex
100
AcDb2dVertex
 10
301.167432
 20
181.161417
 30
0.0
  0
VERTEX
  5
408
100
AcDbEntity
  8
1
390
0
 62
     7
100
AcDbVertex
100
AcDb2dVertex
 10
301.179708
 20
181.161229
 30
0.0
  0
VERTEX
  5
409
100
AcDbEntity
  8
1
390
0
 62
     7
100
AcDbVertex
100
AcDb2dVertex
 10
301.191971
 20
181.161543
 30
0.0
  0
VERTEX
  5
40A
100
AcDbEntity
  8
1
390
0
 62
     7
100
AcDbVertex
100
AcDb2dVertex
 10
301.204568
 20
181.162392
 30
0.0
  0
VERTEX
  5
40B
100
AcDbEntity
  8
1
390
0
 62
     7
100
AcDbVertex
100
AcDb2dVertex
 10
301.217128
 20
181.163771
 30
0.0
  0
VERTEX
  5
40C
100
AcDbEntity
  8
1
390
0
 62
     7
100
AcDbVertex
100
AcDb2dVertex
 10
301.229616
 20
181.165675
 30
0.0
  0
VERTEX
  5
40D
100
AcDbEntity
  8
1
390
0
 62
     7
100
AcDbVertex
100
AcDb2dVertex
 10
301.241998
 20
181.1681
 30
0.0
  0
VERTEX
  5
40E
100
AcDbEntity
  8
1
390
0
 62
     7
100
AcDbVertex
100
AcDb2dVertex
 10
301.253852
 20
181.170937
 30
0.0
  0
VERTEX
  5
40F
100
AcDbEntity
  8
1
390
0
 62
     7
100
AcDbVertex
100
AcDb2dVertex
 10
301.265587
 20
181.174255
 30
0.0
  0
VERTEX
  5
410
100
AcDbEntity
  8
1
390
0
 62
     7
100
AcDbVertex
100
AcDb2dVertex
 10
301.277171
 20
181.178043
 30
0.0
  0
VERTEX
  5
411
100
AcDbEntity
  8
1
390
0
 62
     7
100
AcDbVertex
100
AcDb2dVertex
 10
301.288577
 20
181.182292
 30
0.0
  0
VERTEX
  5
412
100
AcDbEntity
  8
1
390
0
 62
     7
100
AcDbVertex
100
AcDb2dVertex
 10
301.30011
 20
181.187141
 30
0.0
  0
VERTEX
  5
413
100
AcDbEntity
  8
1
390
0
 62
     7
100
AcDbVertex
100
AcDb2dVertex
 10
301.311434
 20
181.192467
 30
0.0
  0
VERTEX
  5
414
100
AcDbEntity
  8
1
390
0
 62
     7
100
AcDbVertex
100
AcDb2dVertex
 10
301.322518
 20
181.198254
 30
0.0
  0
VERTEX
  5
415
100
AcDbEntity
  8
1
390
0
 62
     7
100
AcDbVertex
100
AcDb2dVertex
 10
301.333334
 20
181.204488
 30
0.0
  0
VERTEX
  5
416
100
AcDbEntity
  8
1
390
0
 62
     7
100
AcDbVertex
100
AcDb2dVertex
 10
301.345565
 20
181.212296
 30
0.0
  0
VERTEX
  5
417
100
AcDbEntity
  8
1
390
0
 62
     7
100
AcDbVertex
100
AcDb2dVertex
 10
301.357413
 20
181.220693
 30
0.0
  0
VERTEX
  5
418
100
AcDbEntity
  8
1
390
0
 62
     7
100
AcDbVertex
100
AcDb2dVertex
 10
301.368839
 20
181.229647
 30
0.0
  0
VERTEX
  5
419
100
AcDbEntity
  8
1
390
0
 62
     7
100
AcDbVertex
100
AcDb2dVertex
 10
301.379803
 20
181.239124
 30
0.0
  0
VERTEX
  5
41A
100
AcDbEntity
  8
1
390
0
 62
     7
100
AcDbVertex
100
AcDb2dVertex
 10
301.390267
 20
181.249092
 30
0.0
  0
SEQEND
  5
41B
100
AcDbEntity
  8
0
390
0
  0
LINE
  5
41C
100
AcDbEntity
  8
1
390
0
  6
Continuous
 62
     7
100
AcDbLine
 10
300.368177
 20
181.846918
 30
0.0
 11
300.966003
 21
181.249092
 31
0.0
  0
LINE
  5
41D
100
AcDbEntity
  8
1
390
0
  6
Continuous
 62
     7
100
AcDbLine
 10
309.278135
 20
213.027001
 30
0.0
 11
309.278135
 21
173.427001
 31
0.0
  0
LINE
  5
41E
100
AcDbEntity
  8
1
390
0
  6
Continuous
 62
     7
100
AcDbLine
 10
309.278135
 20
173.427001
 30
0.0
 11
310.278135
 21
173.427001
 31
0.0
  0
LINE
  5
41F
100
AcDbEntity
  8
1
390
0
  6
Continuous
 62
     7
100
AcDbLine
 10
309.278135
 20
213.027001
 30
0.0
 11
310.278135
 21
213.027001
 31
0.0
  0
LINE
  5
420
100
AcDbEntity
  8
1
390
0
  6
Continuous
 62
     7
100
AcDbLine
 10
310.278135
 20
173.427001
 30
0.0
 11
314.178135
 21
173.427001
 31
0.0
  0
LINE
  5
421
100
AcDbEntity
  8
1
390
0
  6
Continuous
 62
     7
100
AcDbLine
 10
310.278135
 20
213.027001
 30
0.0
 11
314.178135
 21
213.027001
 31
0.0
  0
LINE
  5
422
100
AcDbEntity
  8
1
390
0
  6
Continuous
 62
     7
100
AcDbLine
 10
306.378135
 20
197.137001
 30
0.0
 11
306.378135
 21
194.597001
 31
0.0
  0
LINE
  5
423
100
AcDbEntity
  8
1
390
0
  6
Continuous
 62
     7
100
AcDbLine
 10
308.778135
 20
204.757001
 30
0.0
 11
308.778135
 21
207.297001
 31
0.0
  0
LINE
  5
424
100
AcDbEntity
  8
1
390
0
  6
Continuous
 62
     7
100
AcDbLine
 10
308.299007
 20
207.297001
 30
0.0
 11
308.299007
 21
204.757001
 31
0.0
  0
LINE
  5
425
100
AcDbEntity
  8
1
390
0
  6
Continuous
 62
     7
100
AcDbLine
 10
306.378135
 20
204.757001
 30
0.0
 11
306.378135
 21
202.217001
 31
0.0
  0
LINE
  5
426
100
AcDbEntity
  8
1
390
0
  6
Continuous
 62
     7
100
AcDbLine
 10
306.378135
 20
199.677001
 30
0.0
 11
306.378135
 21
197.137001
 31
0.0
  0
LINE
  5
427
100
AcDbEntity
  8
1
390
0
  6
Continuous
 62
     7
100
AcDbLine
 10
298.778135
 20
208.797001
 30
0.0
 11
298.778135
 21
207.297001
 31
0.0
  0
LINE
  5
428
100
AcDbEntity
  8
1
390
0
  6
Continuous
 62
     7
100
AcDbLine
 10
299.028135
 20
208.797001
 30
0.0
 11
298.778135
 21
208.797001
 31
0.0
  0
LINE
  5
429
100
AcDbEntity
  8
1
390
0
  6
Continuous
 62
     7
100
AcDbLine
 10
306.378135
 20
192.057001
 30
0.0
 11
306.378135
 21
189.517001
 31
0.0
  0
LINE
  5
42A
100
AcDbEntity
  8
1
390
0
  6
Continuous
 62
     7
100
AcDbLine
 10
306.378135
 20
194.597001
 30
0.0
 11
306.378135
 21
192.057001
 31
0.0
  0
LINE
  5
42B
100
AcDbEntity
  8
1
390
0
  6
Continuous
 62
     7
100
AcDbLine
 10
308.778135
 20
207.297001
 30
0.0
 11
308.778135
 21
208.797001
 31
0.0
  0
LINE
  5
42C
100
AcDbEntity
  8
1
390
0
  6
Continuous
 62
     7
100
AcDbLine
 10
308.299007
 20
208.797001
 30
0.0
 11
308.299007
 21
207.297001
 31
0.0
  0
LINE
  5
42D
100
AcDbEntity
  8
1
390
0
  6
Continuous
 62
     7
100
AcDbLine
 10
308.299007
 20
208.797001
 30
0.0
 11
308.778135
 21
208.797001
 31
0.0
  0
LINE
  5
42E
100
AcDbEntity
  8
1
390
0
  6
Continuous
 62
     7
100
AcDbLine
 10
308.778135
 20
192.057001
 30
0.0
 11
308.778135
 21
194.597001
 31
0.0
  0
LINE
  5
42F
100
AcDbEntity
  8
1
390
0
  6
Continuous
 62
     7
100
AcDbLine
 10
308.299007
 20
194.597001
 30
0.0
 11
308.299007
 21
192.057001
 31
0.0
  0
LINE
  5
430
100
AcDbEntity
  8
1
390
0
  6
Continuous
 62
     7
100
AcDbLine
 10
302.268135
 20
187.417001
 30
0.0
 11
302.268135
 21
189.517001
 31
0.0
  0
LINE
  5
431
100
AcDbEntity
  8
1
390
0
  6
Continuous
 62
     7
100
AcDbLine
 10
302.268135
 20
187.417001
 30
0.0
 11
300.268135
 21
187.417001
 31
0.0
  0
LINE
  5
432
100
AcDbEntity
  8
1
390
0
  6
Continuous
 62
     7
100
AcDbLine
 10
306.228135
 20
186.977001
 30
0.0
 11
299.028135
 21
186.977001
 31
0.0
  0
LINE
  5
433
100
AcDbEntity
  8
1
390
0
  6
Continuous
 62
     7
100
AcDbLine
 10
300.268135
 20
189.517001
 30
0.0
 11
300.268135
 21
187.417001
 31
0.0
  0
LINE
  5
434
100
AcDbEntity
  8
1
390
0
  6
Continuous
 62
     7
100
AcDbLine
 10
306.378135
 20
189.517001
 30
0.0
 11
306.378135
 21
186.977001
 31
0.0
  0
LINE
  5
435
100
AcDbEntity
  8
1
390
0
  6
Continuous
 62
     7
100
AcDbLine
 10
306.228135
 20
186.977001
 30
0.0
 11
306.378135
 21
186.977001
 31
0.0
  0
LINE
  5
436
100
AcDbEntity
  8
1
390
0
  6
Continuous
 62
     7
100
AcDbLine
 10
302.268135
 20
205.197001
 30
0.0
 11
300.268135
 21
205.197001
 31
0.0
  0
LINE
  5
437
100
AcDbEntity
  8
1
390
0
  6
Continuous
 62
     7
100
AcDbLine
 10
302.268135
 20
205.197001
 30
0.0
 11
302.268135
 21
207.297001
 31
0.0
  0
LINE
  5
438
100
AcDbEntity
  8
1
390
0
  6
Continuous
 62
     7
100
AcDbLine
 10
302.268135
 20
204.757001
 30
0.0
 11
300.268135
 21
204.757001
 31
0.0
  0
LINE
  5
439
100
AcDbEntity
  8
1
390
0
  6
Continuous
 62
     7
100
AcDbLine
 10
300.268135
 20
207.297001
 30
0.0
 11
300.268135
 21
205.197001
 31
0.0
  0
LINE
  5
43A
100
AcDbEntity
  8
1
390
0
  6
Continuous
 62
     7
100
AcDbLine
 10
308.778135
 20
199.677001
 30
0.0
 11
308.778135
 21
202.217001
 31
0.0
  0
LINE
  5
43B
100
AcDbEntity
  8
1
390
0
  6
Continuous
 62
     7
100
AcDbLine
 10
308.299007
 20
202.217001
 30
0.0
 11
308.299007
 21
199.677001
 31
0.0
  0
LINE
  5
43C
100
AcDbEntity
  8
1
390
0
  6
Continuous
 62
     7
100
AcDbLine
 10
308.778135
 20
202.217001
 30
0.0
 11
308.778135
 21
204.757001
 31
0.0
  0
LINE
  5
43D
100
AcDbEntity
  8
1
390
0
  6
Continuous
 62
     7
100
AcDbLine
 10
308.299007
 20
204.757001
 30
0.0
 11
308.299007
 21
202.217001
 31
0.0
  0
LINE
  5
43E
100
AcDbEntity
  8
1
390
0
  6
Continuous
 62
     7
100
AcDbLine
 10
306.378135
 20
202.217001
 30
0.0
 11
306.378135
 21
199.677001
 31
0.0
  0
LINE
  5
43F
100
AcDbEntity
  8
1
390
0
  6
Continuous
 62
     7
100
AcDbLine
 10
302.268135
 20
199.677001
 30
0.0
 11
300.268135
 21
199.677001
 31
0.0
  0
LINE
  5
440
100
AcDbEntity
  8
1
390
0
  6
Continuous
 62
     7
100
AcDbLine
 10
300.268135
 20
202.217001
 30
0.0
 11
300.268135
 21
200.117001
 31
0.0
  0
LINE
  5
441
100
AcDbEntity
  8
1
390
0
  6
Continuous
 62
     7
100
AcDbLine
 10
302.268135
 20
200.117001
 30
0.0
 11
300.268135
 21
200.117001
 31
0.0
  0
LINE
  5
442
100
AcDbEntity
  8
1
390
0
  6
Continuous
 62
     7
100
AcDbLine
 10
302.268135
 20
200.117001
 30
0.0
 11
302.268135
 21
202.217001
 31
0.0
  0
LINE
  5
443
100
AcDbEntity
  8
1
390
0
  6
Continuous
 62
     7
100
AcDbLine
 10
302.268135
 20
197.137001
 30
0.0
 11
300.268135
 21
197.137001
 31
0.0
  0
LINE
  5
444
100
AcDbEntity
  8
1
390
0
  6
Continuous
 62
     7
100
AcDbLine
 10
300.268135
 20
199.677001
 30
0.0
 11
300.268135
 21
197.577001
 31
0.0
  0
LINE
  5
445
100
AcDbEntity
  8
1
390
0
  6
Continuous
 62
     7
100
AcDbLine
 10
302.268135
 20
197.577001
 30
0.0
 11
300.268135
 21
197.577001
 31
0.0
  0
LINE
  5
446
100
AcDbEntity
  8
1
390
0
  6
Continuous
 62
     7
100
AcDbLine
 10
302.268135
 20
197.577001
 30
0.0
 11
302.268135
 21
199.677001
 31
0.0
  0
LINE
  5
447
100
AcDbEntity
  8
1
390
0
  6
Continuous
 62
     7
100
AcDbLine
 10
300.268135
 20
194.597001
 30
0.0
 11
300.268135
 21
192.497001
 31
0.0
  0
LINE
  5
448
100
AcDbEntity
  8
1
390
0
  6
Continuous
 62
     7
100
AcDbLine
 10
302.268135
 20
192.497001
 30
0.0
 11
300.268135
 21
192.497001
 31
0.0
  0
LINE
  5
449
100
AcDbEntity
  8
1
390
0
  6
Continuous
 62
     7
100
AcDbLine
 10
302.268135
 20
192.497001
 30
0.0
 11
302.268135
 21
194.597001
 31
0.0
  0
LINE
  5
44A
100
AcDbEntity
  8
1
390
0
  6
Continuous
 62
     7
100
AcDbLine
 10
302.268135
 20
192.057001
 30
0.0
 11
300.268135
 21
192.057001
 31
0.0
  0
LINE
  5
44B
100
AcDbEntity
  8
1
390
0
  6
Continuous
 62
     7
100
AcDbLine
 10
306.378135
 20
207.297001
 30
0.0
 11
306.378135
 21
204.757001
 31
0.0
  0
LINE
  5
44C
100
AcDbEntity
  8
1
390
0
  6
Continuous
 62
     7
100
AcDbLine
 10
308.778135
 20
189.517001
 30
0.0
 11
308.778135
 21
192.057001
 31
0.0
  0
LINE
  5
44D
100
AcDbEntity
  8
1
390
0
  6
Continuous
 62
     7
100
AcDbLine
 10
308.299007
 20
192.057001
 30
0.0
 11
308.299007
 21
189.517001
 31
0.0
  0
LINE
  5
44E
100
AcDbEntity
  8
1
390
0
  6
Continuous
 62
     7
100
AcDbLine
 10
308.778135
 20
194.597001
 30
0.0
 11
308.778135
 21
197.137001
 31
0.0
  0
LINE
  5
44F
100
AcDbEntity
  8
1
390
0
  6
Continuous
 62
     7
100
AcDbLine
 10
308.299007
 20
197.137001
 30
0.0
 11
308.299007
 21
194.597001
 31
0.0
  0
LINE
  5
450
100
AcDbEntity
  8
1
390
0
  6
Continuous
 62
     7
100
AcDbLine
 10
308.778135
 20
197.137001
 30
0.0
 11
308.778135
 21
199.677001
 31
0.0
  0
LINE
  5
451
100
AcDbEntity
  8
1
390
0
  6
Continuous
 62
     7
100
AcDbLine
 10
308.299007
 20
199.677001
 30
0.0
 11
308.299007
 21
197.137001
 31
0.0
  0
LINE
  5
452
100
AcDbEntity
  8
1
390
0
  6
Continuous
 62
     7
100
AcDbLine
 10
308.778135
 20
186.977001
 30
0.0
 11
308.778135
 21
189.517001
 31
0.0
  0
LINE
  5
453
100
AcDbEntity
  8
1
390
0
  6
Continuous
 62
     7
100
AcDbLine
 10
308.299007
 20
189.517001
 30
0.0
 11
308.299007
 21
186.977001
 31
0.0
  0
LINE
  5
454
100
AcDbEntity
  8
1
390
0
  6
Continuous
 62
     7
100
AcDbLine
 10
308.778135
 20
186.977001
 30
0.0
 11
308.299007
 21
186.977001
 31
0.0
  0
LINE
  5
455
100
AcDbEntity
  8
1
390
0
  6
Continuous
 62
     7
100
AcDbLine
 10
306.378135
 20
208.797001
 30
0.0
 11
306.378135
 21
207.297001
 31
0.0
  0
LINE
  5
456
100
AcDbEntity
  8
1
390
0
  6
Continuous
 62
     7
100
AcDbLine
 10
306.378135
 20
208.797001
 30
0.0
 11
306.228135
 21
208.797001
 31
0.0
  0
LINE
  5
457
100
AcDbEntity
  8
1
390
0
  6
Continuous
 62
     7
100
AcDbLine
 10
298.778135
 20
202.217001
 30
0.0
 11
298.778135
 21
199.677001
 31
0.0
  0
LINE
  5
458
100
AcDbEntity
  8
1
390
0
  6
Continuous
 62
     7
100
AcDbLine
 10
298.778135
 20
207.297001
 30
0.0
 11
298.778135
 21
204.757001
 31
0.0
  0
LINE
  5
459
100
AcDbEntity
  8
1
390
0
  6
Continuous
 62
     7
100
AcDbLine
 10
300.268135
 20
192.057001
 30
0.0
 11
300.268135
 21
189.957001
 31
0.0
  0
LINE
  5
45A
100
AcDbEntity
  8
1
390
0
  6
Continuous
 62
     7
100
AcDbLine
 10
302.268135
 20
189.957001
 30
0.0
 11
300.268135
 21
189.957001
 31
0.0
  0
LINE
  5
45B
100
AcDbEntity
  8
1
390
0
  6
Continuous
 62
     7
100
AcDbLine
 10
302.268135
 20
189.517001
 30
0.0
 11
300.268135
 21
189.517001
 31
0.0
  0
LINE
  5
45C
100
AcDbEntity
  8
1
390
0
  6
Continuous
 62
     7
100
AcDbLine
 10
302.268135
 20
189.957001
 30
0.0
 11
302.268135
 21
192.057001
 31
0.0
  0
LINE
  5
45D
100
AcDbEntity
  8
1
390
0
  6
Continuous
 62
     7
100
AcDbLine
 10
300.268135
 20
197.137001
 30
0.0
 11
300.268135
 21
195.037001
 31
0.0
  0
LINE
  5
45E
100
AcDbEntity
  8
1
390
0
  6
Continuous
 62
     7
100
AcDbLine
 10
302.268135
 20
195.037001
 30
0.0
 11
302.268135
 21
197.137001
 31
0.0
  0
LINE
  5
45F
100
AcDbEntity
  8
1
390
0
  6
Continuous
 62
     7
100
AcDbLine
 10
302.268135
 20
195.037001
 30
0.0
 11
300.268135
 21
195.037001
 31
0.0
  0
LINE
  5
460
100
AcDbEntity
  8
1
390
0
  6
Continuous
 62
     7
100
AcDbLine
 10
302.268135
 20
194.597001
 30
0.0
 11
300.268135
 21
194.597001
 31
0.0
  0
LINE
  5
461
100
AcDbEntity
  8
1
390
0
  6
DOT
 62
     9
100
AcDbLine
 10
310.278135
 20
213.027001
 30
0.0
 11
310.278135
 21
173.427001
 31
0.0
  0
LINE
  5
462
100
AcDbEntity
  8
1
390
0
  6
Continuous
 62
     7
100
AcDbLine
 10
302.268135
 20
202.217001
 30
0.0
 11
300.268135
 21
202.217001
 31
0.0
  0
LINE
  5
463
100
AcDbEntity
  8
1
390
0
  6
Continuous
 62
     7
100
AcDbLine
 10
302.268135
 20
202.657001
 30
0.0
 11
302.268135
 21
204.757001
 31
0.0
  0
LINE
  5
464
100
AcDbEntity
  8
1
390
0
  6
Continuous
 62
     7
100
AcDbLine
 10
302.268135
 20
202.657001
 30
0.0
 11
300.268135
 21
202.657001
 31
0.0
  0
LINE
  5
465
100
AcDbEntity
  8
1
390
0
  6
Continuous
 62
     7
100
AcDbLine
 10
300.268135
 20
204.757001
 30
0.0
 11
300.268135
 21
202.657001
 31
0.0
  0
LINE
  5
466
100
AcDbEntity
  8
1
390
0
  6
Continuous
 62
     7
100
AcDbLine
 10
299.028135
 20
208.797001
 30
0.0
 11
306.228135
 21
208.797001
 31
0.0
  0
LINE
  5
467
100
AcDbEntity
  8
1
390
0
  6
Continuous
 62
     7
100
AcDbLine
 10
302.268135
 20
207.297001
 30
0.0
 11
300.268135
 21
207.297001
 31
0.0
  0
LINE
  5
468
100
AcDbEntity
  8
1
390
0
  6
Continuous
 62
     7
100
AcDbLine
 10
298.778135
 20
192.057001
 30
0.0
 11
298.778135
 21
189.517001
 31
0.0
  0
LINE
  5
469
100
AcDbEntity
  8
1
390
0
  6
Continuous
 62
     7
100
AcDbLine
 10
298.778135
 20
197.137001
 30
0.0
 11
298.778135
 21
194.597001
 31
0.0
  0
LINE
  5
46A
100
AcDbEntity
  8
1
390
0
  6
Continuous
 62
     7
100
AcDbLine
 10
298.778135
 20
199.677001
 30
0.0
 11
298.778135
 21
197.137001
 31
0.0
  0
LINE
  5
46B
100
AcDbEntity
  8
1
390
0
  6
Continuous
 62
     7
100
AcDbLine
 10
298.778135
 20
189.517001
 30
0.0
 11
298.778135
 21
186.977001
 31
0.0
  0
LINE
  5
46C
100
AcDbEntity
  8
1
390
0
  6
Continuous
 62
     7
100
AcDbLine
 10
298.778135
 20
186.977001
 30
0.0
 11
299.028135
 21
186.977001
 31
0.0
  0
LINE
  5
46D
100
AcDbEntity
  8
1
390
0
  6
Continuous
 62
     7
100
AcDbLine
 10
298.778135
 20
204.757001
 30
0.0
 11
298.778135
 21
202.217001
 31
0.0
  0
LINE
  5
46E
100
AcDbEntity
  8
1
390
0
  6
Continuous
 62
     7
100
AcDbLine
 10
298.778135
 20
194.597001
 30
0.0
 11
298.778135
 21
192.057001
 31
0.0
  0
LINE
  5
46F
100
AcDbEntity
  8
1
390
0
  6
Continuous
 62
     7
100
AcDbLine
 10
306.378135
 20
208.797001
 30
0.0
 11
308.299007
 21
208.797001
 31
0.0
  0
LINE
  5
470
100
AcDbEntity
  8
1
390
0
  6
Continuous
 62
     7
100
AcDbLine
 10
308.299007
 20
186.977001
 30
0.0
 11
306.378135
 21
186.977001
 31
0.0
  0
ARC
  5
471
100
AcDbEntity
  8
1
390
0
  6
Continuous
 62
     7
100
AcDbCircle
 10
292.178135
 20
213.227001
 30
0.0
 40
1.0
210
0.0
220
0.0
230
1.0
100
AcDbArc
 50
90.0
 51
180.0
  0
LINE
  5
472
100
AcDbEntity
  8
1
390
0
  6
Continuous
 62
     7
100
AcDbLine
 10
310.278135
 20
172.227001
 30
0.0
 11
292.178135
 21
172.227001
 31
0.0
  0
LINE
  5
473
100
AcDbEntity
  8
1
390
0
  6
Continuous
 62
     7
100
AcDbLine
 10
310.278135
 20
173.227001
 30
0.0
 11
310.278135
 21
172.227001
 31
0.0
  0
LINE
  5
474
100
AcDbEntity
  8
1
390
0
  6
Continuous
 62
     7
100
AcDbLine
 10
291.178135
 20
173.227001
 30
0.0
 11
291.178135
 21
213.227001
 31
0.0
  0
LINE
  5
475
100
AcDbEntity
  8
1
390
0
  6
Continuous
 62
     7
100
AcDbLine
 10
310.278135
 20
214.227001
 30
0.0
 11
292.178135
 21
214.227001
 31
0.0
  0
LINE
  5
476
100
AcDbEntity
  8
1
390
0
  6
Continuous
 62
     7
100
AcDbLine
 10
310.278135
 20
214.227001
 30
0.0
 11
310.278135
 21
213.227001
 31
0.0
  0
ARC
  5
477
100
AcDbEntity
  8
1
390
0
  6
Continuous
 62
     7
100
AcDbCircle
 10
292.178135
 20
173.227001
 30
0.0
 40
1.0
210
0.0
220
0.0
230
1.0
100
AcDbArc
 50
180.0
 51
270.0
  0
LINE
  5
478
100
AcDbEntity
  8
1
390
0
  6
Continuous
 62
     7
100
AcDbLine
 10
310.278135
 20
173.427001
 30
0.0
 11
310.278135
 21
173.227001
 31
0.0
  0
LINE
  5
479
100
AcDbEntity
  8
1
390
0
  6
Continuous
 62
     7
100
AcDbLine
 10
310.278135
 20
213.227001
 30
0.0
 11
310.278135
 21
213.027001
 31
0.0
  0
LINE
  5
47A
100
AcDbEntity
  8
1
390
0
  6
Continuous
 62
     7
100
AcDbLine
 10
291.078135
 20
210.227001
 30
0.0
 11
291.078135
 21
176.227001
 31
0.0
  0
LINE
  5
47B
100
AcDbEntity
  8
1
390
0
  6
Continuous
 62
     7
100
AcDbLine
 10
291.078135
 20
174.227001
 30
0.0
 11
291.178135
 21
174.227001
 31
0.0
  0
LINE
  5
47C
100
AcDbEntity
  8
1
390
0
  6
Continuous
 62
     7
100
AcDbLine
 10
291.078135
 20
176.227001
 30
0.0
 11
291.078135
 21
174.227001
 31
0.0
  0
LINE
  5
47D
100
AcDbEntity
  8
1
390
0
  6
Continuous
 62
     7
100
AcDbLine
 10
291.078135
 20
212.227001
 30
0.0
 11
291.178135
 21
212.227001
 31
0.0
  0
LINE
  5
47E
100
AcDbEntity
  8
1
390
0
  6
Continuous
 62
     7
100
AcDbLine
 10
291.078135
 20
212.227001
 30
0.0
 11
291.078135
 21
210.227001
 31
0.0
  0
LINE
  5
47F
100
AcDbEntity
  8
1
390
0
  6
Continuous
 62
     7
100
AcDbLine
 10
300.528135
 20
198.077001
 30
0.0
 11
300.268135
 21
197.577001
 31
0.0
  0
LINE
  5
480
100
AcDbEntity
  8
1
390
0
  6
Continuous
 62
     7
100
AcDbLine
 10
300.528135
 20
198.077001
 30
0.0
 11
300.528135
 21
199.677001
 31
0.0
  0
LINE
  5
481
100
AcDbEntity
  8
1
390
0
  6
Continuous
 62
     7
100
AcDbLine
 10
301.528135
 20
205.697001
 30
0.0
 11
302.268135
 21
205.197001
 31
0.0
  0
LINE
  5
482
100
AcDbEntity
  8
1
390
0
  6
Continuous
 62
     7
100
AcDbLine
 10
301.528135
 20
207.297001
 30
0.0
 11
301.528135
 21
205.697001
 31
0.0
  0
LINE
  5
483
100
AcDbEntity
  8
1
390
0
  6
Continuous
 62
     7
100
AcDbLine
 10
301.528135
 20
187.917001
 30
0.0
 11
302.268135
 21
187.417001
 31
0.0
  0
LINE
  5
484
100
AcDbEntity
  8
1
390
0
  6
Continuous
 62
     7
100
AcDbLine
 10
301.528135
 20
189.517001
 30
0.0
 11
301.528135
 21
187.917001
 31
0.0
  0
LINE
  5
485
100
AcDbEntity
  8
1
390
0
  6
Continuous
 62
     7
100
AcDbLine
 10
301.528135
 20
195.537001
 30
0.0
 11
302.268135
 21
195.037001
 31
0.0
  0
LINE
  5
486
100
AcDbEntity
  8
1
390
0
  6
Continuous
 62
     7
100
AcDbLine
 10
301.528135
 20
197.137001
 30
0.0
 11
301.528135
 21
195.537001
 31
0.0
  0
LINE
  5
487
100
AcDbEntity
  8
1
390
0
  6
Continuous
 62
     7
100
AcDbLine
 10
301.528135
 20
198.077001
 30
0.0
 11
302.268135
 21
197.577001
 31
0.0
  0
LINE
  5
488
100
AcDbEntity
  8
1
390
0
  6
Continuous
 62
     7
100
AcDbLine
 10
301.528135
 20
199.677001
 30
0.0
 11
301.528135
 21
198.077001
 31
0.0
  0
LINE
  5
489
100
AcDbEntity
  8
1
390
0
  6
Continuous
 62
     7
100
AcDbLine
 10
301.528135
 20
192.997001
 30
0.0
 11
302.268135
 21
192.497001
 31
0.0
  0
LINE
  5
48A
100
AcDbEntity
  8
1
390
0
  6
Continuous
 62
     7
100
AcDbLine
 10
301.528135
 20
194.597001
 30
0.0
 11
301.528135
 21
192.997001
 31
0.0
  0
LINE
  5
48B
100
AcDbEntity
  8
1
390
0
  6
Continuous
 62
     7
100
AcDbLine
 10
300.528135
 20
190.457001
 30
0.0
 11
300.268135
 21
189.957001
 31
0.0
  0
LINE
  5
48C
100
AcDbEntity
  8
1
390
0
  6
Continuous
 62
     7
100
AcDbLine
 10
300.528135
 20
190.457001
 30
0.0
 11
300.528135
 21
192.057001
 31
0.0
  0
LINE
  5
48D
100
AcDbEntity
  8
1
390
0
  6
Continuous
 62
     7
100
AcDbLine
 10
300.528135
 20
192.997001
 30
0.0
 11
300.268135
 21
192.497001
 31
0.0
  0
LINE
  5
48E
100
AcDbEntity
  8
1
390
0
  6
Continuous
 62
     7
100
AcDbLine
 10
300.528135
 20
192.997001
 30
0.0
 11
300.528135
 21
194.597001
 31
0.0
  0
LINE
  5
48F
100
AcDbEntity
  8
1
390
0
  6
Continuous
 62
     7
100
AcDbLine
 10
301.528135
 20
190.457001
 30
0.0
 11
302.268135
 21
189.957001
 31
0.0
  0
LINE
  5
490
100
AcDbEntity
  8
1
390
0
  6
Continuous
 62
     7
100
AcDbLine
 10
301.528135
 20
190.457001
 30
0.0
 11
300.528135
 21
190.457001
 31
0.0
  0
LINE
  5
491
100
AcDbEntity
  8
1
390
0
  6
Continuous
 62
     7
100
AcDbLine
 10
301.528135
 20
192.057001
 30
0.0
 11
301.528135
 21
190.457001
 31
0.0
  0
LINE
  5
492
100
AcDbEntity
  8
1
390
0
  6
Continuous
 62
     7
100
AcDbLine
 10
300.528135
 20
187.917001
 30
0.0
 11
300.268135
 21
187.417001
 31
0.0
  0
LINE
  5
493
100
AcDbEntity
  8
1
390
0
  6
Continuous
 62
     7
100
AcDbLine
 10
300.528135
 20
187.917001
 30
0.0
 11
300.528135
 21
189.517001
 31
0.0
  0
LINE
  5
494
100
AcDbEntity
  8
1
390
0
  6
Continuous
 62
     7
100
AcDbLine
 10
300.528135
 20
195.537001
 30
0.0
 11
300.268135
 21
195.037001
 31
0.0
  0
LINE
  5
495
100
AcDbEntity
  8
1
390
0
  6
Continuous
 62
     7
100
AcDbLine
 10
300.528135
 20
195.537001
 30
0.0
 11
300.528135
 21
197.137001
 31
0.0
  0
LINE
  5
496
100
AcDbEntity
  8
1
390
0
  6
Continuous
 62
     7
100
AcDbLine
 10
301.528135
 20
203.157001
 30
0.0
 11
302.268135
 21
202.657001
 31
0.0
  0
LINE
  5
497
100
AcDbEntity
  8
1
390
0
  6
Continuous
 62
     7
100
AcDbLine
 10
301.528135
 20
204.757001
 30
0.0
 11
301.528135
 21
203.157001
 31
0.0
  0
LINE
  5
498
100
AcDbEntity
  8
1
390
0
  6
Continuous
 62
     7
100
AcDbLine
 10
301.528135
 20
195.537001
 30
0.0
 11
300.528135
 21
195.537001
 31
0.0
  0
LINE
  5
499
100
AcDbEntity
  8
1
390
0
  6
Continuous
 62
     7
100
AcDbLine
 10
300.528135
 20
203.157001
 30
0.0
 11
300.268135
 21
202.657001
 31
0.0
  0
LINE
  5
49A
100
AcDbEntity
  8
1
390
0
  6
Continuous
 62
     7
100
AcDbLine
 10
300.528135
 20
203.157001
 30
0.0
 11
300.528135
 21
204.757001
 31
0.0
  0
LINE
  5
49B
100
AcDbEntity
  8
1
390
0
  6
Continuous
 62
     7
100
AcDbLine
 10
301.528135
 20
187.917001
 30
0.0
 11
300.528135
 21
187.917001
 31
0.0
  0
LINE
  5
49C
100
AcDbEntity
  8
1
390
0
  6
Continuous
 62
     7
100
AcDbLine
 10
300.528135
 20
200.617001
 30
0.0
 11
300.268135
 21
200.117001
 31
0.0
  0
LINE
  5
49D
100
AcDbEntity
  8
1
390
0
  6
Continuous
 62
     7
100
AcDbLine
 10
300.528135
 20
200.617001
 30
0.0
 11
300.528135
 21
202.217001
 31
0.0
  0
LINE
  5
49E
100
AcDbEntity
  8
1
390
0
  6
Continuous
 62
     7
100
AcDbLine
 10
300.528135
 20
205.697001
 30
0.0
 11
300.268135
 21
205.197001
 31
0.0
  0
LINE
  5
49F
100
AcDbEntity
  8
1
390
0
  6
Continuous
 62
     7
100
AcDbLine
 10
300.528135
 20
205.697001
 30
0.0
 11
300.528135
 21
207.297001
 31
0.0
  0
LINE
  5
4A0
100
AcDbEntity
  8
1
390
0
  6
Continuous
 62
     7
100
AcDbLine
 10
301.528135
 20
205.697001
 30
0.0
 11
300.528135
 21
205.697001
 31
0.0
  0
LINE
  5
4A1
100
AcDbEntity
  8
1
390
0
  6
Continuous
 62
     7
100
AcDbLine
 10
301.528135
 20
192.997001
 30
0.0
 11
300.528135
 21
192.997001
 31
0.0
  0
LINE
  5
4A2
100
AcDbEntity
  8
1
390
0
  6
Continuous
 62
     7
100
AcDbLine
 10
301.528135
 20
203.157001
 30
0.0
 11
300.528135
 21
203.157001
 31
0.0
  0
LINE
  5
4A3
100
AcDbEntity
  8
1
390
0
  6
Continuous
 62
     7
100
AcDbLine
 10
301.528135
 20
200.617001
 30
0.0
 11
302.268135
 21
200.117001
 31
0.0
  0
LINE
  5
4A4
100
AcDbEntity
  8
1
390
0
  6
Continuous
 62
     7
100
AcDbLine
 10
301.528135
 20
200.617001
 30
0.0
 11
300.528135
 21
200.617001
 31
0.0
  0
LINE
  5
4A5
100
AcDbEntity
  8
1
390
0
  6
Continuous
 62
     7
100
AcDbLine
 10
301.528135
 20
202.217001
 30
0.0
 11
301.528135
 21
200.617001
 31
0.0
  0
LINE
  5
4A6
100
AcDbEntity
  8
1
390
0
  6
Continuous
 62
     7
100
AcDbLine
 10
301.528135
 20
198.077001
 30
0.0
 11
300.528135
 21
198.077001
 31
0.0
  0
LINE
  5
4A7
100
AcDbEntity
  8
1
390
0
  6
DOT
 62
     9
100
AcDbLine
 10
291.078135
 20
201.227001
 30
0.0
 11
291.178135
 21
201.227001
 31
0.0
  0
LINE
  5
4A8
100
AcDbEntity
  8
1
390
0
  6
DOT
 62
     9
100
AcDbLine
 10
291.078135
 20
185.227001
 30
0.0
 11
291.178135
 21
185.227001
 31
0.0
  0
LINE
  5
4A9
100
AcDbEntity
  8
1
390
0
  6
Continuous
 62
     7
100
AcDbLine
 10
289.178135
 20
187.227001
 30
0.0
 11
291.078135
 21
187.227001
 31
0.0
  0
LINE
  5
4AA
100
AcDbEntity
  8
1
390
0
  6
DOT
 62
     9
100
AcDbLine
 10
291.078135
 20
187.227001
 30
0.0
 11
291.178135
 21
187.227001
 31
0.0
  0
LINE
  5
4AB
100
AcDbEntity
  8
1
390
0
  6
Continuous
 62
     7
100
AcDbLine
 10
289.178135
 20
199.227001
 30
0.0
 11
289.178135
 21
187.227001
 31
0.0
  0
LINE
  5
4AC
100
AcDbEntity
  8
1
390
0
  6
Continuous
 62
     7
100
AcDbLine
 10
289.178135
 20
199.227001
 30
0.0
 11
291.078135
 21
199.227001
 31
0.0
  0
LINE
  5
4AD
100
AcDbEntity
  8
1
390
0
  6
DOT
 62
     9
100
AcDbLine
 10
291.078135
 20
199.227001
 30
0.0
 11
291.178135
 21
199.227001
 31
0.0
  0
LINE
  5
4AE
100
AcDbEntity
  8
1
390
0
  6
Continuous
 62
     7
100
AcDbLine
 10
289.178135
 20
185.727001
 30
0.0
 11
291.078135
 21
185.727001
 31
0.0
  0
LINE
  5
4AF
100
AcDbEntity
  8
1
390
0
  6
DOT
 62
     9
100
AcDbLine
 10
291.078135
 20
185.727001
 30
0.0
 11
291.178135
 21
185.727001
 31
0.0
  0
LINE
  5
4B0
100
AcDbEntity
  8
1
390
0
  6
Continuous
 62
     7
100
AcDbLine
 10
289.178135
 20
187.227001
 30
0.0
 11
289.178135
 21
185.727001
 31
0.0
  0
LINE
  5
4B1
100
AcDbEntity
  8
1
390
0
  6
Continuous
 62
     7
100
AcDbLine
 10
289.178135
 20
200.727001
 30
0.0
 11
291.078135
 21
200.727001
 31
0.0
  0
LINE
  5
4B2
100
AcDbEntity
  8
1
390
0
  6
DOT
 62
     9
100
AcDbLine
 10
291.078135
 20
200.727001
 30
0.0
 11
291.178135
 21
200.727001
 31
0.0
  0
LINE
  5
4B3
100
AcDbEntity
  8
1
390
0
  6
Continuous
 62
     7
100
AcDbLine
 10
289.178135
 20
200.727001
 30
0.0
 11
289.178135
 21
199.227001
 31
0.0
  0
LINE
  5
4B4
100
AcDbEntity
  8
1
390
0
  6
DOT
 62
     9
100
AcDbLine
 10
290.678135
 20
195.977001
 30
0.0
 11
290.678135
 21
199.977001
 31
0.0
  0
LINE
  5
4B5
100
AcDbEntity
  8
1
390
0
  6
DOT
 62
     9
100
AcDbLine
 10
290.678135
 20
190.477001
 30
0.0
 11
290.678135
 21
186.477001
 31
0.0
  0
LINE
  5
4B6
100
AcDbEntity
  8
1
390
0
  6
DOT
 62
     9
100
AcDbLine
 10
289.378135
 20
196.727001
 30
0.0
 11
289.378135
 21
197.977001
 31
0.0
  0
LINE
  5
4B7
100
AcDbEntity
  8
1
390
0
  6
DOT
 62
     9
100
AcDbLine
 10
289.378135
 20
197.977001
 30
0.0
 11
289.378135
 21
199.227001
 31
0.0
  0
LINE
  5
4B8
100
AcDbEntity
  8
1
390
0
  6
DOT
 62
     9
100
AcDbLine
 10
289.378135
 20
189.727001
 30
0.0
 11
289.378135
 21
188.477001
 31
0.0
  0
LINE
  5
4B9
100
AcDbEntity
  8
1
390
0
  6
DOT
 62
     9
100
AcDbLine
 10
289.378135
 20
188.477001
 30
0.0
 11
289.378135
 21
187.227001
 31
0.0
  0
LINE
  5
4BA
100
AcDbEntity
  8
1
390
0
  6
DOT
 62
     9
100
AcDbLine
 10
290.178135
 20
198.520929
 30
0.0
 11
290.178135
 21
198.118422
 31
0.0
  0
LINE
  5
4BB
100
AcDbEntity
  8
1
390
0
  6
DOT
 62
     9
100
AcDbLine
 10
290.178135
 20
199.064858
 30
0.0
 11
290.178135
 21
198.520929
 31
0.0
  0
LINE
  5
4BC
100
AcDbEntity
  8
1
390
0
  6
DOT
 62
     9
100
AcDbLine
 10
289.378135
 20
198.520929
 30
0.0
 11
290.178135
 21
198.520929
 31
0.0
  0
LINE
  5
4BD
100
AcDbEntity
  8
1
390
0
  6
DOT
 62
     9
100
AcDbLine
 10
290.178135
 20
187.933073
 30
0.0
 11
290.178135
 21
188.335579
 31
0.0
  0
LINE
  5
4BE
100
AcDbEntity
  8
1
390
0
  6
DOT
 62
     9
100
AcDbLine
 10
289.378135
 20
187.933073
 30
0.0
 11
290.178135
 21
187.933073
 31
0.0
  0
LINE
  5
4BF
100
AcDbEntity
  8
1
390
0
  6
DOT
 62
     9
100
AcDbLine
 10
290.178135
 20
187.389144
 30
0.0
 11
290.178135
 21
187.933073
 31
0.0
  0
LINE
  5
4C0
100
AcDbEntity
  8
1
390
0
  6
DOT
 62
     9
100
AcDbLine
 10
290.178135
 20
188.618422
 30
0.0
 11
290.178135
 21
189.020929
 31
0.0
  0
LINE
  5
4C1
100
AcDbEntity
  8
1
390
0
  6
DOT
 62
     9
100
AcDbLine
 10
290.178135
 20
197.83558
 30
0.0
 11
290.178135
 21
197.433073
 31
0.0
  0
LINE
  5
4C2
100
AcDbEntity
  8
1
390
0
  6
DOT
 62
     9
100
AcDbLine
 10
289.378135
 20
197.433073
 30
0.0
 11
290.178135
 21
197.433073
 31
0.0
  0
LINE
  5
4C3
100
AcDbEntity
  8
1
390
0
  6
DOT
 62
     9
100
AcDbLine
 10
290.178135
 20
197.433073
 30
0.0
 11
290.178135
 21
196.889145
 31
0.0
  0
LINE
  5
4C4
100
AcDbEntity
  8
1
390
0
  6
DOT
 62
     9
100
AcDbLine
 10
289.378135
 20
189.020929
 30
0.0
 11
290.178135
 21
189.020929
 31
0.0
  0
LINE
  5
4C5
100
AcDbEntity
  8
1
390
0
  6
DOT
 62
     9
100
AcDbLine
 10
290.178135
 20
189.020929
 30
0.0
 11
290.178135
 21
189.564857
 31
0.0
  0
LINE
  5
4C6
100
AcDbEntity
  8
1
390
0
  6
DOT
 62
     9
100
AcDbLine
 10
290.178135
 20
188.335579
 30
0.0
 11
290.178135
 21
188.618422
 31
0.0
  0
LINE
  5
4C7
100
AcDbEntity
  8
1
390
0
  6
DOT
 62
     9
100
AcDbLine
 10
290.178135
 20
198.118422
 30
0.0
 11
290.178135
 21
197.83558
 31
0.0
  0
LINE
  5
4C8
100
AcDbEntity
  8
1
390
0
  6
DOT
 62
     9
100
AcDbLine
 10
289.378135
 20
199.064858
 30
0.0
 11
290.178135
 21
199.064858
 31
0.0
  0
LINE
  5
4C9
100
AcDbEntity
  8
1
390
0
  6
DOT
 62
     9
100
AcDbLine
 10
289.378135
 20
187.389144
 30
0.0
 11
290.178135
 21
187.389144
 31
0.0
  0
LINE
  5
4CA
100
AcDbEntity
  8
1
390
0
  6
DOT
 62
     9
100
AcDbLine
 10
289.378135
 20
189.564857
 30
0.0
 11
290.178135
 21
189.564857
 31
0.0
  0
LINE
  5
4CB
100
AcDbEntity
  8
1
390
0
  6
DOT
 62
     9
100
AcDbLine
 10
289.378135
 20
196.889145
 30
0.0
 11
290.178135
 21
196.889145
 31
0.0
  0
LINE
  5
4CC
100
AcDbEntity
  8
1
390
0
  6
Continuous
 62
     7
100
AcDbLine
 10
288.178135
 20
197.727001
 30
0.0
 11
288.178135
 21
193.227001
 31
0.0
  0
LINE
  5
4CD
100
AcDbEntity
  8
1
390
0
  6
Continuous
 62
     7
100
AcDbLine
 10
288.178135
 20
193.227001
 30
0.0
 11
288.178135
 21
188.727001
 31
0.0
  0
LINE
  5
4CE
100
AcDbEntity
  8
1
390
0
  6
Continuous
 62
     7
100
AcDbLine
 10
287.178135
 20
189.227001
 30
0.0
 11
287.178135
 21
193.227001
 31
0.0
  0
LINE
  5
4CF
100
AcDbEntity
  8
1
390
0
  6
Continuous
 62
     7
100
AcDbLine
 10
287.178135
 20
193.227001
 30
0.0
 11
287.178135
 21
197.227001
 31
0.0
  0
POLYLINE
  5
4D0
100
AcDbEntity
  8
1
390
0
  6
Continuous
 62
     7
100
AcDb2dPolyline
 66
     1
 10
0.0
 20
0.0
 30
0.0
 40
3.0
 41
3.0
  0
VERTEX
  5
4D1
100
AcDbEntity
  8
1
390
0
 62
     7
100
AcDbVertex
100
AcDb2dVertex
 10
286.178135
 20
197.099984
 30
0.0
 42
0.064542
  0
VERTEX
  5
4D2
100
AcDbEntity
  8
1
390
0
 62
     7
100
AcDbVertex
100
AcDb2dVertex
 10
286.898019
 20
197.189153
 30
0.0
  0
VERTEX
  5
4D3
100
AcDbEntity
  8
1
390
0
 62
     7
100
AcDbVertex
100
AcDb2dVertex
 10
286.978135
 20
197.221998
 30
0.0
  0
SEQEND
  5
4D4
100
AcDbEntity
  8
0
390
0
  0
LINE
  5
4D5
100
AcDbEntity
  8
1
390
0
  6
Continuous
 62
     7
100
AcDbLine
 10
286.978135
 20
197.221998
 30
0.0
 11
286.978135
 21
197.227001
 31
0.0
  0
POLYLINE
  5
4D6
100
AcDbEntity
  8
1
390
0
  6
DOT
 62
     9
100
AcDb2dPolyline
 66
     1
 10
0.0
 20
0.0
 30
0.0
 40
3.0
 41
3.0
  0
VERTEX
  5
4D7
100
AcDbEntity
  8
1
390
0
 62
     9
100
AcDbVertex
100
AcDb2dVertex
 10
286.978135
 20
197.221998
 30
0.0
  0
VERTEX
  5
4D8
100
AcDbEntity
  8
1
390
0
 62
     9
100
AcDbVertex
100
AcDb2dVertex
 10
286.977618
 20
197.220454
 30
0.0
  0
VERTEX
  5
4D9
100
AcDbEntity
  8
1
390
0
 62
     9
100
AcDbVertex
100
AcDb2dVertex
 10
286.976068
 20
197.218706
 30
0.0
  0
VERTEX
  5
4DA
100
AcDbEntity
  8
1
390
0
 62
     9
100
AcDbVertex
100
AcDb2dVertex
 10
286.973491
 20
197.216758
 30
0.0
  0
VERTEX
  5
4DB
100
AcDbEntity
  8
1
390
0
 62
     9
100
AcDbVertex
100
AcDb2dVertex
 10
286.969326
 20
197.214309
 30
0.0
  0
VERTEX
  5
4DC
100
AcDbEntity
  8
1
390
0
 62
     9
100
AcDbVertex
100
AcDb2dVertex
 10
286.963848
 20
197.211614
 30
0.0
  0
VERTEX
  5
4DD
100
AcDbEntity
  8
1
390
0
 62
     9
100
AcDbVertex
100
AcDb2dVertex
 10
286.957077
 20
197.208686
 30
0.0
  0
VERTEX
  5
4DE
100
AcDbEntity
  8
1
390
0
 62
     9
100
AcDbVertex
100
AcDb2dVertex
 10
286.949029
 20
197.205537
 30
0.0
  0
VERTEX
  5
4DF
100
AcDbEntity
  8
1
390
0
 62
     9
100
AcDbVertex
100
AcDb2dVertex
 10
286.939429
 20
197.202078
 30
0.0
  0
VERTEX
  5
4E0
100
AcDbEntity
  8
1
390
0
 62
     9
100
AcDbVertex
100
AcDb2dVertex
 10
286.928499
 20
197.198409
 30
0.0
  0
VERTEX
  5
4E1
100
AcDbEntity
  8
1
390
0
 62
     9
100
AcDbVertex
100
AcDb2dVertex
 10
286.916273
 20
197.194552
 30
0.0
  0
VERTEX
  5
4E2
100
AcDbEntity
  8
1
390
0
 62
     9
100
AcDbVertex
100
AcDb2dVertex
 10
286.902783
 20
197.190526
 30
0.0
  0
VERTEX
  5
4E3
100
AcDbEntity
  8
1
390
0
 62
     9
100
AcDbVertex
100
AcDb2dVertex
 10
286.888233
 20
197.186402
 30
0.0
  0
VERTEX
  5
4E4
100
AcDbEntity
  8
1
390
0
 62
     9
100
AcDbVertex
100
AcDb2dVertex
 10
286.872478
 20
197.182146
 30
0.0
  0
VERTEX
  5
4E5
100
AcDbEntity
  8
1
390
0
 62
     9
100
AcDbVertex
100
AcDb2dVertex
 10
286.855558
 20
197.177783
 30
0.0
  0
VERTEX
  5
4E6
100
AcDbEntity
  8
1
390
0
 62
     9
100
AcDbVertex
100
AcDb2dVertex
 10
286.837516
 20
197.173338
 30
0.0
  0
VERTEX
  5
4E7
100
AcDbEntity
  8
1
390
0
 62
     9
100
AcDbVertex
100
AcDb2dVertex
 10
286.817812
 20
197.168703
 30
0.0
  0
VERTEX
  5
4E8
100
AcDbEntity
  8
1
390
0
 62
     9
100
AcDbVertex
100
AcDb2dVertex
 10
286.796953
 20
197.164022
 30
0.0
  0
VERTEX
  5
4E9
100
AcDbEntity
  8
1
390
0
 62
     9
100
AcDbVertex
100
AcDb2dVertex
 10
286.774996
 20
197.159325
 30
0.0
  0
VERTEX
  5
4EA
100
AcDbEntity
  8
1
390
0
 62
     9
100
AcDbVertex
100
AcDb2dVertex
 10
286.751994
 20
197.154641
 30
0.0
  0
VERTEX
  5
4EB
100
AcDbEntity
  8
1
390
0
 62
     9
100
AcDbVertex
100
AcDb2dVertex
 10
286.728176
 20
197.150034
 30
0.0
  0
VERTEX
  5
4EC
100
AcDbEntity
  8
1
390
0
 62
     9
100
AcDbVertex
100
AcDb2dVertex
 10
286.703367
 20
197.145483
 30
0.0
  0
VERTEX
  5
4ED
100
AcDbEntity
  8
1
390
0
 62
     9
100
AcDbVertex
100
AcDb2dVertex
 10
286.67763
 20
197.141019
 30
0.0
  0
VERTEX
  5
4EE
100
AcDbEntity
  8
1
390
0
 62
     9
100
AcDbVertex
100
AcDb2dVertex
 10
286.651028
 20
197.136671
 30
0.0
  0
VERTEX
  5
4EF
100
AcDbEntity
  8
1
390
0
 62
     9
100
AcDbVertex
100
AcDb2dVertex
 10
286.622763
 20
197.13234
 30
0.0
  0
VERTEX
  5
4F0
100
AcDbEntity
  8
1
390
0
 62
     9
100
AcDbVertex
100
AcDb2dVertex
 10
286.593624
 20
197.128178
 30
0.0
  0
VERTEX
  5
4F1
100
AcDbEntity
  8
1
390
0
 62
     9
100
AcDbVertex
100
AcDb2dVertex
 10
286.573834
 20
197.125522
 30
0.0
  0
SEQEND
  5
4F2
100
AcDbEntity
  8
0
390
0
  0
ARC
  5
4F3
100
AcDbEntity
  8
1
390
0
  6
DOT
 62
     9
100
AcDbCircle
 10
286.178824
 20
200.167746
 30
0.0
 40
3.067762
210
0.0
220
0.0
230
1.0
100
AcDbArc
 50
269.987138
 51
277.398039
  0
LINE
  5
4F4
100
AcDbEntity
  8
1
390
0
  6
Continuous
 62
     7
100
AcDbLine
 10
283.978135
 20
197.099984
 30
0.0
 11
283.978135
 21
189.227001
 31
0.0
  0
LINE
  5
4F5
100
AcDbEntity
  8
1
390
0
  6
Continuous
 62
     7
100
AcDbLine
 10
283.978135
 20
197.099984
 30
0.0
 11
286.178135
 21
197.099984
 31
0.0
  0
LINE
  5
4F6
100
AcDbEntity
  8
1
390
0
  6
Continuous
 62
     7
100
AcDbLine
 10
283.678135
 20
189.527001
 30
0.0
 11
283.678135
 21
196.789304
 31
0.0
  0
LINE
  5
4F7
100
AcDbEntity
  8
1
390
0
  6
Continuous
 62
     7
100
AcDbLine
 10
283.678135
 20
196.789304
 30
0.0
 11
283.978135
 21
197.099984
 31
0.0
  0
LINE
  5
4F8
100
AcDbEntity
  8
1
390
0
  6
DOT
 62
     9
100
AcDbLine
 10
283.678135
 20
196.055428
 30
0.0
 11
286.178135
 21
196.055428
 31
0.0
  0
POLYLINE
  5
4F9
100
AcDbEntity
  8
1
390
0
  6
DOT
 62
     9
100
AcDb2dPolyline
 66
     1
 10
0.0
 20
0.0
 30
0.0
 40
3.0
 41
3.0
  0
VERTEX
  5
4FA
100
AcDbEntity
  8
1
390
0
 62
     9
100
AcDbVertex
100
AcDb2dVertex
 10
286.178135
 20
196.055428
 30
0.0
 42
0.096177
  0
VERTEX
  5
4FB
100
AcDbEntity
  8
1
390
0
 62
     9
100
AcDbVertex
100
AcDb2dVertex
 10
286.950215
 20
196.198921
 30
0.0
  0
VERTEX
  5
4FC
100
AcDbEntity
  8
1
390
0
 62
     9
100
AcDbVertex
100
AcDb2dVertex
 10
286.978135
 20
196.220327
 30
0.0
  0
SEQEND
  5
4FD
100
AcDbEntity
  8
0
390
0
  0
POLYLINE
  5
4FE
100
AcDbEntity
  8
1
390
0
  6
DOT
 62
     9
100
AcDb2dPolyline
 66
     1
 10
0.0
 20
0.0
 30
0.0
 40
3.0
 41
3.0
  0
VERTEX
  5
4FF
100
AcDbEntity
  8
1
390
0
 62
     9
100
AcDbVertex
100
AcDb2dVertex
 10
286.978135
 20
196.220327
 30
0.0
  0
VERTEX
  5
500
100
AcDbEntity
  8
1
390
0
 62
     9
100
AcDbVertex
100
AcDb2dVertex
 10
286.88695
 20
196.172175
 30
0.0
 42
-0.083998
  0
VERTEX
  5
501
100
AcDbEntity
  8
1
390
0
 62
     9
100
AcDbVertex
100
AcDb2dVertex
 10
286.178135
 20
196.055428
 30
0.0
  0
SEQEND
  5
502
100
AcDbEntity
  8
0
390
0
  0
LINE
  5
503
100
AcDbEntity
  8
1
390
0
  6
DOT
 62
     9
100
AcDbLine
 10
286.178135
 20
196.055428
 30
0.0
 11
283.678135
 21
196.055428
 31
0.0
  0
LINE
  5
504
100
AcDbEntity
  8
1
390
0
  6
DOT
 62
     9
100
AcDbLine
 10
284.878135
 20
195.227001
 30
0.0
 11
284.878135
 21
193.227001
 31
0.0
  0
LINE
  5
505
100
AcDbEntity
  8
1
390
0
  6
DOT
 62
     9
100
AcDbLine
 10
284.878135
 20
193.227001
 30
0.0
 11
284.878135
 21
191.227001
 31
0.0
  0
LINE
  5
506
100
AcDbEntity
  8
1
390
0
  6
DOT
 62
     9
100
AcDbLine
 10
284.678135
 20
191.427001
 30
0.0
 11
284.678135
 21
193.227001
 31
0.0
  0
LINE
  5
507
100
AcDbEntity
  8
1
390
0
  6
DOT
 62
     9
100
AcDbLine
 10
284.678135
 20
193.227001
 30
0.0
 11
284.678135
 21
195.027001
 31
0.0
  0
LINE
  5
508
100
AcDbEntity
  8
1
390
0
  6
DOT
 62
     9
100
AcDbLine
 10
286.978135
 20
196.220327
 30
0.0
 11
286.978135
 21
197.221998
 31
0.0
  0
LINE
  5
509
100
AcDbEntity
  8
1
390
0
  6
DOT
 62
     9
100
AcDbLine
 10
314.178135
 20
178.127001
 30
0.0
 11
315.178135
 21
178.127001
 31
0.0
  0
LINE
  5
50A
100
AcDbEntity
  8
1
390
0
  6
DOT
 62
     9
100
AcDbLine
 10
315.178135
 20
182.327001
 30
0.0
 11
314.178135
 21
182.327001
 31
0.0
  0
ARC
  5
50B
100
AcDbEntity
  8
1
390
0
  6
DOT
 62
     9
100
AcDbCircle
 10
312.278135
 20
202.477001
 30
0.0
 40
2.0
210
0.0
220
0.0
230
1.0
100
AcDbArc
 50
90.0
 51
180.0
  0
ARC
  5
50C
100
AcDbEntity
  8
1
390
0
  6
DOT
 62
     9
100
AcDbCircle
 10
312.278135
 20
180.977001
 30
0.0
 40
2.0
210
0.0
220
0.0
230
1.0
100
AcDbArc
 50
180.0
 51
270.0
  0
LINE
  5
50D
100
AcDbEntity
  8
1
390
0
  6
DOT
 62
     9
100
AcDbLine
 10
312.278135
 20
178.977001
 30
0.0
 11
314.178135
 21
178.977001
 31
0.0
  0
LINE
  5
50E
100
AcDbEntity
  8
1
390
0
  6
DOT
 62
     9
100
AcDbLine
 10
314.178135
 20
178.977001
 30
0.0
 11
315.178135
 21
178.977001
 31
0.0
  0
LINE
  5
50F
100
AcDbEntity
  8
1
390
0
  6
DOT
 62
     9
100
AcDbLine
 10
315.178135
 20
204.477001
 30
0.0
 11
314.178135
 21
204.477001
 31
0.0
  0
LINE
  5
510
100
AcDbEntity
  8
1
390
0
  6
DOT
 62
     9
100
AcDbLine
 10
314.178135
 20
204.477001
 30
0.0
 11
312.278135
 21
204.477001
 31
0.0
  0
LINE
  5
511
100
AcDbEntity
  8
1
390
0
  6
DOT
 62
     9
100
AcDbLine
 10
312.278135
 20
181.977001
 30
0.0
 11
314.178135
 21
181.977001
 31
0.0
  0
LINE
  5
512
100
AcDbEntity
  8
1
390
0
  6
DOT
 62
     9
100
AcDbLine
 10
314.178135
 20
181.977001
 30
0.0
 11
315.178135
 21
181.977001
 31
0.0
  0
LINE
  5
513
100
AcDbEntity
  8
1
390
0
  6
DOT
 62
     9
100
AcDbLine
 10
315.178135
 20
207.477001
 30
0.0
 11
314.178135
 21
207.477001
 31
0.0
  0
LINE
  5
514
100
AcDbEntity
  8
1
390
0
  6
DOT
 62
     9
100
AcDbLine
 10
314.178135
 20
207.477001
 30
0.0
 11
312.278135
 21
207.477001
 31
0.0
  0
ARC
  5
515
100
AcDbEntity
  8
1
390
0
  6
DOT
 62
     9
100
AcDbCircle
 10
312.278135
 20
205.477001
 30
0.0
 40
2.0
210
0.0
220
0.0
230
1.0
100
AcDbArc
 50
90.0
 51
180.0
  0
ARC
  5
516
100
AcDbEntity
  8
1
390
0
  6
DOT
 62
     9
100
AcDbCircle
 10
312.278135
 20
183.977001
 30
0.0
 40
2.0
210
0.0
220
0.0
230
1.0
100
AcDbArc
 50
180.0
 51
270.0
  0
LINE
  5
517
100
AcDbEntity
  8
1
390
0
  6
DOT
 62
     9
100
AcDbLine
 10
289.178135
 20
195.977001
 30
0.0
 11
290.678135
 21
195.977001
 31
0.0
  0
LINE
  5
518
100
AcDbEntity
  8
1
390
0
  6
DOT
 62
     9
100
AcDbLine
 10
290.678135
 20
199.977001
 30
0.0
 11
289.178135
 21
199.977001
 31
0.0
  0
LINE
  5
519
100
AcDbEntity
  8
1
390
0
  6
DOT
 62
     9
100
AcDbLine
 10
289.178135
 20
186.477001
 30
0.0
 11
290.678135
 21
186.477001
 31
0.0
  0
LINE
  5
51A
100
AcDbEntity
  8
1
390
0
  6
DOT
 62
     9
100
AcDbLine
 10
290.678135
 20
190.477001
 30
0.0
 11
289.178135
 21
190.477001
 31
0.0
  0
LINE
  5
51B
100
AcDbEntity
  8
1
390
0
  6
DOT
 62
     9
100
AcDbLine
 10
290.678135
 20
190.227001
 30
0.0
 11
289.878135
 21
190.227001
 31
0.0
  0
LINE
  5
51C
100
AcDbEntity
  8
1
390
0
  6
DOT
 62
     9
100
AcDbLine
 10
289.878135
 20
186.727001
 30
0.0
 11
290.678135
 21
186.727001
 31
0.0
  0
ARC
  5
51D
100
AcDbEntity
  8
1
390
0
  6
DOT
 62
     9
100
AcDbCircle
 10
289.878135
 20
196.727001
 30
0.0
 40
0.5
210
0.0
220
0.0
230
1.0
100
AcDbArc
 50
180.0
 51
270.0
  0
ARC
  5
51E
100
AcDbEntity
  8
1
390
0
  6
DOT
 62
     9
100
AcDbCircle
 10
289.878135
 20
199.227001
 30
0.0
 40
0.5
210
0.0
220
0.0
230
1.0
100
AcDbArc
 50
90.0
 51
180.0
  0
LINE
  5
51F
100
AcDbEntity
  8
1
390
0
  6
DOT
 62
     9
100
AcDbLine
 10
290.678135
 20
199.727001
 30
0.0
 11
289.878135
 21
199.727001
 31
0.0
  0
LINE
  5
520
100
AcDbEntity
  8
1
390
0
  6
DOT
 62
     9
100
AcDbLine
 10
289.878135
 20
196.227001
 30
0.0
 11
290.678135
 21
196.227001
 31
0.0
  0
ARC
  5
521
100
AcDbEntity
  8
1
390
0
  6
DOT
 62
     9
100
AcDbCircle
 10
289.878135
 20
187.227001
 30
0.0
 40
0.5
210
0.0
220
0.0
230
1.0
100
AcDbArc
 50
180.0
 51
270.0
  0
ARC
  5
522
100
AcDbEntity
  8
1
390
0
  6
DOT
 62
     9
100
AcDbCircle
 10
289.878135
 20
189.727001
 30
0.0
 40
0.5
210
0.0
220
0.0
230
1.0
100
AcDbArc
 50
90.0
 51
180.0
  0
LINE
  5
523
100
AcDbEntity
  8
1
390
0
  6
DOT
 62
     9
100
AcDbLine
 10
289.378135
 20
198.603772
 30
0.0
 11
290.178135
 21
198.603772
 31
0.0
  0
LINE
  5
524
100
AcDbEntity
  8
1
390
0
  6
DOT
 62
     9
100
AcDbLine
 10
290.178135
 20
187.85023
 30
0.0
 11
289.378135
 21
187.85023
 31
0.0
  0
LINE
  5
525
100
AcDbEntity
  8
1
390
0
  6
DOT
 62
     9
100
AcDbLine
 10
290.178135
 20
197.35023
 30
0.0
 11
289.378135
 21
197.35023
 31
0.0
  0
LINE
  5
526
100
AcDbEntity
  8
1
390
0
  6
DOT
 62
     9
100
AcDbLine
 10
289.378135
 20
189.103772
 30
0.0
 11
290.178135
 21
189.103772
 31
0.0
  0
LINE
  5
527
100
AcDbEntity
  8
1
390
0
  6
Continuous
 62
     7
100
AcDbLine
 10
288.178135
 20
188.727001
 30
0.0
 11
289.178135
 21
188.727001
 31
0.0
  0
LINE
  5
528
100
AcDbEntity
  8
1
390
0
  6
Continuous
 62
     7
100
AcDbLine
 10
289.178135
 20
197.727001
 30
0.0
 11
288.178135
 21
197.727001
 31
0.0
  0
LINE
  5
529
100
AcDbEntity
  8
1
390
0
  6
Continuous
 62
     7
100
AcDbLine
 10
283.978135
 20
189.227001
 30
0.0
 11
287.178135
 21
189.227001
 31
0.0
  0
LINE
  5
52A
100
AcDbEntity
  8
1
390
0
  6
Continuous
 62
     7
100
AcDbLine
 10
287.178135
 20
197.227001
 30
0.0
 11
286.978135
 21
197.227001
 31
0.0
  0
LINE
  5
52B
100
AcDbEntity
  8
1
390
0
  6
Continuous
 62
     7
100
AcDbLine
 10
283.678135
 20
189.527001
 30
0.0
 11
283.978135
 21
189.227001
 31
0.0
  0
LINE
  5
52C
100
AcDbEntity
  8
1
390
0
  6
Continuous
 62
     7
100
AcDbLine
 10
287.178135
 20
189.727001
 30
0.0
 11
288.178135
 21
189.727001
 31
0.0
  0
LINE
  5
52D
100
AcDbEntity
  8
1
390
0
  6
Continuous
 62
     7
100
AcDbLine
 10
288.178135
 20
196.727001
 30
0.0
 11
287.178135
 21
196.727001
 31
0.0
  0
LINE
  5
52E
100
AcDbEntity
  8
1
390
0
  6
DOT
 62
     9
100
AcDbLine
 10
289.178135
 20
196.227001
 30
0.0
 11
286.978135
 21
196.227001
 31
0.0
  0
LINE
  5
52F
100
AcDbEntity
  8
1
390
0
  6
DOT
 62
     9
100
AcDbLine
 10
283.678135
 20
190.227001
 30
0.0
 11
289.178135
 21
190.227001
 31
0.0
  0
LINE
  5
530
100
AcDbEntity
  8
1
390
0
  6
DOT
 62
     9
100
AcDbLine
 10
289.178135
 20
195.227001
 30
0.0
 11
288.178135
 21
195.227001
 31
0.0
  0
LINE
  5
531
100
AcDbEntity
  8
1
390
0
  6
DOT
 62
     9
100
AcDbLine
 10
288.178135
 20
195.227001
 30
0.0
 11
287.178135
 21
195.227001
 31
0.0
  0
LINE
  5
532
100
AcDbEntity
  8
1
390
0
  6
DOT
 62
     9
100
AcDbLine
 10
287.178135
 20
195.227001
 30
0.0
 11
284.878135
 21
195.227001
 31
0.0
  0
LINE
  5
533
100
AcDbEntity
  8
1
390
0
  6
DOT
 62
     9
100
AcDbLine
 10
284.878135
 20
191.227001
 30
0.0
 11
287.178135
 21
191.227001
 31
0.0
  0
LINE
  5
534
100
AcDbEntity
  8
1
390
0
  6
DOT
 62
     9
100
AcDbLine
 10
287.178135
 20
191.227001
 30
0.0
 11
288.178135
 21
191.227001
 31
0.0
  0
LINE
  5
535
100
AcDbEntity
  8
1
390
0
  6
DOT
 62
     9
100
AcDbLine
 10
288.178135
 20
191.227001
 30
0.0
 11
289.178135
 21
191.227001
 31
0.0
  0
LINE
  5
536
100
AcDbEntity
  8
1
390
0
  6
DOT
 62
     9
100
AcDbLine
 10
284.878135
 20
195.227001
 30
0.0
 11
284.678135
 21
195.027001
 31
0.0
  0
LINE
  5
537
100
AcDbEntity
  8
1
390
0
  6
DOT
 62
     9
100
AcDbLine
 10
284.678135
 20
191.427001
 30
0.0
 11
284.878135
 21
191.227001
 31
0.0
  0
LINE
  5
538
100
AcDbEntity
  8
1
390
0
  6
DOT
 62
     9
100
AcDbLine
 10
284.678135
 20
191.777001
 30
0.0
 11
284.878135
 21
191.977001
 31
0.0
  0
LINE
  5
539
100
AcDbEntity
  8
1
390
0
  6
DOT
 62
     9
100
AcDbLine
 10
284.878135
 20
194.477001
 30
0.0
 11
284.678135
 21
194.677001
 31
0.0
  0
LINE
  5
53A
100
AcDbEntity
  8
1
390
0
  6
DOT
 62
     9
100
AcDbLine
 10
284.878135
 20
191.977001
 30
0.0
 11
289.178135
 21
191.977001
 31
0.0
  0
LINE
  5
53B
100
AcDbEntity
  8
1
390
0
  6
DOT
 62
     9
100
AcDbLine
 10
289.178135
 20
194.477001
 30
0.0
 11
284.878135
 21
194.477001
 31
0.0
  0
LINE
  5
53C
100
AcDbEntity
  8
1
390
0
  6
DOT
 62
     9
100
AcDbLine
 10
314.178135
 20
204.127001
 30
0.0
 11
315.178135
 21
204.127001
 31
0.0
  0
LINE
  5
53D
100
AcDbEntity
  8
1
390
0
  6
DOT
 62
     9
100
AcDbLine
 10
315.178135
 20
208.327001
 30
0.0
 11
314.178135
 21
208.327001
 31
0.0
  0
LINE
  5
53F
100
AcDbEntity
  8
1
390
0
  6
CENTER
 62
     1
100
AcDbLine
 10
92.79366
 20
193.227001
 30
0.0
 11
187.79366
 21
193.227001
 31
0.0
  0
LINE
  5
540
100
AcDbEntity
  8
1
390
0
  6
CENTER
 62
     1
100
AcDbLine
 10
140.29366
 20
171.227001
 30
0.0
 11
140.29366
 21
215.227001
 31
0.0
  0
LINE
  5
541
100
AcDbEntity
  8
1
390
0
  6
CENTER
 62
     1
100
AcDbLine
 10
186.79366
 20
180.227001
 30
0.0
 11
189.70566
 21
180.227001
 31
0.0
  0
LINE
  5
542
100
AcDbEntity
  8
1
390
0
  6
CENTER
 62
     1
100
AcDbLine
 10
82.19366
 20
206.227001
 30
0.0
 11
88.39366
 21
206.227001
 31
0.0
  0
LINE
  5
543
100
AcDbEntity
  8
1
390
0
  6
CENTER
 62
     1
100
AcDbLine
 10
85.29366
 20
203.127001
 30
0.0
 11
85.29366
 21
209.327001
 31
0.0
  0
LINE
  5
544
100
AcDbEntity
  8
1
390
0
  6
CENTER
 62
     1
100
AcDbLine
 10
95.04366
 20
188.477001
 30
0.0
 11
101.04366
 21
188.477001
 31
0.0
  0
LINE
  5
545
100
AcDbEntity
  8
1
390
0
  6
CENTER
 62
     1
100
AcDbLine
 10
98.04366
 20
185.477001
 30
0.0
 11
98.04366
 21
191.477001
 31
0.0
  0
LINE
  5
546
100
AcDbEntity
  8
1
390
0
  6
CENTER
 62
     1
100
AcDbLine
 10
95.04366
 20
197.977001
 30
0.0
 11
101.04366
 21
197.977001
 31
0.0
  0
LINE
  5
547
100
AcDbEntity
  8
1
390
0
  6
CENTER
 62
     1
100
AcDbLine
 10
98.04366
 20
194.977001
 30
0.0
 11
98.04366
 21
200.977001
 31
0.0
  0
LINE
  5
548
100
AcDbEntity
  8
1
390
0
  6
CENTER
 62
     1
100
AcDbLine
 10
97.29366
 20
193.227001
 30
0.0
 11
108.29366
 21
193.227001
 31
0.0
  0
LINE
  5
549
100
AcDbEntity
  8
1
390
0
  6
CENTER
 62
     1
100
AcDbLine
 10
102.79366
 20
187.727001
 30
0.0
 11
102.79366
 21
198.727001
 31
0.0
  0
LINE
  5
54A
100
AcDbEntity
  8
1
390
0
  6
CENTER
 62
     1
100
AcDbLine
 10
104.54366
 20
188.477001
 30
0.0
 11
110.54366
 21
188.477001
 31
0.0
  0
LINE
  5
54B
100
AcDbEntity
  8
1
390
0
  6
CENTER
 62
     1
100
AcDbLine
 10
107.54366
 20
185.477001
 30
0.0
 11
107.54366
 21
191.477001
 31
0.0
  0
LINE
  5
54C
100
AcDbEntity
  8
1
390
0
  6
CENTER
 62
     1
100
AcDbLine
 10
104.54366
 20
197.977001
 30
0.0
 11
110.54366
 21
197.977001
 31
0.0
  0
LINE
  5
54D
100
AcDbEntity
  8
1
390
0
  6
CENTER
 62
     1
100
AcDbLine
 10
107.54366
 20
194.977001
 30
0.0
 11
107.54366
 21
200.977001
 31
0.0
  0
LINE
  5
54E
100
AcDbEntity
  8
1
390
0
  6
CENTER
 62
     1
100
AcDbLine
 10
153.54366
 20
191.727001
 30
0.0
 11
181.04366
 21
191.727001
 31
0.0
  0
LINE
  5
54F
100
AcDbEntity
  8
1
390
0
  6
CENTER
 62
     1
100
AcDbLine
 10
167.29366
 20
177.977001
 30
0.0
 11
167.29366
 21
205.477001
 31
0.0
  0
LINE
  5
550
100
AcDbEntity
  8
1
390
0
  6
CENTER
 62
     1
100
AcDbLine
 10
192.19366
 20
180.227001
 30
0.0
 11
198.39366
 21
180.227001
 31
0.0
  0
LINE
  5
551
100
AcDbEntity
  8
1
390
0
  6
CENTER
 62
     1
100
AcDbLine
 10
195.29366
 20
177.127001
 30
0.0
 11
195.29366
 21
183.327001
 31
0.0
  0
LINE
  5
552
100
AcDbEntity
  8
1
390
0
  6
CENTER
 62
     1
100
AcDbLine
 10
140.29366
 20
82.087969
 30
0.0
 11
140.29366
 21
102.187969
 31
0.0
  0
LINE
  5
553
100
AcDbEntity
  8
1
390
0
  6
CENTER
 62
     1
100
AcDbLine
 10
311.278135
 20
193.227001
 30
0.0
 11
291.178135
 21
193.227001
 31
0.0
  0
INSERT
  5
565
100
AcDbEntity
  8
1
390
0
100
AcDbBlockReference
  2
AID2089
 10
0.0
 20
0.0
 30
0.0
  0
INSERT
  5
577
100
AcDbEntity
  8
1
390
0
100
AcDbBlockReference
  2
AID2102
 10
0.0
 20
0.0
 30
0.0
  0
INSERT
  5
589
100
AcDbEntity
  8
1
390
0
100
AcDbBlockReference
  2
AID2115
 10
0.0
 20
0.0
 30
0.0
  0
INSERT
  5
59B
100
AcDbEntity
  8
1
390
0
100
AcDbBlockReference
  2
AID2128
 10
0.0
 20
0.0
 30
0.0
  0
INSERT
  5
5AD
100
AcDbEntity
  8
1
390
0
100
AcDbBlockReference
  2
AID2141
 10
0.0
 20
0.0
 30
0.0
  0
INSERT
  5
5BF
100
AcDbEntity
  8
1
390
0
100
AcDbBlockReference
  2
AID2154
 10
0.0
 20
0.0
 30
0.0
  0
INSERT
  5
5CD
100
AcDbEntity
  8
1
390
0
100
AcDbBlockReference
  2
AID2167
 10
0.0
 20
0.0
 30
0.0
  0
INSERT
  5
5DF
100
AcDbEntity
  8
1
390
0
100
AcDbBlockReference
  2
AID2180
 10
0.0
 20
0.0
 30
0.0
  0
INSERT
  5
5F1
100
AcDbEntity
  8
1
390
0
100
AcDbBlockReference
  2
AID2193
 10
0.0
 20
0.0
 30
0.0
  0
INSERT
  5
5F6
100
AcDbEntity
  8
1
390
0
100
AcDbBlockReference
  2
AID2206
 10
0.0
 20
0.0
 30
0.0
  0
INSERT
  5
5FB
100
AcDbEntity
  8
1
390
0
100
AcDbBlockReference
  2
AID2209
 10
0.0
 20
0.0
 30
0.0
  0
INSERT
  5
600
100
AcDbEntity
  8
1
390
0
100
AcDbBlockReference
  2
AID2212
 10
0.0
 20
0.0
 30
0.0
  0
ENDSEC
  0
SECTION
  2
OBJECTS
  0
DICTIONARY
  5
19
100
AcDbDictionary
280
     0
281
     1
  3
ACAD_GROUP
350
1A
  3
ACAD_MLINESTYLE
350
1B
  3
ACAD_LAYOUT
350
1E
  3
ACAD_PLOTSETTINGS
350
22
  3
ACAD_PLOTSTYLENAME
350
1F
  3
ACAD_WIPEOUT_VARS
350
23
  0
DICTIONARY
  5
1A
102
{ACAD_REACTORS
330
19
102
}
100
AcDbDictionary
280
     0
281
     1
  0
DICTIONARY
  5
1B
102
{ACAD_REACTORS
330
19
102
}
100
AcDbDictionary
280
     0
281
     1
  3
Standard
350
1C
  0
MLINESTYLE
  5
1C
102
{ACAD_REACTORS
330
1B
102
}
100
AcDbMlineStyle
  2
Standard
 70
     0
  3

 62
     0
 51
90.0
 52
90.0
 71
     2
 49
0.5
 62
   256
  6
ByLayer
 49
-0.5
 62
   256
  6
ByLayer
  0
ACDBDICTIONARYWDFLT
  5
1F
102
{ACAD_REACTORS
330
19
102
}
100
AcDbDictionary
281
     1
  3
Normal
350
1D
100
AcDbDictionaryWithDefault
340
1D
  0
ACDBPLACEHOLDER
  5
1D
102
{ACAD_REACTORS
330
1F
102
}
  0
LAYOUT
  5
20
102
{ACAD_REACTORS
330
1E
102
}
100
AcDbPlotSettings
  1

  2

  4

  6

 40
0.0
 41
0.0
 42
0.0
 43
0.0
 44
0.0
 45
0.0
 46
0.0
 47
0.0
 48
0.0
 49
0.0
140
0.0
141
0.0
142
1.0
143
1.0
 70
  1024
 72
     0
 73
     0
 74
     0
  7

 75
     0
147
1.0
148
0.0
149
0.0
100
AcDbLayout
  1
Model
 70
     0
 71
     0
 10
0.0
 20
0.0
 11
0.0
 21
0.0
 12
0.0
 22
0.0
 32
0.0
 14
0.0
 24
0.0
 34
0.0
 15
0.0
 25
0.0
 35
0.0
146
0.0
 13
0.0
 23
0.0
 33
0.0
 16
0.0
 26
0.0
 36
0.0
 17
0.0
 27
0.0
 37
0.0
 76
     0
330
A
331
0
345
0
346
0
  0
LAYOUT
  5
21
102
{ACAD_REACTORS
330
1E
102
}
100
AcDbPlotSettings
  1

  2

  4

  6

 40
0.0
 41
0.0
 42
0.0
 43
0.0
 44
0.0
 45
0.0
 46
0.0
 47
0.0
 48
0.0
 49
0.0
140
0.0
141
0.0
142
1.0
143
1.0
 70
     0
 72
     0
 73
     0
 74
     0
  7

 75
     0
147
1.0
148
0.0
149
0.0
100
AcDbLayout
  1
Layout1
 70
     0
 71
     0
 10
0.0
 20
0.0
 11
0.0
 21
0.0
 12
0.0
 22
0.0
 32
0.0
 14
0.0
 24
0.0
 34
0.0
 15
0.0
 25
0.0
 35
0.0
146
0.0
 13
0.0
 23
0.0
 33
0.0
 16
0.0
 26
0.0
 36
0.0
 17
0.0
 27
0.0
 37
0.0
 76
     0
330
B
331
0
345
0
346
0
  0
DICTIONARY
  5
1E
102
{ACAD_REACTORS
330
19
102
}
100
AcDbDictionary
280
     0
281
     1
  3
Layout1
350
21
  3
Model
350
20
  0
DICTIONARY
  5
22
102
{ACAD_REACTORS
330
19
102
}
100
AcDbDictionary
280
     0
281
     1
  0
WIPEOUTVARIABLES
  5
23
100
AcDbWipeoutVariables
 70
     1
  0
ENDSEC
  0
EOF
